ISO-10303-21;
HEADER;
FILE_DESCRIPTION (( 'STEP AP214' ),
    '1' );
FILE_NAME ('59442.STEP',
    '2023-06-30T22:17:07',
    ( '' ),
    ( '' ),
    'SwSTEP 2.0',
    'SolidWorks 2023',
    '' );
FILE_SCHEMA (( 'AUTOMOTIVE_DESIGN' ));
ENDSEC;

DATA;
#1 = AXIS2_PLACEMENT_3D ( 'NONE', #355, #300, #277 ) ;
#2 = COLOUR_RGB ( '',1.000000000000000000, 0.000000000000000000, 0.000000000000000000 ) ;
#3 = SURFACE_STYLE_USAGE ( .BOTH. , #318 ) ;
#4 = ORIENTED_EDGE ( 'NONE', *, *, #228, .T. ) ;
#5 =( NAMED_UNIT ( * ) PLANE_ANGLE_UNIT ( ) SI_UNIT ( $, .RADIAN. ) );
#6 =( CONVERSION_BASED_UNIT ( 'INCH', #154 ) LENGTH_UNIT ( ) NAMED_UNIT ( #117 ) );
#7 = MECHANICAL_DESIGN_GEOMETRIC_PRESENTATION_REPRESENTATION (  '', ( #33 ), #119 ) ;
#8 = AXIS2_PLACEMENT_3D ( 'NONE', #205, #343, #55 ) ;
#9 = DIRECTION ( 'NONE',  ( 0.000000000000000000, 0.000000000000000000, -1.000000000000000000 ) ) ;
#10 =( NAMED_UNIT ( * ) SI_UNIT ( $, .STERADIAN. ) SOLID_ANGLE_UNIT ( ) );
#11 = DIRECTION ( 'NONE',  ( -0.000000000000000000, -1.000000000000000000, -0.000000000000000000 ) ) ;
#12 =( CONVERSION_BASED_UNIT ( 'INCH', #270 ) LENGTH_UNIT ( ) NAMED_UNIT ( #164 ) );
#13 =( NAMED_UNIT ( * ) PLANE_ANGLE_UNIT ( ) SI_UNIT ( $, .RADIAN. ) );
#14 = FACE_OUTER_BOUND ( 'NONE', #78, .T. ) ;
#15 = ORIENTED_EDGE ( 'NONE', *, *, #42, .F. ) ;
#16 = FILL_AREA_STYLE ('',( #138 ) ) ;
#17 = ADVANCED_FACE ( 'NONE', ( #260 ), #26, .T. ) ;
#18 = EDGE_CURVE ( 'NONE', #111, #361, #81, .T. ) ;
#19 = AXIS2_PLACEMENT_3D ( 'NONE', #279, #338, #319 ) ;
#20 = AXIS2_PLACEMENT_3D ( 'NONE', #350, #101, #347 ) ;
#21 =( CONVERSION_BASED_UNIT ( 'INCH', #121 ) LENGTH_UNIT ( ) NAMED_UNIT ( #311 ) );
#22 = SURFACE_STYLE_FILL_AREA ( #232 ) ;
#23 = SURFACE_STYLE_FILL_AREA ( #86 ) ;
#24 = APPLICATION_CONTEXT ( 'automotive_design' ) ;
#25 = SURFACE_SIDE_STYLE ('',( #50 ) ) ;
#26 = PLANE ( 'NONE',  #19 ) ;
#27 = ADVANCED_BREP_SHAPE_REPRESENTATION ( '59442', ( #28, #173, #332 ), #145 ) ;
#28 = MANIFOLD_SOLID_BREP ( 'Revolve - Cutting Edge', #72 ) ;
#29 = ORIENTED_EDGE ( 'NONE', *, *, #356, .T. ) ;
#30 =( NAMED_UNIT ( * ) SI_UNIT ( $, .STERADIAN. ) SOLID_ANGLE_UNIT ( ) );
#31 = DIRECTION ( 'NONE',  ( -0.000000000000000000, -1.000000000000000000, -0.000000000000000000 ) ) ;
#32 = CARTESIAN_POINT ( 'NONE',  ( 3.074838820850149482E-16, 0.5000000000000001110, 0.000000000000000000 ) ) ;
#33 = STYLED_ITEM ( 'NONE', ( #220 ), #198 ) ;
#34 = DIRECTION ( 'NONE',  ( 0.000000000000000000, 0.000000000000000000, 1.000000000000000000 ) ) ;
#35 = CARTESIAN_POINT ( 'NONE',  ( 0.000000000000000000, 0.1875000000000000555, 0.000000000000000000 ) ) ;
#36 = FILL_AREA_STYLE ('',( #155 ) ) ;
#37 = AXIS2_PLACEMENT_3D ( 'NONE', #241, #349, #329 ) ;
#38 = STYLED_ITEM ( 'NONE', ( #281 ), #17 ) ;
#39 = SURFACE_SIDE_STYLE ('',( #168 ) ) ;
#40 = EDGE_LOOP ( 'NONE', ( #73, #251 ) ) ;
#41 = EDGE_LOOP ( 'NONE', ( #189, #106 ) ) ;
#42 = EDGE_CURVE ( 'NONE', #111, #204, #292, .T. ) ;
#43 = APPLICATION_CONTEXT ( 'automotive_design' ) ;
#44 = CIRCLE ( 'NONE', #183, 0.1874999999999998057 ) ;
#45 = PRODUCT_CONTEXT ( 'NONE', #24, 'mechanical' ) ;
#46 = UNCERTAINTY_MEASURE_WITH_UNIT (LENGTH_MEASURE( 1.000000000000000082E-05 ), #360, 'distance_accuracy_value', 'NONE');
#47 = CARTESIAN_POINT ( 'NONE',  ( 0.000000000000000000, 0.5000000000000000000, -0.1874999999999999445 ) ) ;
#48 = ORIENTED_EDGE ( 'NONE', *, *, #158, .T. ) ;
#49 = UNCERTAINTY_MEASURE_WITH_UNIT (LENGTH_MEASURE( 1.000000000000000082E-05 ), #246, 'distance_accuracy_value', 'NONE');
#50 = SURFACE_STYLE_FILL_AREA ( #312 ) ;
#51 = PRESENTATION_LAYER_ASSIGNMENT (  '', '', ( #38 ) ) ;
#52 = STYLED_ITEM ( 'NONE', ( #203 ), #235 ) ;
#53 = DIRECTION ( 'NONE',  ( -1.000000000000000000, 0.000000000000000000, 0.000000000000000000 ) ) ;
#54 = ORIENTED_EDGE ( 'NONE', *, *, #18, .T. ) ;
#55 = DIRECTION ( 'NONE',  ( 0.000000000000000000, 0.000000000000000000, -1.000000000000000000 ) ) ;
#56 = LENGTH_MEASURE_WITH_UNIT ( LENGTH_MEASURE( 0.02539999999999999897 ), #175 );
#57 = CIRCLE ( 'NONE', #244, 0.1874999999999999445 ) ;
#58 = STYLED_ITEM ( 'NONE', ( #290 ), #263 ) ;
#59 = ORIENTED_EDGE ( 'NONE', *, *, #372, .T. ) ;
#60 =( NAMED_UNIT ( * ) PLANE_ANGLE_UNIT ( ) SI_UNIT ( $, .RADIAN. ) );
#61 = DIRECTION ( 'NONE',  ( 0.000000000000000000, 0.000000000000000000, -1.000000000000000000 ) ) ;
#62 = CARTESIAN_POINT ( 'NONE',  ( -2.296212748401287726E-17, 0.1875000000000000278, 0.000000000000000000 ) ) ;
#63 = PLANE ( 'NONE',  #340 ) ;
#64 = DIRECTION ( 'NONE',  ( -1.000000000000000000, 0.000000000000000000, 0.000000000000000000 ) ) ;
#65 = CARTESIAN_POINT ( 'NONE',  ( -0.1874999999999995837, 2.000000000000000000, 0.000000000000000000 ) ) ;
#66 = PRESENTATION_LAYER_ASSIGNMENT (  '', '', ( #219 ) ) ;
#67 = EDGE_CURVE ( 'NONE', #344, #196, #57, .T. ) ;
#68 = STYLED_ITEM ( 'NONE', ( #146 ), #225 ) ;
#69 = SURFACE_STYLE_USAGE ( .BOTH. , #291 ) ;
#70 = EDGE_CURVE ( 'NONE', #196, #313, #179, .T. ) ;
#71 =( NAMED_UNIT ( * ) SI_UNIT ( $, .STERADIAN. ) SOLID_ANGLE_UNIT ( ) );
#72 = CLOSED_SHELL ( 'NONE', ( #198, #225, #17, #235, #263 ) ) ;
#73 = ORIENTED_EDGE ( 'NONE', *, *, #167, .F. ) ;
#74 = CIRCLE ( 'NONE', #309, 0.1874999999999999722 ) ;
#75 =( NAMED_UNIT ( * ) PLANE_ANGLE_UNIT ( ) SI_UNIT ( $, .RADIAN. ) );
#76 = DIMENSIONAL_EXPONENTS ( 1.000000000000000000, 0.000000000000000000, 0.000000000000000000, 0.000000000000000000, 0.000000000000000000, 0.000000000000000000, 0.000000000000000000 ) ;
#77 = ORIENTED_EDGE ( 'NONE', *, *, #87, .F. ) ;
#78 = EDGE_LOOP ( 'NONE', ( #276, #144, #85, #174, #250 ) ) ;
#79 = DIMENSIONAL_EXPONENTS ( 1.000000000000000000, 0.000000000000000000, 0.000000000000000000, 0.000000000000000000, 0.000000000000000000, 0.000000000000000000, 0.000000000000000000 ) ;
#80 = FILL_AREA_STYLE_COLOUR ( '', #299 ) ;
#81 = LINE ( 'NONE', #201, #248 ) ;
#82 = VECTOR ( 'NONE', #243, 39.37007874015748143 ) ;
#83 = FILL_AREA_STYLE_COLOUR ( '', #2 ) ;
#84 = PRODUCT_DEFINITION_SHAPE ( 'NONE', 'NONE',  #160 ) ;
#85 = ORIENTED_EDGE ( 'NONE', *, *, #153, .F. ) ;
#86 = FILL_AREA_STYLE ('',( #176 ) ) ;
#87 = EDGE_CURVE ( 'NONE', #135, #361, #315, .T. ) ;
#88 =( NAMED_UNIT ( * ) PLANE_ANGLE_UNIT ( ) SI_UNIT ( $, .RADIAN. ) );
#89 = EDGE_CURVE ( 'NONE', #204, #111, #271, .T. ) ;
#90 = AXIS2_PLACEMENT_3D ( 'NONE', #32, #187, #98 ) ;
#91 = SURFACE_STYLE_FILL_AREA ( #125 ) ;
#92 = AXIS2_PLACEMENT_3D ( 'NONE', #191, #302, #159 ) ;
#93 = SURFACE_STYLE_FILL_AREA ( #36 ) ;
#94 = EDGE_CURVE ( 'NONE', #313, #370, #207, .T. ) ;
#95 = DIRECTION ( 'NONE',  ( 1.224646799147353207E-16, -0.000000000000000000, 1.000000000000000000 ) ) ;
#96 = DIRECTION ( 'NONE',  ( -0.000000000000000000, -1.000000000000000000, -0.000000000000000000 ) ) ;
#97 = DIRECTION ( 'NONE',  ( 0.000000000000000000, 0.000000000000000000, -1.000000000000000000 ) ) ;
#98 = DIRECTION ( 'NONE',  ( -1.000000000000000000, 0.000000000000000000, 0.000000000000000000 ) ) ;
#99 = AXIS2_PLACEMENT_3D ( 'NONE', #357, #192, #194 ) ;
#100 =( GEOMETRIC_REPRESENTATION_CONTEXT ( 3 ) GLOBAL_UNCERTAINTY_ASSIGNED_CONTEXT ( ( #230 ) ) GLOBAL_UNIT_ASSIGNED_CONTEXT ( ( #284, #60, #10 ) ) REPRESENTATION_CONTEXT ( 'NONE', 'WORKASPACE' ) );
#101 = DIRECTION ( 'NONE',  ( -0.000000000000000000, -1.000000000000000000, -0.000000000000000000 ) ) ;
#102 = CARTESIAN_POINT ( 'NONE',  ( 3.074838820850149482E-16, 0.5000000000000001110, 0.000000000000000000 ) ) ;
#103 = SURFACE_STYLE_USAGE ( .BOTH. , #222 ) ;
#104 = FACE_OUTER_BOUND ( 'NONE', #109, .T. ) ;
#105 =( GEOMETRIC_REPRESENTATION_CONTEXT ( 3 ) GLOBAL_UNCERTAINTY_ASSIGNED_CONTEXT ( ( #253 ) ) GLOBAL_UNIT_ASSIGNED_CONTEXT ( ( #6, #13, #30 ) ) REPRESENTATION_CONTEXT ( 'NONE', 'WORKASPACE' ) );
#106 = ORIENTED_EDGE ( 'NONE', *, *, #351, .T. ) ;
#107 = AXIS2_PLACEMENT_3D ( 'NONE', #231, #178, #53 ) ;
#108 = DIMENSIONAL_EXPONENTS ( 1.000000000000000000, 0.000000000000000000, 0.000000000000000000, 0.000000000000000000, 0.000000000000000000, 0.000000000000000000, 0.000000000000000000 ) ;
#109 = EDGE_LOOP ( 'NONE', ( #317, #54, #77, #337 ) ) ;
#110 = EDGE_CURVE ( 'NONE', #344, #368, #294, .T. ) ;
#111 = VERTEX_POINT ( 'NONE', #148 ) ;
#112 = DIRECTION ( 'NONE',  ( 0.000000000000000000, 0.000000000000000000, -1.000000000000000000 ) ) ;
#113 = ORIENTED_EDGE ( 'NONE', *, *, #356, .F. ) ;
#114 = MECHANICAL_DESIGN_GEOMETRIC_PRESENTATION_REPRESENTATION (  '', ( #38 ), #156 ) ;
#115 = AXIS2_PLACEMENT_3D ( 'NONE', #123, #95, #210 ) ;
#116 =( NAMED_UNIT ( * ) PLANE_ANGLE_UNIT ( ) SI_UNIT ( $, .RADIAN. ) );
#117 = DIMENSIONAL_EXPONENTS ( 1.000000000000000000, 0.000000000000000000, 0.000000000000000000, 0.000000000000000000, 0.000000000000000000, 0.000000000000000000, 0.000000000000000000 ) ;
#118 = CARTESIAN_POINT ( 'NONE',  ( -0.1875000000000000278, 0.1875000000000000555, 2.296212748401287109E-17 ) ) ;
#119 =( GEOMETRIC_REPRESENTATION_CONTEXT ( 3 ) GLOBAL_UNCERTAINTY_ASSIGNED_CONTEXT ( ( #46 ) ) GLOBAL_UNIT_ASSIGNED_CONTEXT ( ( #360, #136, #310 ) ) REPRESENTATION_CONTEXT ( 'NONE', 'WORKASPACE' ) );
#120 = SURFACE_SIDE_STYLE ('',( #91 ) ) ;
#121 = LENGTH_MEASURE_WITH_UNIT ( LENGTH_MEASURE( 0.02539999999999999897 ), #234 );
#122 = COLOUR_RGB ( '',0.7921568627450980005, 0.8196078431372548767, 0.9333333333333333481 ) ;
#123 = CARTESIAN_POINT ( 'NONE',  ( -2.296212748401287726E-17, 0.1875000000000000278, 0.000000000000000000 ) ) ;
#124 = PLANE ( 'NONE',  #37 ) ;
#125 = FILL_AREA_STYLE ('',( #127 ) ) ;
#126 = DIRECTION ( 'NONE',  ( 0.000000000000000000, 0.000000000000000000, -1.000000000000000000 ) ) ;
#127 = FILL_AREA_STYLE_COLOUR ( '', #142 ) ;
#128 = ADVANCED_FACE ( 'NONE', ( #237 ), #63, .F. ) ;
#129 = CIRCLE ( 'NONE', #115, 0.1875000000000000278 ) ;
#130 =( NAMED_UNIT ( * ) SI_UNIT ( $, .STERADIAN. ) SOLID_ANGLE_UNIT ( ) );
#131 = FACE_OUTER_BOUND ( 'NONE', #364, .T. ) ;
#132 = UNCERTAINTY_MEASURE_WITH_UNIT (LENGTH_MEASURE( 1.000000000000000082E-05 ), #257, 'distance_accuracy_value', 'NONE');
#133 = DIMENSIONAL_EXPONENTS ( 1.000000000000000000, 0.000000000000000000, 0.000000000000000000, 0.000000000000000000, 0.000000000000000000, 0.000000000000000000, 0.000000000000000000 ) ;
#134 = CARTESIAN_POINT ( 'NONE',  ( -0.1874999999999993339, 0.5000000000000001110, 0.000000000000000000 ) ) ;
#135 = VERTEX_POINT ( 'NONE', #150 ) ;
#136 =( NAMED_UNIT ( * ) PLANE_ANGLE_UNIT ( ) SI_UNIT ( $, .RADIAN. ) );
#137 = ORIENTED_EDGE ( 'NONE', *, *, #351, .F. ) ;
#138 = FILL_AREA_STYLE_COLOUR ( '', #202 ) ;
#139 = ADVANCED_FACE ( 'NONE', ( #267 ), #124, .F. ) ;
#140 = ORIENTED_EDGE ( 'NONE', *, *, #228, .F. ) ;
#141 = STYLED_ITEM ( 'NONE', ( #336 ), #173 ) ;
#142 = COLOUR_RGB ( '',1.000000000000000000, 0.000000000000000000, 0.000000000000000000 ) ;
#143 = CYLINDRICAL_SURFACE ( 'NONE', #369, 0.1874999999999999722 ) ;
#144 = ORIENTED_EDGE ( 'NONE', *, *, #110, .T. ) ;
#145 =( GEOMETRIC_REPRESENTATION_CONTEXT ( 3 ) GLOBAL_UNCERTAINTY_ASSIGNED_CONTEXT ( ( #373 ) ) GLOBAL_UNIT_ASSIGNED_CONTEXT ( ( #12, #75, #130 ) ) REPRESENTATION_CONTEXT ( 'NONE', 'WORKASPACE' ) );
#146 = PRESENTATION_STYLE_ASSIGNMENT (( #282 ) ) ;
#147 = EDGE_LOOP ( 'NONE', ( #113, #59, #256, #4 ) ) ;
#148 = CARTESIAN_POINT ( 'NONE',  ( 0.1874999999999999445, 0.5000000000000001110, 2.296212748401284336E-17 ) ) ;
#149 = CARTESIAN_POINT ( 'NONE',  ( -1.148106374200643863E-17, 0.000000000000000000, 0.000000000000000000 ) ) ;
#150 = CARTESIAN_POINT ( 'NONE',  ( -0.1874999999999996669, 2.000000000000000000, 0.000000000000000000 ) ) ;
#151 = DIRECTION ( 'NONE',  ( 0.000000000000000000, 0.000000000000000000, -1.000000000000000000 ) ) ;
#152 = CARTESIAN_POINT ( 'NONE',  ( 0.000000000000000000, 0.5000000000000000000, 0.000000000000000000 ) ) ;
#153 = EDGE_CURVE ( 'NONE', #370, #368, #298, .T. ) ;
#154 = LENGTH_MEASURE_WITH_UNIT ( LENGTH_MEASURE( 0.02539999999999999897 ), #269 );
#155 = FILL_AREA_STYLE_COLOUR ( '', #238 ) ;
#156 =( GEOMETRIC_REPRESENTATION_CONTEXT ( 3 ) GLOBAL_UNCERTAINTY_ASSIGNED_CONTEXT ( ( #193 ) ) GLOBAL_UNIT_ASSIGNED_CONTEXT ( ( #21, #88, #285 ) ) REPRESENTATION_CONTEXT ( 'NONE', 'WORKASPACE' ) );
#157 = PRESENTATION_LAYER_ASSIGNMENT (  '', '', ( #52 ) ) ;
#158 = EDGE_CURVE ( 'NONE', #204, #135, #325, .T. ) ;
#159 = DIRECTION ( 'NONE',  ( -1.000000000000000000, 0.000000000000000000, 0.000000000000000000 ) ) ;
#160 = PRODUCT_DEFINITION ( 'UNKNOWN', '', #197, #304 ) ;
#161 = FACE_OUTER_BOUND ( 'NONE', #371, .T. ) ;
#162 = VECTOR ( 'NONE', #273, 39.37007874015748143 ) ;
#163 = CIRCLE ( 'NONE', #107, 0.1875000000000000278 ) ;
#164 = DIMENSIONAL_EXPONENTS ( 1.000000000000000000, 0.000000000000000000, 0.000000000000000000, 0.000000000000000000, 0.000000000000000000, 0.000000000000000000, 0.000000000000000000 ) ;
#165 = SPHERICAL_SURFACE ( 'NONE', #1, 0.1875000000000000278 ) ;
#166 = ORIENTED_EDGE ( 'NONE', *, *, #283, .T. ) ;
#167 = EDGE_CURVE ( 'NONE', #196, #344, #307, .T. ) ;
#168 = SURFACE_STYLE_FILL_AREA ( #249 ) ;
#169 = ORIENTED_EDGE ( 'NONE', *, *, #70, .T. ) ;
#170 = PRESENTATION_LAYER_ASSIGNMENT (  '', '', ( #33 ) ) ;
#171 = UNCERTAINTY_MEASURE_WITH_UNIT (LENGTH_MEASURE( 1.000000000000000082E-05 ), #239, 'distance_accuracy_value', 'NONE');
#172 =( LENGTH_UNIT ( ) NAMED_UNIT ( * ) SI_UNIT ( $, .METRE. ) );
#173 = MANIFOLD_SOLID_BREP ( 'Revolve - Tool Body (Straight Shanked)', #286 ) ;
#174 = ORIENTED_EDGE ( 'NONE', *, *, #94, .F. ) ;
#175 =( LENGTH_UNIT ( ) NAMED_UNIT ( * ) SI_UNIT ( $, .METRE. ) );
#176 = FILL_AREA_STYLE_COLOUR ( '', #326 ) ;
#177 = AXIS2_PLACEMENT_3D ( 'NONE', #102, #297, #217 ) ;
#178 = DIRECTION ( 'NONE',  ( 0.000000000000000000, 0.000000000000000000, -1.000000000000000000 ) ) ;
#179 = LINE ( 'NONE', #346, #82 ) ;
#180 = CARTESIAN_POINT ( 'NONE',  ( 0.1874999999999999445, 2.000000000000000000, 0.000000000000000000 ) ) ;
#181 = PRESENTATION_LAYER_ASSIGNMENT (  '', '', ( #141 ) ) ;
#182 = CARTESIAN_POINT ( 'NONE',  ( 0.1874999999999999445, 2.000000000000000000, 2.296212748401284336E-17 ) ) ;
#183 = AXIS2_PLACEMENT_3D ( 'NONE', #268, #264, #64 ) ;
#184 = DIRECTION ( 'NONE',  ( -1.233461347801864019E-16, 1.000000000000000000, -0.000000000000000000 ) ) ;
#185 = CARTESIAN_POINT ( 'NONE',  ( 2.296212748401286493E-17, 0.5000000000000000000, 0.1874999999999999445 ) ) ;
#186 = DIRECTION ( 'NONE',  ( -1.233461347801864019E-16, 1.000000000000000000, -0.000000000000000000 ) ) ;
#187 = DIRECTION ( 'NONE',  ( -1.233461347801864019E-16, 1.000000000000000000, -0.000000000000000000 ) ) ;
#188 = PRESENTATION_LAYER_ASSIGNMENT (  '', '', ( #68 ) ) ;
#189 = ORIENTED_EDGE ( 'NONE', *, *, #87, .T. ) ;
#190 = PRODUCT_RELATED_PRODUCT_CATEGORY ( 'part', '', ( #216 ) ) ;
#191 = CARTESIAN_POINT ( 'NONE',  ( 1.224646799147353700E-16, 2.000000000000000000, 0.000000000000000000 ) ) ;
#192 = DIRECTION ( 'NONE',  ( -1.233461347801864019E-16, 1.000000000000000000, -0.000000000000000000 ) ) ;
#193 = UNCERTAINTY_MEASURE_WITH_UNIT (LENGTH_MEASURE( 1.000000000000000082E-05 ), #21, 'distance_accuracy_value', 'NONE');
#194 = DIRECTION ( 'NONE',  ( -1.000000000000000000, 0.000000000000000000, 0.000000000000000000 ) ) ;
#195 = AXIS2_PLACEMENT_3D ( 'NONE', #152, #11, #112 ) ;
#196 = VERTEX_POINT ( 'NONE', #47 ) ;
#197 = PRODUCT_DEFINITION_FORMATION_WITH_SPECIFIED_SOURCE ( 'ANY', '', #216, .NOT_KNOWN. ) ;
#198 = ADVANCED_FACE ( 'NONE', ( #161 ), #165, .T. ) ;
#199 = ADVANCED_FACE ( 'NONE', ( #131 ), #247, .T. ) ;
#200 = ORIENTED_EDGE ( 'NONE', *, *, #18, .F. ) ;
#201 = CARTESIAN_POINT ( 'NONE',  ( 0.1874999999999998335, 2.000000000000000000, 2.296212748401283720E-17 ) ) ;
#202 = COLOUR_RGB ( '',1.000000000000000000, 0.000000000000000000, 0.000000000000000000 ) ;
#203 = PRESENTATION_STYLE_ASSIGNMENT (( #342 ) ) ;
#204 = VERTEX_POINT ( 'NONE', #134 ) ;
#205 = CARTESIAN_POINT ( 'NONE',  ( 0.000000000000000000, 0.000000000000000000, 0.000000000000000000 ) ) ;
#206 = ADVANCED_FACE ( 'NONE', ( #104 ), #305, .T. ) ;
#207 = CIRCLE ( 'NONE', #255, 0.1874999999999999722 ) ;
#208 =( GEOMETRIC_REPRESENTATION_CONTEXT ( 3 ) GLOBAL_UNCERTAINTY_ASSIGNED_CONTEXT ( ( #171 ) ) GLOBAL_UNIT_ASSIGNED_CONTEXT ( ( #239, #5, #293 ) ) REPRESENTATION_CONTEXT ( 'NONE', 'WORKASPACE' ) );
#209 = CARTESIAN_POINT ( 'NONE',  ( 0.000000000000000000, 0.5000000000000000000, 0.000000000000000000 ) ) ;
#210 = DIRECTION ( 'NONE',  ( 1.000000000000000000, 0.000000000000000000, -1.224646799147353207E-16 ) ) ;
#211 = CARTESIAN_POINT ( 'NONE',  ( 2.296212748401286801E-17, 0.000000000000000000, 0.1874999999999999722 ) ) ;
#212 = DIRECTION ( 'NONE',  ( -1.000000000000000000, 0.000000000000000000, 0.000000000000000000 ) ) ;
#213 = FACE_OUTER_BOUND ( 'NONE', #147, .T. ) ;
#214 = CIRCLE ( 'NONE', #20, 0.1874999999999999722 ) ;
#215 = DIRECTION ( 'NONE',  ( 1.000000000000000000, 1.233461347801864019E-16, 0.000000000000000000 ) ) ;
#216 = PRODUCT ( '59442', '59442', '', ( #45 ) ) ;
#217 = DIRECTION ( 'NONE',  ( -1.000000000000000000, 0.000000000000000000, 0.000000000000000000 ) ) ;
#218 = SHAPE_DEFINITION_REPRESENTATION ( #84, #27 ) ;
#219 = STYLED_ITEM ( 'NONE', ( #289 ), #28 ) ;
#220 = PRESENTATION_STYLE_ASSIGNMENT (( #103 ) ) ;
#221 = DIRECTION ( 'NONE',  ( 0.000000000000000000, 0.000000000000000000, 1.000000000000000000 ) ) ;
#222 = SURFACE_SIDE_STYLE ('',( #252 ) ) ;
#223 = ORIENTED_EDGE ( 'NONE', *, *, #283, .F. ) ;
#224 =( LENGTH_UNIT ( ) NAMED_UNIT ( * ) SI_UNIT ( $, .METRE. ) );
#225 = ADVANCED_FACE ( 'NONE', ( #14 ), #314, .T. ) ;
#226 = VERTEX_POINT ( 'NONE', #118 ) ;
#227 = ORIENTED_EDGE ( 'NONE', *, *, #153, .T. ) ;
#228 = EDGE_CURVE ( 'NONE', #370, #335, #163, .T. ) ;
#229 = ORIENTED_EDGE ( 'NONE', *, *, #110, .F. ) ;
#230 = UNCERTAINTY_MEASURE_WITH_UNIT (LENGTH_MEASURE( 1.000000000000000082E-05 ), #284, 'distance_accuracy_value', 'NONE');
#231 = CARTESIAN_POINT ( 'NONE',  ( -2.296212748401287726E-17, 0.1875000000000000278, 0.000000000000000000 ) ) ;
#232 = FILL_AREA_STYLE ('',( #83 ) ) ;
#233 =( NAMED_UNIT ( * ) SI_UNIT ( $, .STERADIAN. ) SOLID_ANGLE_UNIT ( ) );
#234 =( LENGTH_UNIT ( ) NAMED_UNIT ( * ) SI_UNIT ( $, .METRE. ) );
#235 = ADVANCED_FACE ( 'NONE', ( #280 ), #143, .T. ) ;
#236 = CARTESIAN_POINT ( 'NONE',  ( 0.000000000000000000, 0.1875000000000000555, -0.1874999999999999722 ) ) ;
#237 = FACE_OUTER_BOUND ( 'NONE', #41, .T. ) ;
#238 = COLOUR_RGB ( '',0.7921568627450980005, 0.8196078431372548767, 0.9333333333333333481 ) ;
#239 =( CONVERSION_BASED_UNIT ( 'INCH', #321 ) LENGTH_UNIT ( ) NAMED_UNIT ( #133 ) );
#240 = SURFACE_STYLE_USAGE ( .BOTH. , #120 ) ;
#241 = CARTESIAN_POINT ( 'NONE',  ( 3.074838820850149482E-16, 0.5000000000000000000, 0.000000000000000000 ) ) ;
#242 = DIRECTION ( 'NONE',  ( 1.000000000000000000, 0.000000000000000000, 0.000000000000000000 ) ) ;
#243 = DIRECTION ( 'NONE',  ( -0.000000000000000000, -1.000000000000000000, -0.000000000000000000 ) ) ;
#244 = AXIS2_PLACEMENT_3D ( 'NONE', #209, #96, #126 ) ;
#245 = AXIS2_PLACEMENT_3D ( 'NONE', #62, #34, #242 ) ;
#246 =( CONVERSION_BASED_UNIT ( 'INCH', #333 ) LENGTH_UNIT ( ) NAMED_UNIT ( #76 ) );
#247 = CYLINDRICAL_SURFACE ( 'NONE', #99, 0.1874999999999996947 ) ;
#248 = VECTOR ( 'NONE', #186, 39.37007874015748143 ) ;
#249 = FILL_AREA_STYLE ('',( #308 ) ) ;
#250 = ORIENTED_EDGE ( 'NONE', *, *, #70, .F. ) ;
#251 = ORIENTED_EDGE ( 'NONE', *, *, #67, .F. ) ;
#252 = SURFACE_STYLE_FILL_AREA ( #16 ) ;
#253 = UNCERTAINTY_MEASURE_WITH_UNIT (LENGTH_MEASURE( 1.000000000000000082E-05 ), #6, 'distance_accuracy_value', 'NONE');
#254 = MECHANICAL_DESIGN_GEOMETRIC_PRESENTATION_REPRESENTATION (  '', ( #219 ), #105 ) ;
#255 = AXIS2_PLACEMENT_3D ( 'NONE', #330, #322, #61 ) ;
#256 = ORIENTED_EDGE ( 'NONE', *, *, #94, .T. ) ;
#257 =( CONVERSION_BASED_UNIT ( 'INCH', #261 ) LENGTH_UNIT ( ) NAMED_UNIT ( #108 ) );
#258 = ORIENTED_EDGE ( 'NONE', *, *, #372, .F. ) ;
#259 = ORIENTED_EDGE ( 'NONE', *, *, #67, .T. ) ;
#260 = FACE_OUTER_BOUND ( 'NONE', #40, .T. ) ;
#261 = LENGTH_MEASURE_WITH_UNIT ( LENGTH_MEASURE( 0.02539999999999999897 ), #172 );
#262 = SPHERICAL_SURFACE ( 'NONE', #245, 0.1875000000000000278 ) ;
#263 = ADVANCED_FACE ( 'NONE', ( #213 ), #262, .T. ) ;
#264 = DIRECTION ( 'NONE',  ( -1.233461347801864019E-16, 1.000000000000000000, -0.000000000000000000 ) ) ;
#265 = AXIS2_PLACEMENT_3D ( 'NONE', #35, #296, #97 ) ;
#266 = CARTESIAN_POINT ( 'NONE',  ( 0.1874999999999999722, 0.1875000000000000555, 0.000000000000000000 ) ) ;
#267 = FACE_OUTER_BOUND ( 'NONE', #358, .T. ) ;
#268 = CARTESIAN_POINT ( 'NONE',  ( 1.224646799147353700E-16, 2.000000000000000000, 0.000000000000000000 ) ) ;
#269 =( LENGTH_UNIT ( ) NAMED_UNIT ( * ) SI_UNIT ( $, .METRE. ) );
#270 = LENGTH_MEASURE_WITH_UNIT ( LENGTH_MEASURE( 0.02539999999999999897 ), #295 );
#271 = CIRCLE ( 'NONE', #90, 0.1874999999999996392 ) ;
#272 = PRESENTATION_LAYER_ASSIGNMENT (  '', '', ( #58 ) ) ;
#273 = DIRECTION ( 'NONE',  ( -0.000000000000000000, -1.000000000000000000, -0.000000000000000000 ) ) ;
#274 =( LENGTH_UNIT ( ) NAMED_UNIT ( * ) SI_UNIT ( $, .METRE. ) );
#275 = ORIENTED_EDGE ( 'NONE', *, *, #42, .T. ) ;
#276 = ORIENTED_EDGE ( 'NONE', *, *, #167, .T. ) ;
#277 = DIRECTION ( 'NONE',  ( 1.000000000000000000, 0.000000000000000000, 0.000000000000000000 ) ) ;
#278 = AXIS2_PLACEMENT_3D ( 'NONE', #348, #352, #212 ) ;
#279 = CARTESIAN_POINT ( 'NONE',  ( 0.000000000000000000, 0.5000000000000000000, 0.000000000000000000 ) ) ;
#280 = FACE_OUTER_BOUND ( 'NONE', #301, .T. ) ;
#281 = PRESENTATION_STYLE_ASSIGNMENT (( #3 ) ) ;
#282 = SURFACE_STYLE_USAGE ( .BOTH. , #25 ) ;
#283 = EDGE_CURVE ( 'NONE', #368, #226, #214, .T. ) ;
#284 =( CONVERSION_BASED_UNIT ( 'INCH', #56 ) LENGTH_UNIT ( ) NAMED_UNIT ( #366 ) );
#285 =( NAMED_UNIT ( * ) SI_UNIT ( $, .STERADIAN. ) SOLID_ANGLE_UNIT ( ) );
#286 = CLOSED_SHELL ( 'NONE', ( #206, #139, #199, #128 ) ) ;
#287 =( GEOMETRIC_REPRESENTATION_CONTEXT ( 3 ) GLOBAL_UNCERTAINTY_ASSIGNED_CONTEXT ( ( #132 ) ) GLOBAL_UNIT_ASSIGNED_CONTEXT ( ( #257, #116, #233 ) ) REPRESENTATION_CONTEXT ( 'NONE', 'WORKASPACE' ) );
#288 = CARTESIAN_POINT ( 'NONE',  ( 0.000000000000000000, 0.1875000000000000555, 0.000000000000000000 ) ) ;
#289 = PRESENTATION_STYLE_ASSIGNMENT (( #69 ) ) ;
#290 = PRESENTATION_STYLE_ASSIGNMENT (( #240 ) ) ;
#291 = SURFACE_SIDE_STYLE ('',( #93 ) ) ;
#292 = CIRCLE ( 'NONE', #177, 0.1874999999999996392 ) ;
#293 =( NAMED_UNIT ( * ) SI_UNIT ( $, .STERADIAN. ) SOLID_ANGLE_UNIT ( ) );
#294 = LINE ( 'NONE', #211, #162 ) ;
#295 =( LENGTH_UNIT ( ) NAMED_UNIT ( * ) SI_UNIT ( $, .METRE. ) );
#296 = DIRECTION ( 'NONE',  ( -0.000000000000000000, -1.000000000000000000, -0.000000000000000000 ) ) ;
#297 = DIRECTION ( 'NONE',  ( -1.233461347801864019E-16, 1.000000000000000000, -0.000000000000000000 ) ) ;
#298 = CIRCLE ( 'NONE', #265, 0.1874999999999999722 ) ;
#299 = COLOUR_RGB ( '',1.000000000000000000, 0.000000000000000000, 0.000000000000000000 ) ;
#300 = DIRECTION ( 'NONE',  ( 0.000000000000000000, 0.000000000000000000, 1.000000000000000000 ) ) ;
#301 = EDGE_LOOP ( 'NONE', ( #229, #259, #169, #258, #223 ) ) ;
#302 = DIRECTION ( 'NONE',  ( -1.233461347801864019E-16, 1.000000000000000000, -0.000000000000000000 ) ) ;
#303 = DIRECTION ( 'NONE',  ( 1.000000000000000000, 0.000000000000000000, 0.000000000000000000 ) ) ;
#304 = PRODUCT_DEFINITION_CONTEXT ( 'detailed design', #43, 'design' ) ;
#305 = CYLINDRICAL_SURFACE ( 'NONE', #92, 0.1874999999999996947 ) ;
#306 = APPLICATION_PROTOCOL_DEFINITION ( 'draft international standard', 'automotive_design', 1998, #24 ) ;
#307 = CIRCLE ( 'NONE', #195, 0.1874999999999999445 ) ;
#308 = FILL_AREA_STYLE_COLOUR ( '', #122 ) ;
#309 = AXIS2_PLACEMENT_3D ( 'NONE', #288, #323, #9 ) ;
#310 =( NAMED_UNIT ( * ) SI_UNIT ( $, .STERADIAN. ) SOLID_ANGLE_UNIT ( ) );
#311 = DIMENSIONAL_EXPONENTS ( 1.000000000000000000, 0.000000000000000000, 0.000000000000000000, 0.000000000000000000, 0.000000000000000000, 0.000000000000000000, 0.000000000000000000 ) ;
#312 = FILL_AREA_STYLE ('',( #80 ) ) ;
#313 = VERTEX_POINT ( 'NONE', #236 ) ;
#314 = CYLINDRICAL_SURFACE ( 'NONE', #8, 0.1874999999999999722 ) ;
#315 = CIRCLE ( 'NONE', #278, 0.1874999999999998057 ) ;
#316 = MECHANICAL_DESIGN_GEOMETRIC_PRESENTATION_REPRESENTATION (  '', ( #52 ), #100 ) ;
#317 = ORIENTED_EDGE ( 'NONE', *, *, #89, .T. ) ;
#318 = SURFACE_SIDE_STYLE ('',( #23 ) ) ;
#319 = DIRECTION ( 'NONE',  ( 0.000000000000000000, -0.000000000000000000, 1.000000000000000000 ) ) ;
#320 = MECHANICAL_DESIGN_GEOMETRIC_PRESENTATION_REPRESENTATION (  '', ( #58 ), #208 ) ;
#321 = LENGTH_MEASURE_WITH_UNIT ( LENGTH_MEASURE( 0.02539999999999999897 ), #354 );
#322 = DIRECTION ( 'NONE',  ( -0.000000000000000000, -1.000000000000000000, -0.000000000000000000 ) ) ;
#323 = DIRECTION ( 'NONE',  ( -0.000000000000000000, -1.000000000000000000, -0.000000000000000000 ) ) ;
#324 = DIRECTION ( 'NONE',  ( 1.233461347801864019E-16, -1.000000000000000000, 0.000000000000000000 ) ) ;
#325 = LINE ( 'NONE', #65, #353 ) ;
#326 = COLOUR_RGB ( '',1.000000000000000000, 0.000000000000000000, 0.000000000000000000 ) ;
#327 = MECHANICAL_DESIGN_GEOMETRIC_PRESENTATION_REPRESENTATION (  '', ( #68 ), #287 ) ;
#328 = CARTESIAN_POINT ( 'NONE',  ( 2.296212748401286801E-17, 0.1875000000000000555, 0.1874999999999999722 ) ) ;
#329 = DIRECTION ( 'NONE',  ( -1.000000000000000000, -1.233461347801864019E-16, 0.000000000000000000 ) ) ;
#330 = CARTESIAN_POINT ( 'NONE',  ( 0.000000000000000000, 0.1875000000000000555, 0.000000000000000000 ) ) ;
#331 =( GEOMETRIC_REPRESENTATION_CONTEXT ( 3 ) GLOBAL_UNCERTAINTY_ASSIGNED_CONTEXT ( ( #49 ) ) GLOBAL_UNIT_ASSIGNED_CONTEXT ( ( #246, #363, #71 ) ) REPRESENTATION_CONTEXT ( 'NONE', 'WORKASPACE' ) );
#332 = AXIS2_PLACEMENT_3D ( 'NONE', #362, #221, #303 ) ;
#333 = LENGTH_MEASURE_WITH_UNIT ( LENGTH_MEASURE( 0.02539999999999999897 ), #274 );
#334 = LENGTH_MEASURE_WITH_UNIT ( LENGTH_MEASURE( 0.02539999999999999897 ), #224 );
#335 = VERTEX_POINT ( 'NONE', #149 ) ;
#336 = PRESENTATION_STYLE_ASSIGNMENT (( #367 ) ) ;
#337 = ORIENTED_EDGE ( 'NONE', *, *, #158, .F. ) ;
#338 = DIRECTION ( 'NONE',  ( 0.000000000000000000, 1.000000000000000000, 0.000000000000000000 ) ) ;
#339 = SURFACE_SIDE_STYLE ('',( #22 ) ) ;
#340 = AXIS2_PLACEMENT_3D ( 'NONE', #180, #324, #215 ) ;
#341 = ORIENTED_EDGE ( 'NONE', *, *, #89, .F. ) ;
#342 = SURFACE_STYLE_USAGE ( .BOTH. , #339 ) ;
#343 = DIRECTION ( 'NONE',  ( -0.000000000000000000, -1.000000000000000000, -0.000000000000000000 ) ) ;
#344 = VERTEX_POINT ( 'NONE', #185 ) ;
#345 = CARTESIAN_POINT ( 'NONE',  ( 0.000000000000000000, 0.000000000000000000, 0.000000000000000000 ) ) ;
#346 = CARTESIAN_POINT ( 'NONE',  ( 0.000000000000000000, 0.000000000000000000, -0.1874999999999999722 ) ) ;
#347 = DIRECTION ( 'NONE',  ( 0.000000000000000000, 0.000000000000000000, -1.000000000000000000 ) ) ;
#348 = CARTESIAN_POINT ( 'NONE',  ( 1.224646799147353700E-16, 2.000000000000000000, 0.000000000000000000 ) ) ;
#349 = DIRECTION ( 'NONE',  ( -1.233461347801864019E-16, 1.000000000000000000, 0.000000000000000000 ) ) ;
#350 = CARTESIAN_POINT ( 'NONE',  ( 0.000000000000000000, 0.1875000000000000555, 0.000000000000000000 ) ) ;
#351 = EDGE_CURVE ( 'NONE', #361, #135, #44, .T. ) ;
#352 = DIRECTION ( 'NONE',  ( -1.233461347801864019E-16, 1.000000000000000000, -0.000000000000000000 ) ) ;
#353 = VECTOR ( 'NONE', #184, 39.37007874015748143 ) ;
#354 =( LENGTH_UNIT ( ) NAMED_UNIT ( * ) SI_UNIT ( $, .METRE. ) );
#355 = CARTESIAN_POINT ( 'NONE',  ( -2.296212748401287726E-17, 0.1875000000000000278, 0.000000000000000000 ) ) ;
#356 = EDGE_CURVE ( 'NONE', #226, #335, #129, .T. ) ;
#357 = CARTESIAN_POINT ( 'NONE',  ( 1.224646799147353700E-16, 2.000000000000000000, 0.000000000000000000 ) ) ;
#358 = EDGE_LOOP ( 'NONE', ( #341, #15 ) ) ;
#359 = MECHANICAL_DESIGN_GEOMETRIC_PRESENTATION_REPRESENTATION (  '', ( #141 ), #331 ) ;
#360 =( CONVERSION_BASED_UNIT ( 'INCH', #334 ) LENGTH_UNIT ( ) NAMED_UNIT ( #79 ) );
#361 = VERTEX_POINT ( 'NONE', #182 ) ;
#362 = CARTESIAN_POINT ( 'NONE',  ( 0.000000000000000000, 0.000000000000000000, 0.000000000000000000 ) ) ;
#363 =( NAMED_UNIT ( * ) PLANE_ANGLE_UNIT ( ) SI_UNIT ( $, .RADIAN. ) );
#364 = EDGE_LOOP ( 'NONE', ( #200, #275, #48, #137 ) ) ;
#365 = APPLICATION_PROTOCOL_DEFINITION ( 'draft international standard', 'automotive_design', 1998, #43 ) ;
#366 = DIMENSIONAL_EXPONENTS ( 1.000000000000000000, 0.000000000000000000, 0.000000000000000000, 0.000000000000000000, 0.000000000000000000, 0.000000000000000000, 0.000000000000000000 ) ;
#367 = SURFACE_STYLE_USAGE ( .BOTH. , #39 ) ;
#368 = VERTEX_POINT ( 'NONE', #328 ) ;
#369 = AXIS2_PLACEMENT_3D ( 'NONE', #345, #31, #151 ) ;
#370 = VERTEX_POINT ( 'NONE', #266 ) ;
#371 = EDGE_LOOP ( 'NONE', ( #166, #29, #140, #227 ) ) ;
#372 = EDGE_CURVE ( 'NONE', #226, #313, #74, .T. ) ;
#373 = UNCERTAINTY_MEASURE_WITH_UNIT (LENGTH_MEASURE( 1.000000000000000082E-05 ), #12, 'distance_accuracy_value', 'NONE');
ENDSEC;
END-ISO-10303-21;
