ISO-10303-21;
HEADER;
FILE_DESCRIPTION (( 'STEP AP214' ),
    '1' );
FILE_NAME ('00452.STEP',
    '2023-06-22T14:08:37',
    ( '' ),
    ( '' ),
    'SwSTEP 2.0',
    'SolidWorks 2023',
    '' );
FILE_SCHEMA (( 'AUTOMOTIVE_DESIGN' ));
ENDSEC;

DATA;
#1 =( NAMED_UNIT ( * ) SI_UNIT ( $, .STERADIAN. ) SOLID_ANGLE_UNIT ( ) );
#2 = ADVANCED_FACE ( 'NONE', ( #306 ), #127, .T. ) ;
#3 = CARTESIAN_POINT ( 'NONE',  ( 0.000000000000000000, 0.000000000000000000, 0.000000000000000000 ) ) ;
#4 = FILL_AREA_STYLE ('',( #191 ) ) ;
#5 = DIRECTION ( 'NONE',  ( 0.000000000000000000, 0.000000000000000000, -1.000000000000000000 ) ) ;
#6 =( CONVERSION_BASED_UNIT ( 'INCH', #299 ) LENGTH_UNIT ( ) NAMED_UNIT ( #261 ) );
#7 = DIRECTION ( 'NONE',  ( 1.000000000000000000, 3.061616997868386099E-17, 0.000000000000000000 ) ) ;
#8 = AXIS2_PLACEMENT_3D ( 'NONE', #217, #214, #51 ) ;
#9 = CARTESIAN_POINT ( 'NONE',  ( 3.061616997868383018E-17, 0.000000000000000000, 0.2500000000000000000 ) ) ;
#10 = ORIENTED_EDGE ( 'NONE', *, *, #47, .F. ) ;
#11 = MECHANICAL_DESIGN_GEOMETRIC_PRESENTATION_REPRESENTATION (  '', ( #223 ), #48 ) ;
#12 = ADVANCED_FACE ( 'NONE', ( #18 ), #200, .T. ) ;
#13 = ORIENTED_EDGE ( 'NONE', *, *, #37, .F. ) ;
#14 = CIRCLE ( 'NONE', #201, 0.2500000000000000000 ) ;
#15 = ORIENTED_EDGE ( 'NONE', *, *, #158, .F. ) ;
#16 = CYLINDRICAL_SURFACE ( 'NONE', #271, 0.2500000000000000555 ) ;
#17 = SURFACE_STYLE_USAGE ( .BOTH. , #131 ) ;
#18 = FACE_OUTER_BOUND ( 'NONE', #80, .T. ) ;
#19 = AXIS2_PLACEMENT_3D ( 'NONE', #274, #267, #211 ) ;
#20 =( CONVERSION_BASED_UNIT ( 'INCH', #65 ) LENGTH_UNIT ( ) NAMED_UNIT ( #41 ) );
#21 =( GEOMETRIC_REPRESENTATION_CONTEXT ( 3 ) GLOBAL_UNCERTAINTY_ASSIGNED_CONTEXT ( ( #245 ) ) GLOBAL_UNIT_ASSIGNED_CONTEXT ( ( #172, #100, #140 ) ) REPRESENTATION_CONTEXT ( 'NONE', 'WORKASPACE' ) );
#22 = AXIS2_PLACEMENT_3D ( 'NONE', #291, #162, #5 ) ;
#23 = CARTESIAN_POINT ( 'NONE',  ( 0.000000000000000000, 0.000000000000000000, 0.000000000000000000 ) ) ;
#24 = AXIS2_PLACEMENT_3D ( 'NONE', #71, #269, #241 ) ;
#25 = PRODUCT_RELATED_PRODUCT_CATEGORY ( 'part', '', ( #115 ) ) ;
#26 =( NAMED_UNIT ( * ) PLANE_ANGLE_UNIT ( ) SI_UNIT ( $, .RADIAN. ) );
#27 = UNCERTAINTY_MEASURE_WITH_UNIT (LENGTH_MEASURE( 1.000000000000000082E-05 ), #20, 'distance_accuracy_value', 'NONE');
#28 = AXIS2_PLACEMENT_3D ( 'NONE', #23, #242, #112 ) ;
#29 = PRESENTATION_STYLE_ASSIGNMENT (( #300 ) ) ;
#30 = ORIENTED_EDGE ( 'NONE', *, *, #246, .F. ) ;
#31 =( NAMED_UNIT ( * ) SI_UNIT ( $, .STERADIAN. ) SOLID_ANGLE_UNIT ( ) );
#32 = EDGE_CURVE ( 'NONE', #197, #169, #86, .T. ) ;
#33 = VERTEX_POINT ( 'NONE', #277 ) ;
#34 = AXIS2_PLACEMENT_3D ( 'NONE', #3, #114, #188 ) ;
#35 = CARTESIAN_POINT ( 'NONE',  ( 0.000000000000000000, 0.000000000000000000, 0.000000000000000000 ) ) ;
#36 = VERTEX_POINT ( 'NONE', #151 ) ;
#37 = EDGE_CURVE ( 'NONE', #76, #36, #159, .T. ) ;
#38 = FILL_AREA_STYLE ('',( #302 ) ) ;
#39 =( CONVERSION_BASED_UNIT ( 'INCH', #61 ) LENGTH_UNIT ( ) NAMED_UNIT ( #203 ) );
#40 = SURFACE_STYLE_FILL_AREA ( #308 ) ;
#41 = DIMENSIONAL_EXPONENTS ( 1.000000000000000000, 0.000000000000000000, 0.000000000000000000, 0.000000000000000000, 0.000000000000000000, 0.000000000000000000, 0.000000000000000000 ) ;
#42 = CARTESIAN_POINT ( 'NONE',  ( -6.123233995736772199E-17, 3.000000000000000444, 0.000000000000000000 ) ) ;
#43 =( CONVERSION_BASED_UNIT ( 'INCH', #263 ) LENGTH_UNIT ( ) NAMED_UNIT ( #231 ) );
#44 = DIRECTION ( 'NONE',  ( -0.000000000000000000, -1.000000000000000000, -0.000000000000000000 ) ) ;
#45 = VECTOR ( 'NONE', #184, 39.37007874015748143 ) ;
#46 = CARTESIAN_POINT ( 'NONE',  ( 0.2500000000000000000, 3.000000000000000444, 0.000000000000000000 ) ) ;
#47 = EDGE_CURVE ( 'NONE', #36, #169, #148, .T. ) ;
#48 =( GEOMETRIC_REPRESENTATION_CONTEXT ( 3 ) GLOBAL_UNCERTAINTY_ASSIGNED_CONTEXT ( ( #282 ) ) GLOBAL_UNIT_ASSIGNED_CONTEXT ( ( #43, #268, #1 ) ) REPRESENTATION_CONTEXT ( 'NONE', 'WORKASPACE' ) );
#49 = CIRCLE ( 'NONE', #22, 0.2500000000000000000 ) ;
#50 =( CONVERSION_BASED_UNIT ( 'INCH', #187 ) LENGTH_UNIT ( ) NAMED_UNIT ( #59 ) );
#51 = DIRECTION ( 'NONE',  ( -1.000000000000000000, 0.000000000000000000, 0.000000000000000000 ) ) ;
#52 = PRESENTATION_STYLE_ASSIGNMENT (( #247 ) ) ;
#53 = PRESENTATION_LAYER_ASSIGNMENT (  '', '', ( #94 ) ) ;
#54 = ORIENTED_EDGE ( 'NONE', *, *, #246, .T. ) ;
#55 = FILL_AREA_STYLE ('',( #275 ) ) ;
#56 = CARTESIAN_POINT ( 'NONE',  ( -0.2500000000000001110, 3.000000000000000444, 0.000000000000000000 ) ) ;
#57 = EDGE_LOOP ( 'NONE', ( #104, #222, #147, #199 ) ) ;
#58 = DIRECTION ( 'NONE',  ( -1.000000000000000000, 0.000000000000000000, 0.000000000000000000 ) ) ;
#59 = DIMENSIONAL_EXPONENTS ( 1.000000000000000000, 0.000000000000000000, 0.000000000000000000, 0.000000000000000000, 0.000000000000000000, 0.000000000000000000, 0.000000000000000000 ) ;
#60 = VECTOR ( 'NONE', #218, 39.37007874015748143 ) ;
#61 = LENGTH_MEASURE_WITH_UNIT ( LENGTH_MEASURE( 0.02539999999999999897 ), #205 );
#62 = DIRECTION ( 'NONE',  ( -3.061616997868386099E-17, 1.000000000000000000, -0.000000000000000000 ) ) ;
#63 = UNCERTAINTY_MEASURE_WITH_UNIT (LENGTH_MEASURE( 1.000000000000000082E-05 ), #152, 'distance_accuracy_value', 'NONE');
#64 = SURFACE_STYLE_FILL_AREA ( #286 ) ;
#65 = LENGTH_MEASURE_WITH_UNIT ( LENGTH_MEASURE( 0.02539999999999999897 ), #175 );
#66 = FILL_AREA_STYLE_COLOUR ( '', #179 ) ;
#67 = PLANE ( 'NONE',  #219 ) ;
#68 = ADVANCED_BREP_SHAPE_REPRESENTATION ( '00452', ( #95, #91, #34 ), #88 ) ;
#69 = FACE_OUTER_BOUND ( 'NONE', #121, .T. ) ;
#70 = COLOUR_RGB ( '',0.7921568627450980005, 0.8196078431372548767, 0.9333333333333333481 ) ;
#71 = CARTESIAN_POINT ( 'NONE',  ( 0.000000000000000000, 0.000000000000000000, 0.000000000000000000 ) ) ;
#72 = CARTESIAN_POINT ( 'NONE',  ( 3.061616997868383018E-17, 1.000000000000000000, 0.2500000000000000000 ) ) ;
#73 = PRODUCT_DEFINITION_FORMATION_WITH_SPECIFIED_SOURCE ( 'ANY', '', #115, .NOT_KNOWN. ) ;
#74 = SHAPE_DEFINITION_REPRESENTATION ( #168, #68 ) ;
#75 =( GEOMETRIC_REPRESENTATION_CONTEXT ( 3 ) GLOBAL_UNCERTAINTY_ASSIGNED_CONTEXT ( ( #63 ) ) GLOBAL_UNIT_ASSIGNED_CONTEXT ( ( #152, #180, #97 ) ) REPRESENTATION_CONTEXT ( 'NONE', 'WORKASPACE' ) );
#76 = VERTEX_POINT ( 'NONE', #243 ) ;
#77 = SURFACE_STYLE_FILL_AREA ( #194 ) ;
#78 = ORIENTED_EDGE ( 'NONE', *, *, #47, .T. ) ;
#79 =( LENGTH_UNIT ( ) NAMED_UNIT ( * ) SI_UNIT ( $, .METRE. ) );
#80 = EDGE_LOOP ( 'NONE', ( #171, #224, #157, #244 ) ) ;
#81 = ORIENTED_EDGE ( 'NONE', *, *, #153, .T. ) ;
#82 = CYLINDRICAL_SURFACE ( 'NONE', #156, 0.2500000000000000555 ) ;
#83 = CIRCLE ( 'NONE', #106, 0.2500000000000000555 ) ;
#84 = ORIENTED_EDGE ( 'NONE', *, *, #32, .T. ) ;
#85 = MECHANICAL_DESIGN_GEOMETRIC_PRESENTATION_REPRESENTATION (  '', ( #94 ), #252 ) ;
#86 = CIRCLE ( 'NONE', #303, 0.2500000000000000555 ) ;
#87 = ORIENTED_EDGE ( 'NONE', *, *, #304, .T. ) ;
#88 =( GEOMETRIC_REPRESENTATION_CONTEXT ( 3 ) GLOBAL_UNCERTAINTY_ASSIGNED_CONTEXT ( ( #173 ) ) GLOBAL_UNIT_ASSIGNED_CONTEXT ( ( #50, #26, #270 ) ) REPRESENTATION_CONTEXT ( 'NONE', 'WORKASPACE' ) );
#89 = DIRECTION ( 'NONE',  ( -0.000000000000000000, -1.000000000000000000, -0.000000000000000000 ) ) ;
#90 = PRESENTATION_STYLE_ASSIGNMENT (( #198 ) ) ;
#91 = MANIFOLD_SOLID_BREP ( 'Revolve - Tool Body (Straight Shanked)', #284 ) ;
#92 = DIRECTION ( 'NONE',  ( 0.000000000000000000, 1.000000000000000000, 0.000000000000000000 ) ) ;
#93 = DIRECTION ( 'NONE',  ( 0.000000000000000000, -0.000000000000000000, 1.000000000000000000 ) ) ;
#94 = STYLED_ITEM ( 'NONE', ( #177 ), #2 ) ;
#95 = MANIFOLD_SOLID_BREP ( 'Revolve - Cutting Edge', #122 ) ;
#96 = SURFACE_SIDE_STYLE ('',( #251 ) ) ;
#97 =( NAMED_UNIT ( * ) SI_UNIT ( $, .STERADIAN. ) SOLID_ANGLE_UNIT ( ) );
#98 = STYLED_ITEM ( 'NONE', ( #196 ), #110 ) ;
#99 = PRODUCT_DEFINITION_CONTEXT ( 'detailed design', #129, 'design' ) ;
#100 =( NAMED_UNIT ( * ) PLANE_ANGLE_UNIT ( ) SI_UNIT ( $, .RADIAN. ) );
#101 = EDGE_CURVE ( 'NONE', #33, #296, #193, .T. ) ;
#102 = VERTEX_POINT ( 'NONE', #9 ) ;
#103 = CARTESIAN_POINT ( 'NONE',  ( 7.582401355855259480E-33, 1.000000000000000000, 0.000000000000000000 ) ) ;
#104 = ORIENTED_EDGE ( 'NONE', *, *, #283, .T. ) ;
#105 = STYLED_ITEM ( 'NONE', ( #29 ), #95 ) ;
#106 = AXIS2_PLACEMENT_3D ( 'NONE', #285, #62, #154 ) ;
#107 = FACE_OUTER_BOUND ( 'NONE', #278, .T. ) ;
#108 =( NAMED_UNIT ( * ) PLANE_ANGLE_UNIT ( ) SI_UNIT ( $, .RADIAN. ) );
#109 = FACE_OUTER_BOUND ( 'NONE', #133, .T. ) ;
#110 = ADVANCED_FACE ( 'NONE', ( #297 ), #170, .T. ) ;
#111 = CIRCLE ( 'NONE', #8, 0.2500000000000000000 ) ;
#112 = DIRECTION ( 'NONE',  ( 0.000000000000000000, 0.000000000000000000, -1.000000000000000000 ) ) ;
#113 = APPLICATION_PROTOCOL_DEFINITION ( 'draft international standard', 'automotive_design', 1998, #250 ) ;
#114 = DIRECTION ( 'NONE',  ( 0.000000000000000000, 0.000000000000000000, 1.000000000000000000 ) ) ;
#115 = PRODUCT ( '00452', '00452', '', ( #142 ) ) ;
#116 = DIRECTION ( 'NONE',  ( -3.061616997868386099E-17, 1.000000000000000000, -0.000000000000000000 ) ) ;
#117 = CARTESIAN_POINT ( 'NONE',  ( 3.061616997868383018E-17, 0.000000000000000000, 0.2500000000000000000 ) ) ;
#118 = APPLICATION_PROTOCOL_DEFINITION ( 'draft international standard', 'automotive_design', 1998, #129 ) ;
#119 = PRESENTATION_LAYER_ASSIGNMENT (  '', '', ( #136 ) ) ;
#120 = SURFACE_STYLE_FILL_AREA ( #55 ) ;
#121 = EDGE_LOOP ( 'NONE', ( #81, #84 ) ) ;
#122 = CLOSED_SHELL ( 'NONE', ( #110, #212, #12, #2 ) ) ;
#123 =( NAMED_UNIT ( * ) PLANE_ANGLE_UNIT ( ) SI_UNIT ( $, .RADIAN. ) );
#124 = CIRCLE ( 'NONE', #208, 0.2500000000000000000 ) ;
#125 = DIRECTION ( 'NONE',  ( 0.000000000000000000, 0.000000000000000000, -1.000000000000000000 ) ) ;
#126 = UNCERTAINTY_MEASURE_WITH_UNIT (LENGTH_MEASURE( 1.000000000000000082E-05 ), #39, 'distance_accuracy_value', 'NONE');
#127 = PLANE ( 'NONE',  #138 ) ;
#128 = ADVANCED_FACE ( 'NONE', ( #109 ), #16, .T. ) ;
#129 = APPLICATION_CONTEXT ( 'automotive_design' ) ;
#130 = DIMENSIONAL_EXPONENTS ( 1.000000000000000000, 0.000000000000000000, 0.000000000000000000, 0.000000000000000000, 0.000000000000000000, 0.000000000000000000, 0.000000000000000000 ) ;
#131 = SURFACE_SIDE_STYLE ('',( #64 ) ) ;
#132 = SURFACE_SIDE_STYLE ('',( #40 ) ) ;
#133 = EDGE_LOOP ( 'NONE', ( #15, #150, #78, #235 ) ) ;
#134 = CARTESIAN_POINT ( 'NONE',  ( 0.2499999999999999722, 3.000000000000000444, 3.061616997868383634E-17 ) ) ;
#135 = PLANE ( 'NONE',  #305 ) ;
#136 = STYLED_ITEM ( 'NONE', ( #90 ), #212 ) ;
#137 = PRESENTATION_STYLE_ASSIGNMENT (( #183 ) ) ;
#138 = AXIS2_PLACEMENT_3D ( 'NONE', #259, #178, #230 ) ;
#139 = ADVANCED_FACE ( 'NONE', ( #107 ), #82, .T. ) ;
#140 =( NAMED_UNIT ( * ) SI_UNIT ( $, .STERADIAN. ) SOLID_ANGLE_UNIT ( ) );
#141 = STYLED_ITEM ( 'NONE', ( #52 ), #91 ) ;
#142 = PRODUCT_CONTEXT ( 'NONE', #250, 'mechanical' ) ;
#143 =( NAMED_UNIT ( * ) PLANE_ANGLE_UNIT ( ) SI_UNIT ( $, .RADIAN. ) );
#144 = ORIENTED_EDGE ( 'NONE', *, *, #204, .T. ) ;
#145 = CARTESIAN_POINT ( 'NONE',  ( 0.000000000000000000, 0.000000000000000000, -0.2500000000000000000 ) ) ;
#146 = DIRECTION ( 'NONE',  ( -3.061616997868386099E-17, 1.000000000000000000, -0.000000000000000000 ) ) ;
#147 = ORIENTED_EDGE ( 'NONE', *, *, #304, .F. ) ;
#148 = LINE ( 'NONE', #56, #202 ) ;
#149 = VECTOR ( 'NONE', #287, 39.37007874015748143 ) ;
#150 = ORIENTED_EDGE ( 'NONE', *, *, #37, .T. ) ;
#151 = CARTESIAN_POINT ( 'NONE',  ( -0.2500000000000000000, 1.000000000000000000, 0.000000000000000000 ) ) ;
#152 =( CONVERSION_BASED_UNIT ( 'INCH', #233 ) LENGTH_UNIT ( ) NAMED_UNIT ( #228 ) );
#153 = EDGE_CURVE ( 'NONE', #169, #197, #83, .T. ) ;
#154 = DIRECTION ( 'NONE',  ( -1.000000000000000000, 0.000000000000000000, 0.000000000000000000 ) ) ;
#155 =( NAMED_UNIT ( * ) SI_UNIT ( $, .STERADIAN. ) SOLID_ANGLE_UNIT ( ) );
#156 = AXIS2_PLACEMENT_3D ( 'NONE', #42, #174, #280 ) ;
#157 = ORIENTED_EDGE ( 'NONE', *, *, #101, .T. ) ;
#158 = EDGE_CURVE ( 'NONE', #76, #197, #209, .T. ) ;
#159 = CIRCLE ( 'NONE', #164, 0.2500000000000000000 ) ;
#160 = FACE_OUTER_BOUND ( 'NONE', #249, .T. ) ;
#161 = CARTESIAN_POINT ( 'NONE',  ( 0.000000000000000000, 0.000000000000000000, 0.000000000000000000 ) ) ;
#162 = DIRECTION ( 'NONE',  ( -0.000000000000000000, -1.000000000000000000, -0.000000000000000000 ) ) ;
#163 = EDGE_CURVE ( 'NONE', #276, #33, #14, .T. ) ;
#164 = AXIS2_PLACEMENT_3D ( 'NONE', #103, #116, #221 ) ;
#165 = CARTESIAN_POINT ( 'NONE',  ( -6.123233995736772199E-17, 3.000000000000000444, 0.000000000000000000 ) ) ;
#166 = DIRECTION ( 'NONE',  ( 3.061616997868386099E-17, -1.000000000000000000, 0.000000000000000000 ) ) ;
#167 = DIRECTION ( 'NONE',  ( -3.061616997868386099E-17, 1.000000000000000000, -0.000000000000000000 ) ) ;
#168 = PRODUCT_DEFINITION_SHAPE ( 'NONE', 'NONE',  #292 ) ;
#169 = VERTEX_POINT ( 'NONE', #307 ) ;
#170 = CYLINDRICAL_SURFACE ( 'NONE', #281, 0.2500000000000000000 ) ;
#171 = ORIENTED_EDGE ( 'NONE', *, *, #264, .F. ) ;
#172 =( CONVERSION_BASED_UNIT ( 'INCH', #189 ) LENGTH_UNIT ( ) NAMED_UNIT ( #130 ) );
#173 = UNCERTAINTY_MEASURE_WITH_UNIT (LENGTH_MEASURE( 1.000000000000000082E-05 ), #50, 'distance_accuracy_value', 'NONE');
#174 = DIRECTION ( 'NONE',  ( -3.061616997868386099E-17, 1.000000000000000000, -0.000000000000000000 ) ) ;
#175 =( LENGTH_UNIT ( ) NAMED_UNIT ( * ) SI_UNIT ( $, .METRE. ) );
#176 = FILL_AREA_STYLE_COLOUR ( '', #258 ) ;
#177 = PRESENTATION_STYLE_ASSIGNMENT (( #17 ) ) ;
#178 = DIRECTION ( 'NONE',  ( 0.000000000000000000, -1.000000000000000000, -0.000000000000000000 ) ) ;
#179 = COLOUR_RGB ( '',1.000000000000000000, 0.000000000000000000, 0.000000000000000000 ) ;
#180 =( NAMED_UNIT ( * ) PLANE_ANGLE_UNIT ( ) SI_UNIT ( $, .RADIAN. ) );
#181 = DIRECTION ( 'NONE',  ( 0.000000000000000000, 0.000000000000000000, -1.000000000000000000 ) ) ;
#182 =( LENGTH_UNIT ( ) NAMED_UNIT ( * ) SI_UNIT ( $, .METRE. ) );
#183 = SURFACE_STYLE_USAGE ( .BOTH. , #186 ) ;
#184 = DIRECTION ( 'NONE',  ( -0.000000000000000000, -1.000000000000000000, -0.000000000000000000 ) ) ;
#185 =( LENGTH_UNIT ( ) NAMED_UNIT ( * ) SI_UNIT ( $, .METRE. ) );
#186 = SURFACE_SIDE_STYLE ('',( #232 ) ) ;
#187 = LENGTH_MEASURE_WITH_UNIT ( LENGTH_MEASURE( 0.02539999999999999897 ), #240 );
#188 = DIRECTION ( 'NONE',  ( 1.000000000000000000, 0.000000000000000000, 0.000000000000000000 ) ) ;
#189 = LENGTH_MEASURE_WITH_UNIT ( LENGTH_MEASURE( 0.02539999999999999897 ), #79 );
#190 = COLOUR_RGB ( '',0.7921568627450980005, 0.8196078431372548767, 0.9333333333333333481 ) ;
#191 = FILL_AREA_STYLE_COLOUR ( '', #70 ) ;
#192 = EDGE_LOOP ( 'NONE', ( #30, #13 ) ) ;
#193 = LINE ( 'NONE', #213, #60 ) ;
#194 = FILL_AREA_STYLE ('',( #279 ) ) ;
#195 = UNCERTAINTY_MEASURE_WITH_UNIT (LENGTH_MEASURE( 1.000000000000000082E-05 ), #6, 'distance_accuracy_value', 'NONE');
#196 = PRESENTATION_STYLE_ASSIGNMENT (( #253 ) ) ;
#197 = VERTEX_POINT ( 'NONE', #254 ) ;
#198 = SURFACE_STYLE_USAGE ( .BOTH. , #132 ) ;
#199 = ORIENTED_EDGE ( 'NONE', *, *, #101, .F. ) ;
#200 = CYLINDRICAL_SURFACE ( 'NONE', #24, 0.2500000000000000000 ) ;
#201 = AXIS2_PLACEMENT_3D ( 'NONE', #265, #44, #207 ) ;
#202 = VECTOR ( 'NONE', #146, 39.37007874015748143 ) ;
#203 = DIMENSIONAL_EXPONENTS ( 1.000000000000000000, 0.000000000000000000, 0.000000000000000000, 0.000000000000000000, 0.000000000000000000, 0.000000000000000000, 0.000000000000000000 ) ;
#204 = EDGE_CURVE ( 'NONE', #102, #296, #124, .T. ) ;
#205 =( LENGTH_UNIT ( ) NAMED_UNIT ( * ) SI_UNIT ( $, .METRE. ) );
#206 =( GEOMETRIC_REPRESENTATION_CONTEXT ( 3 ) GLOBAL_UNCERTAINTY_ASSIGNED_CONTEXT ( ( #27 ) ) GLOBAL_UNIT_ASSIGNED_CONTEXT ( ( #20, #123, #225 ) ) REPRESENTATION_CONTEXT ( 'NONE', 'WORKASPACE' ) );
#207 = DIRECTION ( 'NONE',  ( 0.000000000000000000, 0.000000000000000000, -1.000000000000000000 ) ) ;
#208 = AXIS2_PLACEMENT_3D ( 'NONE', #35, #89, #125 ) ;
#209 = LINE ( 'NONE', #134, #149 ) ;
#210 = CARTESIAN_POINT ( 'NONE',  ( 0.000000000000000000, 1.000000000000000000, 0.000000000000000000 ) ) ;
#211 = DIRECTION ( 'NONE',  ( -1.000000000000000000, -3.061616997868386099E-17, 0.000000000000000000 ) ) ;
#212 = ADVANCED_FACE ( 'NONE', ( #160 ), #135, .T. ) ;
#213 = CARTESIAN_POINT ( 'NONE',  ( 0.000000000000000000, 0.000000000000000000, -0.2500000000000000000 ) ) ;
#214 = DIRECTION ( 'NONE',  ( -3.061616997868386099E-17, 1.000000000000000000, -0.000000000000000000 ) ) ;
#215 = SURFACE_SIDE_STYLE ('',( #77 ) ) ;
#216 = ORIENTED_EDGE ( 'NONE', *, *, #153, .F. ) ;
#217 = CARTESIAN_POINT ( 'NONE',  ( 7.582401355855259480E-33, 1.000000000000000000, 0.000000000000000000 ) ) ;
#218 = DIRECTION ( 'NONE',  ( -0.000000000000000000, -1.000000000000000000, -0.000000000000000000 ) ) ;
#219 = AXIS2_PLACEMENT_3D ( 'NONE', #46, #166, #7 ) ;
#220 = ORIENTED_EDGE ( 'NONE', *, *, #163, .F. ) ;
#221 = DIRECTION ( 'NONE',  ( -1.000000000000000000, 0.000000000000000000, 0.000000000000000000 ) ) ;
#222 = ORIENTED_EDGE ( 'NONE', *, *, #264, .T. ) ;
#223 = STYLED_ITEM ( 'NONE', ( #137 ), #12 ) ;
#224 = ORIENTED_EDGE ( 'NONE', *, *, #163, .T. ) ;
#225 =( NAMED_UNIT ( * ) SI_UNIT ( $, .STERADIAN. ) SOLID_ANGLE_UNIT ( ) );
#226 = MECHANICAL_DESIGN_GEOMETRIC_PRESENTATION_REPRESENTATION (  '', ( #105 ), #21 ) ;
#227 = EDGE_LOOP ( 'NONE', ( #87, #144 ) ) ;
#228 = DIMENSIONAL_EXPONENTS ( 1.000000000000000000, 0.000000000000000000, 0.000000000000000000, 0.000000000000000000, 0.000000000000000000, 0.000000000000000000, 0.000000000000000000 ) ;
#229 = MECHANICAL_DESIGN_GEOMETRIC_PRESENTATION_REPRESENTATION (  '', ( #141 ), #237 ) ;
#230 = DIRECTION ( 'NONE',  ( 0.000000000000000000, 0.000000000000000000, -1.000000000000000000 ) ) ;
#231 = DIMENSIONAL_EXPONENTS ( 1.000000000000000000, 0.000000000000000000, 0.000000000000000000, 0.000000000000000000, 0.000000000000000000, 0.000000000000000000, 0.000000000000000000 ) ;
#232 = SURFACE_STYLE_FILL_AREA ( #38 ) ;
#233 = LENGTH_MEASURE_WITH_UNIT ( LENGTH_MEASURE( 0.02539999999999999897 ), #182 );
#234 = COLOUR_RGB ( '',1.000000000000000000, 0.000000000000000000, 0.000000000000000000 ) ;
#235 = ORIENTED_EDGE ( 'NONE', *, *, #32, .F. ) ;
#236 = SURFACE_SIDE_STYLE ('',( #120 ) ) ;
#237 =( GEOMETRIC_REPRESENTATION_CONTEXT ( 3 ) GLOBAL_UNCERTAINTY_ASSIGNED_CONTEXT ( ( #195 ) ) GLOBAL_UNIT_ASSIGNED_CONTEXT ( ( #6, #143, #31 ) ) REPRESENTATION_CONTEXT ( 'NONE', 'WORKASPACE' ) );
#238 = ADVANCED_FACE ( 'NONE', ( #290 ), #239, .F. ) ;
#239 = PLANE ( 'NONE',  #19 ) ;
#240 =( LENGTH_UNIT ( ) NAMED_UNIT ( * ) SI_UNIT ( $, .METRE. ) );
#241 = DIRECTION ( 'NONE',  ( 0.000000000000000000, 0.000000000000000000, -1.000000000000000000 ) ) ;
#242 = DIRECTION ( 'NONE',  ( -0.000000000000000000, -1.000000000000000000, -0.000000000000000000 ) ) ;
#243 = CARTESIAN_POINT ( 'NONE',  ( 0.2500000000000000000, 1.000000000000000000, 3.061616997868383634E-17 ) ) ;
#244 = ORIENTED_EDGE ( 'NONE', *, *, #204, .F. ) ;
#245 = UNCERTAINTY_MEASURE_WITH_UNIT (LENGTH_MEASURE( 1.000000000000000082E-05 ), #172, 'distance_accuracy_value', 'NONE');
#246 = EDGE_CURVE ( 'NONE', #36, #76, #111, .T. ) ;
#247 = SURFACE_STYLE_USAGE ( .BOTH. , #96 ) ;
#248 = MECHANICAL_DESIGN_GEOMETRIC_PRESENTATION_REPRESENTATION (  '', ( #98 ), #206 ) ;
#249 = EDGE_LOOP ( 'NONE', ( #256, #220 ) ) ;
#250 = APPLICATION_CONTEXT ( 'automotive_design' ) ;
#251 = SURFACE_STYLE_FILL_AREA ( #4 ) ;
#252 =( GEOMETRIC_REPRESENTATION_CONTEXT ( 3 ) GLOBAL_UNCERTAINTY_ASSIGNED_CONTEXT ( ( #126 ) ) GLOBAL_UNIT_ASSIGNED_CONTEXT ( ( #39, #108, #155 ) ) REPRESENTATION_CONTEXT ( 'NONE', 'WORKASPACE' ) );
#253 = SURFACE_STYLE_USAGE ( .BOTH. , #236 ) ;
#254 = CARTESIAN_POINT ( 'NONE',  ( 0.2500000000000000000, 3.000000000000000444, 3.061616997868383634E-17 ) ) ;
#255 = PRESENTATION_LAYER_ASSIGNMENT (  '', '', ( #105 ) ) ;
#256 = ORIENTED_EDGE ( 'NONE', *, *, #283, .F. ) ;
#257 = COLOUR_RGB ( '',1.000000000000000000, 0.000000000000000000, 0.000000000000000000 ) ;
#258 = COLOUR_RGB ( '',1.000000000000000000, 0.000000000000000000, 0.000000000000000000 ) ;
#259 = CARTESIAN_POINT ( 'NONE',  ( 0.000000000000000000, 0.000000000000000000, 0.000000000000000000 ) ) ;
#260 = DIRECTION ( 'NONE',  ( -3.061616997868386099E-17, 1.000000000000000000, -0.000000000000000000 ) ) ;
#261 = DIMENSIONAL_EXPONENTS ( 1.000000000000000000, 0.000000000000000000, 0.000000000000000000, 0.000000000000000000, 0.000000000000000000, 0.000000000000000000, 0.000000000000000000 ) ;
#262 = DIRECTION ( 'NONE',  ( -0.000000000000000000, -1.000000000000000000, -0.000000000000000000 ) ) ;
#263 = LENGTH_MEASURE_WITH_UNIT ( LENGTH_MEASURE( 0.02539999999999999897 ), #185 );
#264 = EDGE_CURVE ( 'NONE', #276, #102, #288, .T. ) ;
#265 = CARTESIAN_POINT ( 'NONE',  ( 0.000000000000000000, 1.000000000000000000, 0.000000000000000000 ) ) ;
#266 = PRESENTATION_LAYER_ASSIGNMENT (  '', '', ( #141 ) ) ;
#267 = DIRECTION ( 'NONE',  ( -3.061616997868386099E-17, 1.000000000000000000, 0.000000000000000000 ) ) ;
#268 =( NAMED_UNIT ( * ) PLANE_ANGLE_UNIT ( ) SI_UNIT ( $, .RADIAN. ) );
#269 = DIRECTION ( 'NONE',  ( -0.000000000000000000, -1.000000000000000000, -0.000000000000000000 ) ) ;
#270 =( NAMED_UNIT ( * ) SI_UNIT ( $, .STERADIAN. ) SOLID_ANGLE_UNIT ( ) );
#271 = AXIS2_PLACEMENT_3D ( 'NONE', #301, #260, #58 ) ;
#272 = DIRECTION ( 'NONE',  ( -1.000000000000000000, 0.000000000000000000, 0.000000000000000000 ) ) ;
#273 = PRESENTATION_LAYER_ASSIGNMENT (  '', '', ( #98 ) ) ;
#274 = CARTESIAN_POINT ( 'NONE',  ( 1.171687330204578608E-34, 1.000000000000000000, 0.000000000000000000 ) ) ;
#275 = FILL_AREA_STYLE_COLOUR ( '', #257 ) ;
#276 = VERTEX_POINT ( 'NONE', #72 ) ;
#277 = CARTESIAN_POINT ( 'NONE',  ( 0.000000000000000000, 1.000000000000000000, -0.2500000000000000000 ) ) ;
#278 = EDGE_LOOP ( 'NONE', ( #54, #298, #216, #10 ) ) ;
#279 = FILL_AREA_STYLE_COLOUR ( '', #190 ) ;
#280 = DIRECTION ( 'NONE',  ( -1.000000000000000000, 0.000000000000000000, 0.000000000000000000 ) ) ;
#281 = AXIS2_PLACEMENT_3D ( 'NONE', #161, #262, #181 ) ;
#282 = UNCERTAINTY_MEASURE_WITH_UNIT (LENGTH_MEASURE( 1.000000000000000082E-05 ), #43, 'distance_accuracy_value', 'NONE');
#283 = EDGE_CURVE ( 'NONE', #33, #276, #49, .T. ) ;
#284 = CLOSED_SHELL ( 'NONE', ( #139, #238, #128, #294 ) ) ;
#285 = CARTESIAN_POINT ( 'NONE',  ( -6.123233995736772199E-17, 3.000000000000000444, 0.000000000000000000 ) ) ;
#286 = FILL_AREA_STYLE ('',( #176 ) ) ;
#287 = DIRECTION ( 'NONE',  ( -3.061616997868386099E-17, 1.000000000000000000, -0.000000000000000000 ) ) ;
#288 = LINE ( 'NONE', #117, #45 ) ;
#289 = MECHANICAL_DESIGN_GEOMETRIC_PRESENTATION_REPRESENTATION (  '', ( #136 ), #75 ) ;
#290 = FACE_OUTER_BOUND ( 'NONE', #192, .T. ) ;
#291 = CARTESIAN_POINT ( 'NONE',  ( 0.000000000000000000, 1.000000000000000000, 0.000000000000000000 ) ) ;
#292 = PRODUCT_DEFINITION ( 'UNKNOWN', '', #73, #99 ) ;
#293 =( LENGTH_UNIT ( ) NAMED_UNIT ( * ) SI_UNIT ( $, .METRE. ) );
#294 = ADVANCED_FACE ( 'NONE', ( #69 ), #67, .F. ) ;
#295 = CIRCLE ( 'NONE', #28, 0.2500000000000000000 ) ;
#296 = VERTEX_POINT ( 'NONE', #145 ) ;
#297 = FACE_OUTER_BOUND ( 'NONE', #57, .T. ) ;
#298 = ORIENTED_EDGE ( 'NONE', *, *, #158, .T. ) ;
#299 = LENGTH_MEASURE_WITH_UNIT ( LENGTH_MEASURE( 0.02539999999999999897 ), #293 );
#300 = SURFACE_STYLE_USAGE ( .BOTH. , #215 ) ;
#301 = CARTESIAN_POINT ( 'NONE',  ( -6.123233995736772199E-17, 3.000000000000000444, 0.000000000000000000 ) ) ;
#302 = FILL_AREA_STYLE_COLOUR ( '', #234 ) ;
#303 = AXIS2_PLACEMENT_3D ( 'NONE', #165, #167, #272 ) ;
#304 = EDGE_CURVE ( 'NONE', #296, #102, #295, .T. ) ;
#305 = AXIS2_PLACEMENT_3D ( 'NONE', #210, #92, #93 ) ;
#306 = FACE_OUTER_BOUND ( 'NONE', #227, .T. ) ;
#307 = CARTESIAN_POINT ( 'NONE',  ( -0.2500000000000001110, 3.000000000000000444, 0.000000000000000000 ) ) ;
#308 = FILL_AREA_STYLE ('',( #66 ) ) ;
#309 = PRESENTATION_LAYER_ASSIGNMENT (  '', '', ( #223 ) ) ;
ENDSEC;
END-ISO-10303-21;
