ISO-10303-21;
HEADER;
FILE_DESCRIPTION (( 'STEP AP214' ),
    '1' );
FILE_NAME ('06228.STEP',
    '2023-07-05T16:01:10',
    ( '' ),
    ( '' ),
    'SwSTEP 2.0',
    'SolidWorks 2023',
    '' );
FILE_SCHEMA (( 'AUTOMOTIVE_DESIGN' ));
ENDSEC;

DATA;
#1 = SURFACE_STYLE_FILL_AREA ( #25 ) ;
#2 = APPLICATION_PROTOCOL_DEFINITION ( 'draft international standard', 'automotive_design', 1998, #223 ) ;
#3 = COLOUR_RGB ( '',0.7921568627450980005, 0.8196078431372548767, 0.9333333333333333481 ) ;
#4 = APPLICATION_PROTOCOL_DEFINITION ( 'draft international standard', 'automotive_design', 1998, #261 ) ;
#5 = UNCERTAINTY_MEASURE_WITH_UNIT (LENGTH_MEASURE( 1.000000000000000082E-05 ), #186, 'distance_accuracy_value', 'NONE');
#6 = CLOSED_SHELL ( 'NONE', ( #63, #68, #14, #86 ) ) ;
#7 = VECTOR ( 'NONE', #242, 39.37007874015748143 ) ;
#8 = EDGE_CURVE ( 'NONE', #125, #40, #246, .T. ) ;
#9 =( NAMED_UNIT ( * ) PLANE_ANGLE_UNIT ( ) SI_UNIT ( $, .RADIAN. ) );
#10 = CARTESIAN_POINT ( 'NONE',  ( 0.06249999999999995143, 2.000000000000000000, 0.000000000000000000 ) ) ;
#11 = EDGE_LOOP ( 'NONE', ( #222, #119, #102, #55 ) ) ;
#12 =( GEOMETRIC_REPRESENTATION_CONTEXT ( 3 ) GLOBAL_UNCERTAINTY_ASSIGNED_CONTEXT ( ( #253 ) ) GLOBAL_UNIT_ASSIGNED_CONTEXT ( ( #89, #187, #250 ) ) REPRESENTATION_CONTEXT ( 'NONE', 'WORKASPACE' ) );
#13 = DIRECTION ( 'NONE',  ( -0.000000000000000000, -1.000000000000000000, -0.000000000000000000 ) ) ;
#14 = ADVANCED_FACE ( 'NONE', ( #178 ), #216, .T. ) ;
#15 = DIRECTION ( 'NONE',  ( -1.000000000000000000, 0.000000000000000000, 0.000000000000000000 ) ) ;
#16 = FILL_AREA_STYLE ('',( #126 ) ) ;
#17 = ORIENTED_EDGE ( 'NONE', *, *, #72, .T. ) ;
#18 = LINE ( 'NONE', #62, #7 ) ;
#19 = ORIENTED_EDGE ( 'NONE', *, *, #120, .T. ) ;
#20 = COLOUR_RGB ( '',1.000000000000000000, 0.000000000000000000, 0.000000000000000000 ) ;
#21 = STYLED_ITEM ( 'NONE', ( #26 ), #199 ) ;
#22 = FACE_OUTER_BOUND ( 'NONE', #11, .T. ) ;
#23 = ADVANCED_FACE ( 'NONE', ( #82 ), #214, .T. ) ;
#24 =( NAMED_UNIT ( * ) PLANE_ANGLE_UNIT ( ) SI_UNIT ( $, .RADIAN. ) );
#25 = FILL_AREA_STYLE ('',( #248 ) ) ;
#26 = PRESENTATION_STYLE_ASSIGNMENT (( #169 ) ) ;
#27 = ORIENTED_EDGE ( 'NONE', *, *, #75, .T. ) ;
#28 = COLOUR_RGB ( '',1.000000000000000000, 0.000000000000000000, 0.000000000000000000 ) ;
#29 =( GEOMETRIC_REPRESENTATION_CONTEXT ( 3 ) GLOBAL_UNCERTAINTY_ASSIGNED_CONTEXT ( ( #118 ) ) GLOBAL_UNIT_ASSIGNED_CONTEXT ( ( #264, #210, #45 ) ) REPRESENTATION_CONTEXT ( 'NONE', 'WORKASPACE' ) );
#30 = ORIENTED_EDGE ( 'NONE', *, *, #8, .F. ) ;
#31 = AXIS2_PLACEMENT_3D ( 'NONE', #219, #140, #15 ) ;
#32 = MECHANICAL_DESIGN_GEOMETRIC_PRESENTATION_REPRESENTATION (  '', ( #21 ), #189 ) ;
#33 = LENGTH_MEASURE_WITH_UNIT ( LENGTH_MEASURE( 0.02539999999999999897 ), #238 );
#34 = ORIENTED_EDGE ( 'NONE', *, *, #229, .F. ) ;
#35 = CARTESIAN_POINT ( 'NONE',  ( 0.000000000000000000, 0.1082531754730545470, 0.000000000000000000 ) ) ;
#36 = PRESENTATION_LAYER_ASSIGNMENT (  '', '', ( #157 ) ) ;
#37 = ORIENTED_EDGE ( 'NONE', *, *, #8, .T. ) ;
#38 = SURFACE_STYLE_USAGE ( .BOTH. , #138 ) ;
#39 = DIRECTION ( 'NONE',  ( 0.000000000000000000, 1.000000000000000000, 0.000000000000000000 ) ) ;
#40 = VERTEX_POINT ( 'NONE', #233 ) ;
#41 =( LENGTH_UNIT ( ) NAMED_UNIT ( * ) SI_UNIT ( $, .METRE. ) );
#42 =( NAMED_UNIT ( * ) SI_UNIT ( $, .STERADIAN. ) SOLID_ANGLE_UNIT ( ) );
#43 = MECHANICAL_DESIGN_GEOMETRIC_PRESENTATION_REPRESENTATION (  '', ( #157 ), #76 ) ;
#44 = CIRCLE ( 'NONE', #136, 0.06249999999999997918 ) ;
#45 =( NAMED_UNIT ( * ) SI_UNIT ( $, .STERADIAN. ) SOLID_ANGLE_UNIT ( ) );
#46 = DIRECTION ( 'NONE',  ( 0.000000000000000000, 1.000000000000000000, 0.000000000000000000 ) ) ;
#47 = CYLINDRICAL_SURFACE ( 'NONE', #115, 0.06249999999999972938 ) ;
#48 =( GEOMETRIC_REPRESENTATION_CONTEXT ( 3 ) GLOBAL_UNCERTAINTY_ASSIGNED_CONTEXT ( ( #100 ) ) GLOBAL_UNIT_ASSIGNED_CONTEXT ( ( #106, #177, #221 ) ) REPRESENTATION_CONTEXT ( 'NONE', 'WORKASPACE' ) );
#49 = VERTEX_POINT ( 'NONE', #158 ) ;
#50 = ADVANCED_FACE ( 'NONE', ( #53 ), #142, .T. ) ;
#51 = PRODUCT_DEFINITION_SHAPE ( 'NONE', 'NONE',  #251 ) ;
#52 = DIMENSIONAL_EXPONENTS ( 1.000000000000000000, 0.000000000000000000, 0.000000000000000000, 0.000000000000000000, 0.000000000000000000, 0.000000000000000000, 0.000000000000000000 ) ;
#53 = FACE_OUTER_BOUND ( 'NONE', #109, .T. ) ;
#54 = DIRECTION ( 'NONE',  ( 0.000000000000000000, 0.000000000000000000, -1.000000000000000000 ) ) ;
#55 = ORIENTED_EDGE ( 'NONE', *, *, #72, .F. ) ;
#56 = ORIENTED_EDGE ( 'NONE', *, *, #75, .F. ) ;
#57 = FACE_OUTER_BOUND ( 'NONE', #194, .T. ) ;
#58 = AXIS2_PLACEMENT_3D ( 'NONE', #176, #46, #131 ) ;
#59 = FILL_AREA_STYLE_COLOUR ( '', #20 ) ;
#60 = DIRECTION ( 'NONE',  ( -1.000000000000000000, 0.000000000000000000, 0.000000000000000000 ) ) ;
#61 = ORIENTED_EDGE ( 'NONE', *, *, #120, .F. ) ;
#62 = CARTESIAN_POINT ( 'NONE',  ( 0.06249999999999984734, 2.000000000000000000, 7.654042494670923648E-18 ) ) ;
#63 = ADVANCED_FACE ( 'NONE', ( #22 ), #47, .T. ) ;
#64 =( NAMED_UNIT ( * ) SI_UNIT ( $, .STERADIAN. ) SOLID_ANGLE_UNIT ( ) );
#65 =( GEOMETRIC_REPRESENTATION_CONTEXT ( 3 ) GLOBAL_UNCERTAINTY_ASSIGNED_CONTEXT ( ( #5 ) ) GLOBAL_UNIT_ASSIGNED_CONTEXT ( ( #186, #24, #42 ) ) REPRESENTATION_CONTEXT ( 'NONE', 'WORKASPACE' ) );
#66 = LENGTH_MEASURE_WITH_UNIT ( LENGTH_MEASURE( 0.02539999999999999897 ), #203 );
#67 = DIRECTION ( 'NONE',  ( -1.067490991472360598E-16, 1.000000000000000000, -0.000000000000000000 ) ) ;
#68 = ADVANCED_FACE ( 'NONE', ( #90 ), #166, .F. ) ;
#69 = DIRECTION ( 'NONE',  ( 0.000000000000000000, 0.000000000000000000, 1.000000000000000000 ) ) ;
#70 = COLOUR_RGB ( '',1.000000000000000000, 0.000000000000000000, 0.000000000000000000 ) ;
#71 = LENGTH_MEASURE_WITH_UNIT ( LENGTH_MEASURE( 0.02539999999999999897 ), #185 );
#72 = EDGE_CURVE ( 'NONE', #40, #162, #204, .T. ) ;
#73 = VECTOR ( 'NONE', #123, 39.37007874015748143 ) ;
#74 = AXIS2_PLACEMENT_3D ( 'NONE', #156, #105, #239 ) ;
#75 = EDGE_CURVE ( 'NONE', #78, #49, #99, .T. ) ;
#76 =( GEOMETRIC_REPRESENTATION_CONTEXT ( 3 ) GLOBAL_UNCERTAINTY_ASSIGNED_CONTEXT ( ( #191 ) ) GLOBAL_UNIT_ASSIGNED_CONTEXT ( ( #241, #9, #257 ) ) REPRESENTATION_CONTEXT ( 'NONE', 'WORKASPACE' ) );
#77 = VECTOR ( 'NONE', #148, 39.37007874015748143 ) ;
#78 = VERTEX_POINT ( 'NONE', #230 ) ;
#79 = CARTESIAN_POINT ( 'NONE',  ( -0.06249999999999970857, 2.000000000000000000, 0.000000000000000000 ) ) ;
#80 = EDGE_LOOP ( 'NONE', ( #141, #153, #27 ) ) ;
#81 = DIRECTION ( 'NONE',  ( -1.000000000000000000, 0.000000000000000000, 0.000000000000000000 ) ) ;
#82 = FACE_OUTER_BOUND ( 'NONE', #80, .T. ) ;
#83 = SURFACE_STYLE_USAGE ( .BOTH. , #179 ) ;
#84 = STYLED_ITEM ( 'NONE', ( #164 ), #197 ) ;
#85 = VERTEX_POINT ( 'NONE', #206 ) ;
#86 = ADVANCED_FACE ( 'NONE', ( #57 ), #144, .F. ) ;
#87 = LINE ( 'NONE', #181, #73 ) ;
#88 = DIRECTION ( 'NONE',  ( -1.067490991472360598E-16, 1.000000000000000000, -0.000000000000000000 ) ) ;
#89 =( CONVERSION_BASED_UNIT ( 'INCH', #263 ) LENGTH_UNIT ( ) NAMED_UNIT ( #133 ) );
#90 = FACE_OUTER_BOUND ( 'NONE', #260, .T. ) ;
#91 = CARTESIAN_POINT ( 'NONE',  ( 1.224646799147353700E-16, 2.000000000000000000, 0.000000000000000000 ) ) ;
#92 = DIMENSIONAL_EXPONENTS ( 1.000000000000000000, 0.000000000000000000, 0.000000000000000000, 0.000000000000000000, 0.000000000000000000, 0.000000000000000000, 0.000000000000000000 ) ;
#93 = CARTESIAN_POINT ( 'NONE',  ( 0.000000000000000000, 0.000000000000000000, 0.000000000000000000 ) ) ;
#94 = DIRECTION ( 'NONE',  ( -1.000000000000000000, 0.000000000000000000, 0.000000000000000000 ) ) ;
#95 = AXIS2_PLACEMENT_3D ( 'NONE', #218, #258, #160 ) ;
#96 = PRODUCT_DEFINITION_CONTEXT ( 'detailed design', #261, 'design' ) ;
#97 = DIMENSIONAL_EXPONENTS ( 1.000000000000000000, 0.000000000000000000, 0.000000000000000000, 0.000000000000000000, 0.000000000000000000, 0.000000000000000000, 0.000000000000000000 ) ;
#98 = EDGE_CURVE ( 'NONE', #85, #162, #252, .T. ) ;
#99 = CIRCLE ( 'NONE', #220, 0.06249999999999997918 ) ;
#100 = UNCERTAINTY_MEASURE_WITH_UNIT (LENGTH_MEASURE( 1.000000000000000082E-05 ), #106, 'distance_accuracy_value', 'NONE');
#101 = SHAPE_DEFINITION_REPRESENTATION ( #51, #243 ) ;
#102 = ORIENTED_EDGE ( 'NONE', *, *, #245, .F. ) ;
#103 = PRESENTATION_STYLE_ASSIGNMENT (( #159 ) ) ;
#104 = AXIS2_PLACEMENT_3D ( 'NONE', #145, #196, #81 ) ;
#105 = DIRECTION ( 'NONE',  ( 0.000000000000000000, 1.000000000000000000, 0.000000000000000000 ) ) ;
#106 =( CONVERSION_BASED_UNIT ( 'INCH', #33 ) LENGTH_UNIT ( ) NAMED_UNIT ( #92 ) );
#107 = EDGE_LOOP ( 'NONE', ( #180, #37, #17, #128 ) ) ;
#108 = SURFACE_STYLE_FILL_AREA ( #16 ) ;
#109 = EDGE_LOOP ( 'NONE', ( #34, #135, #19 ) ) ;
#110 = FILL_AREA_STYLE_COLOUR ( '', #70 ) ;
#111 = PRESENTATION_STYLE_ASSIGNMENT (( #202 ) ) ;
#112 = EDGE_CURVE ( 'NONE', #125, #85, #18, .T. ) ;
#113 = CARTESIAN_POINT ( 'NONE',  ( -0.06249999999999960448, 2.000000000000000000, 0.000000000000000000 ) ) ;
#114 = DIRECTION ( 'NONE',  ( -1.000000000000000000, -1.067490991472360598E-16, 0.000000000000000000 ) ) ;
#115 = AXIS2_PLACEMENT_3D ( 'NONE', #91, #88, #168 ) ;
#116 =( CONVERSION_BASED_UNIT ( 'INCH', #66 ) LENGTH_UNIT ( ) NAMED_UNIT ( #150 ) );
#117 = CIRCLE ( 'NONE', #124, 0.06249999999999982653 ) ;
#118 = UNCERTAINTY_MEASURE_WITH_UNIT (LENGTH_MEASURE( 1.000000000000000082E-05 ), #264, 'distance_accuracy_value', 'NONE');
#119 = ORIENTED_EDGE ( 'NONE', *, *, #112, .T. ) ;
#120 = EDGE_CURVE ( 'NONE', #49, #78, #44, .T. ) ;
#121 = SURFACE_SIDE_STYLE ('',( #224 ) ) ;
#122 =( LENGTH_UNIT ( ) NAMED_UNIT ( * ) SI_UNIT ( $, .METRE. ) );
#123 = DIRECTION ( 'NONE',  ( 6.123233995736777129E-17, 0.8660254037844380415, -0.5000000000000008882 ) ) ;
#124 = AXIS2_PLACEMENT_3D ( 'NONE', #167, #147, #94 ) ;
#125 = VERTEX_POINT ( 'NONE', #139 ) ;
#126 = FILL_AREA_STYLE_COLOUR ( '', #172 ) ;
#127 = ADVANCED_FACE ( 'NONE', ( #237 ), #182, .T. ) ;
#128 = ORIENTED_EDGE ( 'NONE', *, *, #98, .F. ) ;
#129 = DIRECTION ( 'NONE',  ( 1.000000000000000000, 1.067490991472360598E-16, 0.000000000000000000 ) ) ;
#130 = MECHANICAL_DESIGN_GEOMETRIC_PRESENTATION_REPRESENTATION (  '', ( #84 ), #12 ) ;
#131 = DIRECTION ( 'NONE',  ( 0.000000000000000000, 0.000000000000000000, 1.000000000000000000 ) ) ;
#132 = DIRECTION ( 'NONE',  ( -0.000000000000000000, -1.000000000000000000, -0.000000000000000000 ) ) ;
#133 = DIMENSIONAL_EXPONENTS ( 1.000000000000000000, 0.000000000000000000, 0.000000000000000000, 0.000000000000000000, 0.000000000000000000, 0.000000000000000000, 0.000000000000000000 ) ;
#134 = CARTESIAN_POINT ( 'NONE',  ( 0.000000000000000000, 0.000000000000000000, 0.000000000000000000 ) ) ;
#135 = ORIENTED_EDGE ( 'NONE', *, *, #170, .T. ) ;
#136 = AXIS2_PLACEMENT_3D ( 'NONE', #217, #13, #54 ) ;
#137 = AXIS2_PLACEMENT_3D ( 'NONE', #35, #39, #175 ) ;
#138 = SURFACE_SIDE_STYLE ('',( #200 ) ) ;
#139 = CARTESIAN_POINT ( 'NONE',  ( 0.06249999999999995837, 0.1082531754730544776, 7.654042494670931352E-18 ) ) ;
#140 = DIRECTION ( 'NONE',  ( -1.067490991472360598E-16, 1.000000000000000000, -0.000000000000000000 ) ) ;
#141 = ORIENTED_EDGE ( 'NONE', *, *, #170, .F. ) ;
#142 = CONICAL_SURFACE ( 'NONE', #58, 22.73032555864674009, 0.5235987755982999259 ) ;
#143 = FILL_AREA_STYLE ('',( #59 ) ) ;
#144 = PLANE ( 'NONE',  #201 ) ;
#145 = CARTESIAN_POINT ( 'NONE',  ( 3.244069492476312449E-16, 0.1082531754730544776, 0.000000000000000000 ) ) ;
#146 = SURFACE_SIDE_STYLE ('',( #244 ) ) ;
#147 = DIRECTION ( 'NONE',  ( -1.067490991472360598E-16, 1.000000000000000000, -0.000000000000000000 ) ) ;
#148 = DIRECTION ( 'NONE',  ( 0.000000000000000000, 0.8660254037844380415, 0.5000000000000008882 ) ) ;
#149 = CARTESIAN_POINT ( 'NONE',  ( 0.000000000000000000, 0.1082531754730545470, 0.000000000000000000 ) ) ;
#150 = DIMENSIONAL_EXPONENTS ( 1.000000000000000000, 0.000000000000000000, 0.000000000000000000, 0.000000000000000000, 0.000000000000000000, 0.000000000000000000, 0.000000000000000000 ) ;
#151 =( NAMED_UNIT ( * ) PLANE_ANGLE_UNIT ( ) SI_UNIT ( $, .RADIAN. ) );
#152 = PRODUCT ( '06228', '06228', '', ( #215 ) ) ;
#153 = ORIENTED_EDGE ( 'NONE', *, *, #229, .T. ) ;
#154 = AXIS2_PLACEMENT_3D ( 'NONE', #249, #228, #114 ) ;
#155 = UNCERTAINTY_MEASURE_WITH_UNIT (LENGTH_MEASURE( 1.000000000000000082E-05 ), #116, 'distance_accuracy_value', 'NONE');
#156 = CARTESIAN_POINT ( 'NONE',  ( 0.000000000000000000, 39.37007874015748143, 0.000000000000000000 ) ) ;
#157 = STYLED_ITEM ( 'NONE', ( #225 ), #23 ) ;
#158 = CARTESIAN_POINT ( 'NONE',  ( 7.654042494670956004E-18, 0.1082531754730545470, -0.06249999999999997918 ) ) ;
#159 = SURFACE_STYLE_USAGE ( .BOTH. , #121 ) ;
#160 = DIRECTION ( 'NONE',  ( -1.000000000000000000, 0.000000000000000000, 0.000000000000000000 ) ) ;
#161 = CARTESIAN_POINT ( 'NONE',  ( 1.224646799147353700E-16, 2.000000000000000000, 0.000000000000000000 ) ) ;
#162 = VERTEX_POINT ( 'NONE', #79 ) ;
#163 = PRESENTATION_LAYER_ASSIGNMENT (  '', '', ( #171 ) ) ;
#164 = PRESENTATION_STYLE_ASSIGNMENT (( #83 ) ) ;
#165 = LENGTH_MEASURE_WITH_UNIT ( LENGTH_MEASURE( 0.02539999999999999897 ), #122 );
#166 = PLANE ( 'NONE',  #154 ) ;
#167 = CARTESIAN_POINT ( 'NONE',  ( 1.224646799147353700E-16, 2.000000000000000000, 0.000000000000000000 ) ) ;
#168 = DIRECTION ( 'NONE',  ( -1.000000000000000000, 0.000000000000000000, 0.000000000000000000 ) ) ;
#169 = SURFACE_STYLE_USAGE ( .BOTH. , #184 ) ;
#170 = EDGE_CURVE ( 'NONE', #211, #49, #87, .T. ) ;
#171 = STYLED_ITEM ( 'NONE', ( #103 ), #127 ) ;
#172 = COLOUR_RGB ( '',0.7921568627450980005, 0.8196078431372548767, 0.9333333333333333481 ) ;
#173 = ORIENTED_EDGE ( 'NONE', *, *, #98, .T. ) ;
#174 = FILL_AREA_STYLE_COLOUR ( '', #28 ) ;
#175 = DIRECTION ( 'NONE',  ( 0.000000000000000000, -0.000000000000000000, 1.000000000000000000 ) ) ;
#176 = CARTESIAN_POINT ( 'NONE',  ( 0.000000000000000000, 39.37007874015748143, 0.000000000000000000 ) ) ;
#177 =( NAMED_UNIT ( * ) PLANE_ANGLE_UNIT ( ) SI_UNIT ( $, .RADIAN. ) );
#178 = FACE_OUTER_BOUND ( 'NONE', #107, .T. ) ;
#179 = SURFACE_SIDE_STYLE ('',( #108 ) ) ;
#180 = ORIENTED_EDGE ( 'NONE', *, *, #112, .F. ) ;
#181 = CARTESIAN_POINT ( 'NONE',  ( 0.000000000000000000, 0.000000000000000000, 0.000000000000000000 ) ) ;
#182 = PLANE ( 'NONE',  #137 ) ;
#183 = LENGTH_MEASURE_WITH_UNIT ( LENGTH_MEASURE( 0.02539999999999999897 ), #226 );
#184 = SURFACE_SIDE_STYLE ('',( #1 ) ) ;
#185 =( LENGTH_UNIT ( ) NAMED_UNIT ( * ) SI_UNIT ( $, .METRE. ) );
#186 =( CONVERSION_BASED_UNIT ( 'INCH', #183 ) LENGTH_UNIT ( ) NAMED_UNIT ( #97 ) );
#187 =( NAMED_UNIT ( * ) PLANE_ANGLE_UNIT ( ) SI_UNIT ( $, .RADIAN. ) );
#188 = CARTESIAN_POINT ( 'NONE',  ( 0.000000000000000000, 0.000000000000000000, 0.000000000000000000 ) ) ;
#189 =( GEOMETRIC_REPRESENTATION_CONTEXT ( 3 ) GLOBAL_UNCERTAINTY_ASSIGNED_CONTEXT ( ( #155 ) ) GLOBAL_UNIT_ASSIGNED_CONTEXT ( ( #116, #151, #64 ) ) REPRESENTATION_CONTEXT ( 'NONE', 'WORKASPACE' ) );
#190 = MECHANICAL_DESIGN_GEOMETRIC_PRESENTATION_REPRESENTATION (  '', ( #247 ), #65 ) ;
#191 = UNCERTAINTY_MEASURE_WITH_UNIT (LENGTH_MEASURE( 1.000000000000000082E-05 ), #241, 'distance_accuracy_value', 'NONE');
#192 = EDGE_CURVE ( 'NONE', #40, #125, #234, .T. ) ;
#193 = DIRECTION ( 'NONE',  ( -1.067490991472360598E-16, 1.000000000000000000, -0.000000000000000000 ) ) ;
#194 = EDGE_LOOP ( 'NONE', ( #213, #173 ) ) ;
#195 = AXIS2_PLACEMENT_3D ( 'NONE', #93, #69, #209 ) ;
#196 = DIRECTION ( 'NONE',  ( -1.067490991472360598E-16, 1.000000000000000000, -0.000000000000000000 ) ) ;
#197 = MANIFOLD_SOLID_BREP ( 'Revolve - Tool Body (Pointed)', #6 ) ;
#198 = ORIENTED_EDGE ( 'NONE', *, *, #192, .F. ) ;
#199 = MANIFOLD_SOLID_BREP ( 'Revolve - Cutting Edge', #254 ) ;
#200 = SURFACE_STYLE_FILL_AREA ( #143 ) ;
#201 = AXIS2_PLACEMENT_3D ( 'NONE', #10, #256, #129 ) ;
#202 = SURFACE_STYLE_USAGE ( .BOTH. , #146 ) ;
#203 =( LENGTH_UNIT ( ) NAMED_UNIT ( * ) SI_UNIT ( $, .METRE. ) );
#204 = LINE ( 'NONE', #113, #208 ) ;
#205 = DIMENSIONAL_EXPONENTS ( 1.000000000000000000, 0.000000000000000000, 0.000000000000000000, 0.000000000000000000, 0.000000000000000000, 0.000000000000000000, 0.000000000000000000 ) ;
#206 = CARTESIAN_POINT ( 'NONE',  ( 0.06249999999999995837, 2.000000000000000000, 7.654042494670931352E-18 ) ) ;
#207 = LINE ( 'NONE', #188, #77 ) ;
#208 = VECTOR ( 'NONE', #67, 39.37007874015748143 ) ;
#209 = DIRECTION ( 'NONE',  ( 1.000000000000000000, 0.000000000000000000, 0.000000000000000000 ) ) ;
#210 =( NAMED_UNIT ( * ) PLANE_ANGLE_UNIT ( ) SI_UNIT ( $, .RADIAN. ) );
#211 = VERTEX_POINT ( 'NONE', #134 ) ;
#212 = MECHANICAL_DESIGN_GEOMETRIC_PRESENTATION_REPRESENTATION (  '', ( #171 ), #48 ) ;
#213 = ORIENTED_EDGE ( 'NONE', *, *, #245, .T. ) ;
#214 = CONICAL_SURFACE ( 'NONE', #74, 22.73032555864674009, 0.5235987755982999259 ) ;
#215 = PRODUCT_CONTEXT ( 'NONE', #223, 'mechanical' ) ;
#216 = CYLINDRICAL_SURFACE ( 'NONE', #95, 0.06249999999999972938 ) ;
#217 = CARTESIAN_POINT ( 'NONE',  ( 0.000000000000000000, 0.1082531754730545470, 0.000000000000000000 ) ) ;
#218 = CARTESIAN_POINT ( 'NONE',  ( 1.224646799147353700E-16, 2.000000000000000000, 0.000000000000000000 ) ) ;
#219 = CARTESIAN_POINT ( 'NONE',  ( 3.244069492476312449E-16, 0.1082531754730544776, 0.000000000000000000 ) ) ;
#220 = AXIS2_PLACEMENT_3D ( 'NONE', #149, #132, #265 ) ;
#221 =( NAMED_UNIT ( * ) SI_UNIT ( $, .STERADIAN. ) SOLID_ANGLE_UNIT ( ) );
#222 = ORIENTED_EDGE ( 'NONE', *, *, #192, .T. ) ;
#223 = APPLICATION_CONTEXT ( 'automotive_design' ) ;
#224 = SURFACE_STYLE_FILL_AREA ( #259 ) ;
#225 = PRESENTATION_STYLE_ASSIGNMENT (( #38 ) ) ;
#226 =( LENGTH_UNIT ( ) NAMED_UNIT ( * ) SI_UNIT ( $, .METRE. ) );
#227 = AXIS2_PLACEMENT_3D ( 'NONE', #161, #193, #60 ) ;
#228 = DIRECTION ( 'NONE',  ( -1.067490991472360598E-16, 1.000000000000000000, 0.000000000000000000 ) ) ;
#229 = EDGE_CURVE ( 'NONE', #211, #78, #207, .T. ) ;
#230 = CARTESIAN_POINT ( 'NONE',  ( 0.000000000000000000, 0.1082531754730545470, 0.06249999999999997918 ) ) ;
#231 = PRESENTATION_LAYER_ASSIGNMENT (  '', '', ( #84 ) ) ;
#232 = PRODUCT_DEFINITION_FORMATION_WITH_SPECIFIED_SOURCE ( 'ANY', '', #152, .NOT_KNOWN. ) ;
#233 = CARTESIAN_POINT ( 'NONE',  ( -0.06249999999999929917, 0.1082531754730544776, 0.000000000000000000 ) ) ;
#234 = CIRCLE ( 'NONE', #104, 0.06249999999999962530 ) ;
#235 = EDGE_LOOP ( 'NONE', ( #56, #61 ) ) ;
#236 = PRODUCT_RELATED_PRODUCT_CATEGORY ( 'part', '', ( #152 ) ) ;
#237 = FACE_OUTER_BOUND ( 'NONE', #235, .T. ) ;
#238 =( LENGTH_UNIT ( ) NAMED_UNIT ( * ) SI_UNIT ( $, .METRE. ) );
#239 = DIRECTION ( 'NONE',  ( 0.000000000000000000, 0.000000000000000000, 1.000000000000000000 ) ) ;
#240 = PRESENTATION_LAYER_ASSIGNMENT (  '', '', ( #247 ) ) ;
#241 =( CONVERSION_BASED_UNIT ( 'INCH', #165 ) LENGTH_UNIT ( ) NAMED_UNIT ( #205 ) );
#242 = DIRECTION ( 'NONE',  ( -1.067490991472360598E-16, 1.000000000000000000, -0.000000000000000000 ) ) ;
#243 = ADVANCED_BREP_SHAPE_REPRESENTATION ( '06228', ( #199, #197, #195 ), #29 ) ;
#244 = SURFACE_STYLE_FILL_AREA ( #255 ) ;
#245 = EDGE_CURVE ( 'NONE', #162, #85, #117, .T. ) ;
#246 = CIRCLE ( 'NONE', #31, 0.06249999999999962530 ) ;
#247 = STYLED_ITEM ( 'NONE', ( #111 ), #50 ) ;
#248 = FILL_AREA_STYLE_COLOUR ( '', #3 ) ;
#249 = CARTESIAN_POINT ( 'NONE',  ( 3.244069492476312449E-16, 0.1082531754730545470, 0.000000000000000000 ) ) ;
#250 =( NAMED_UNIT ( * ) SI_UNIT ( $, .STERADIAN. ) SOLID_ANGLE_UNIT ( ) );
#251 = PRODUCT_DEFINITION ( 'UNKNOWN', '', #232, #96 ) ;
#252 = CIRCLE ( 'NONE', #227, 0.06249999999999982653 ) ;
#253 = UNCERTAINTY_MEASURE_WITH_UNIT (LENGTH_MEASURE( 1.000000000000000082E-05 ), #89, 'distance_accuracy_value', 'NONE');
#254 = CLOSED_SHELL ( 'NONE', ( #50, #127, #23 ) ) ;
#255 = FILL_AREA_STYLE ('',( #174 ) ) ;
#256 = DIRECTION ( 'NONE',  ( 1.067490991472360598E-16, -1.000000000000000000, 0.000000000000000000 ) ) ;
#257 =( NAMED_UNIT ( * ) SI_UNIT ( $, .STERADIAN. ) SOLID_ANGLE_UNIT ( ) );
#258 = DIRECTION ( 'NONE',  ( -1.067490991472360598E-16, 1.000000000000000000, -0.000000000000000000 ) ) ;
#259 = FILL_AREA_STYLE ('',( #110 ) ) ;
#260 = EDGE_LOOP ( 'NONE', ( #198, #30 ) ) ;
#261 = APPLICATION_CONTEXT ( 'automotive_design' ) ;
#262 = PRESENTATION_LAYER_ASSIGNMENT (  '', '', ( #21 ) ) ;
#263 = LENGTH_MEASURE_WITH_UNIT ( LENGTH_MEASURE( 0.02539999999999999897 ), #41 );
#264 =( CONVERSION_BASED_UNIT ( 'INCH', #71 ) LENGTH_UNIT ( ) NAMED_UNIT ( #52 ) );
#265 = DIRECTION ( 'NONE',  ( 0.000000000000000000, 0.000000000000000000, -1.000000000000000000 ) ) ;
ENDSEC;
END-ISO-10303-21;
