ISO-10303-21;
HEADER;
FILE_DESCRIPTION (( 'STEP AP214' ),
    '1' );
FILE_NAME ('86068.STEP',
    '2023-06-23T16:21:51',
    ( '' ),
    ( '' ),
    'SwSTEP 2.0',
    'SolidWorks 2023',
    '' );
FILE_SCHEMA (( 'AUTOMOTIVE_DESIGN' ));
ENDSEC;

DATA;
#1 = FACE_OUTER_BOUND ( 'NONE', #280, .T. ) ;
#2 = APPLICATION_PROTOCOL_DEFINITION ( 'draft international standard', 'automotive_design', 1998, #63 ) ;
#3 = VECTOR ( 'NONE', #82, 39.37007874015748143 ) ;
#4 = VECTOR ( 'NONE', #246, 39.37007874015748143 ) ;
#5 = CARTESIAN_POINT ( 'NONE',  ( 0.000000000000000000, 2.500000000000000000, 0.000000000000000000 ) ) ;
#6 = ORIENTED_EDGE ( 'NONE', *, *, #64, .F. ) ;
#7 = ADVANCED_BREP_SHAPE_REPRESENTATION ( '86068', ( #287, #296, #22 ), #176 ) ;
#8 = DIRECTION ( 'NONE',  ( -1.000000000000000000, 0.000000000000000000, 0.000000000000000000 ) ) ;
#9 = DIRECTION ( 'NONE',  ( -4.898587196589413075E-17, 1.000000000000000000, -0.000000000000000000 ) ) ;
#10 = CARTESIAN_POINT ( 'NONE',  ( -1.224646799147353207E-16, 5.000000000000000000, 0.000000000000000000 ) ) ;
#11 = ORIENTED_EDGE ( 'NONE', *, *, #21, .T. ) ;
#12 =( LENGTH_UNIT ( ) NAMED_UNIT ( * ) SI_UNIT ( $, .METRE. ) );
#13 = MECHANICAL_DESIGN_GEOMETRIC_PRESENTATION_REPRESENTATION (  '', ( #284 ), #131 ) ;
#14 =( CONVERSION_BASED_UNIT ( 'INCH', #279 ) LENGTH_UNIT ( ) NAMED_UNIT ( #17 ) );
#15 = ADVANCED_FACE ( 'NONE', ( #242 ), #172, .T. ) ;
#16 = CARTESIAN_POINT ( 'NONE',  ( 1.516480271171051896E-32, 2.500000000000000000, 0.000000000000000000 ) ) ;
#17 = DIMENSIONAL_EXPONENTS ( 1.000000000000000000, 0.000000000000000000, 0.000000000000000000, 0.000000000000000000, 0.000000000000000000, 0.000000000000000000, 0.000000000000000000 ) ;
#18 = MECHANICAL_DESIGN_GEOMETRIC_PRESENTATION_REPRESENTATION (  '', ( #68 ), #215 ) ;
#19 = DIRECTION ( 'NONE',  ( -4.898587196589412459E-17, 1.000000000000000000, 0.000000000000000000 ) ) ;
#20 = DIMENSIONAL_EXPONENTS ( 1.000000000000000000, 0.000000000000000000, 0.000000000000000000, 0.000000000000000000, 0.000000000000000000, 0.000000000000000000, 0.000000000000000000 ) ;
#21 = EDGE_CURVE ( 'NONE', #34, #117, #161, .T. ) ;
#22 = AXIS2_PLACEMENT_3D ( 'NONE', #275, #57, #107 ) ;
#23 = PLANE ( 'NONE',  #111 ) ;
#24 = DIRECTION ( 'NONE',  ( 0.000000000000000000, 1.000000000000000000, 0.000000000000000000 ) ) ;
#25 = ORIENTED_EDGE ( 'NONE', *, *, #153, .F. ) ;
#26 = AXIS2_PLACEMENT_3D ( 'NONE', #126, #9, #271 ) ;
#27 = COLOUR_RGB ( '',0.7921568627450980005, 0.8196078431372548767, 0.9333333333333333481 ) ;
#28 = SURFACE_STYLE_FILL_AREA ( #71 ) ;
#29 = PLANE ( 'NONE',  #108 ) ;
#30 = CARTESIAN_POINT ( 'NONE',  ( 0.1875000000000000278, 5.000000000000000000, 0.000000000000000000 ) ) ;
#31 = CIRCLE ( 'NONE', #233, 0.1875000000000000278 ) ;
#32 = PRESENTATION_LAYER_ASSIGNMENT (  '', '', ( #297 ) ) ;
#33 = SURFACE_STYLE_FILL_AREA ( #180 ) ;
#34 = VERTEX_POINT ( 'NONE', #84 ) ;
#35 = ORIENTED_EDGE ( 'NONE', *, *, #253, .F. ) ;
#36 = CARTESIAN_POINT ( 'NONE',  ( -1.224646799147353207E-16, 5.000000000000000000, 0.000000000000000000 ) ) ;
#37 =( CONVERSION_BASED_UNIT ( 'INCH', #88 ) LENGTH_UNIT ( ) NAMED_UNIT ( #306 ) );
#38 = EDGE_LOOP ( 'NONE', ( #35, #157 ) ) ;
#39 = AXIS2_PLACEMENT_3D ( 'NONE', #262, #142, #166 ) ;
#40 = EDGE_LOOP ( 'NONE', ( #264, #129, #274, #132 ) ) ;
#41 = DIMENSIONAL_EXPONENTS ( 1.000000000000000000, 0.000000000000000000, 0.000000000000000000, 0.000000000000000000, 0.000000000000000000, 0.000000000000000000, 0.000000000000000000 ) ;
#42 = CLOSED_SHELL ( 'NONE', ( #15, #65, #230, #206 ) ) ;
#43 = DIRECTION ( 'NONE',  ( 0.000000000000000000, 0.000000000000000000, -1.000000000000000000 ) ) ;
#44 = EDGE_CURVE ( 'NONE', #117, #154, #31, .T. ) ;
#45 = EDGE_CURVE ( 'NONE', #282, #160, #151, .T. ) ;
#46 = SURFACE_STYLE_USAGE ( .BOTH. , #140 ) ;
#47 = CARTESIAN_POINT ( 'NONE',  ( 2.249639673992786583E-34, 2.500000000000000000, 0.000000000000000000 ) ) ;
#48 = UNCERTAINTY_MEASURE_WITH_UNIT (LENGTH_MEASURE( 1.000000000000000082E-05 ), #37, 'distance_accuracy_value', 'NONE');
#49 = CIRCLE ( 'NONE', #39, 0.1875000000000000278 ) ;
#50 = FILL_AREA_STYLE ('',( #260 ) ) ;
#51 = CARTESIAN_POINT ( 'NONE',  ( 0.000000000000000000, 0.000000000000000000, 0.000000000000000000 ) ) ;
#52 = CARTESIAN_POINT ( 'NONE',  ( 0.000000000000000000, 0.000000000000000000, -0.1875000000000000278 ) ) ;
#53 = UNCERTAINTY_MEASURE_WITH_UNIT (LENGTH_MEASURE( 1.000000000000000082E-05 ), #241, 'distance_accuracy_value', 'NONE');
#54 = FACE_OUTER_BOUND ( 'NONE', #185, .T. ) ;
#55 = FILL_AREA_STYLE_COLOUR ( '', #27 ) ;
#56 = ORIENTED_EDGE ( 'NONE', *, *, #181, .F. ) ;
#57 = DIRECTION ( 'NONE',  ( 0.000000000000000000, 0.000000000000000000, 1.000000000000000000 ) ) ;
#58 = DIRECTION ( 'NONE',  ( 0.000000000000000000, 0.000000000000000000, -1.000000000000000000 ) ) ;
#59 = COLOUR_RGB ( '',1.000000000000000000, 0.000000000000000000, 0.000000000000000000 ) ;
#60 = CARTESIAN_POINT ( 'NONE',  ( -0.1875000000000002220, 5.000000000000000000, 0.000000000000000000 ) ) ;
#61 =( NAMED_UNIT ( * ) PLANE_ANGLE_UNIT ( ) SI_UNIT ( $, .RADIAN. ) );
#62 = VECTOR ( 'NONE', #147, 39.37007874015748143 ) ;
#63 = APPLICATION_CONTEXT ( 'automotive_design' ) ;
#64 = EDGE_CURVE ( 'NONE', #282, #87, #202, .T. ) ;
#65 = ADVANCED_FACE ( 'NONE', ( #254 ), #23, .F. ) ;
#66 = SURFACE_SIDE_STYLE ('',( #213 ) ) ;
#67 = CYLINDRICAL_SURFACE ( 'NONE', #123, 0.1875000000000000278 ) ;
#68 = STYLED_ITEM ( 'NONE', ( #98 ), #99 ) ;
#69 = AXIS2_PLACEMENT_3D ( 'NONE', #91, #144, #165 ) ;
#70 = PRESENTATION_STYLE_ASSIGNMENT (( #46 ) ) ;
#71 = FILL_AREA_STYLE ('',( #267 ) ) ;
#72 = CARTESIAN_POINT ( 'NONE',  ( 0.000000000000000000, 2.500000000000000000, 0.000000000000000000 ) ) ;
#73 = LENGTH_MEASURE_WITH_UNIT ( LENGTH_MEASURE( 0.02539999999999999897 ), #247 );
#74 = COLOUR_RGB ( '',1.000000000000000000, 0.000000000000000000, 0.000000000000000000 ) ;
#75 = MECHANICAL_DESIGN_GEOMETRIC_PRESENTATION_REPRESENTATION (  '', ( #141 ), #169 ) ;
#76 = DIRECTION ( 'NONE',  ( 4.898587196589412459E-17, -1.000000000000000000, 0.000000000000000000 ) ) ;
#77 = LINE ( 'NONE', #148, #4 ) ;
#78 = LENGTH_MEASURE_WITH_UNIT ( LENGTH_MEASURE( 0.02539999999999999897 ), #95 );
#79 = UNCERTAINTY_MEASURE_WITH_UNIT (LENGTH_MEASURE( 1.000000000000000082E-05 ), #122, 'distance_accuracy_value', 'NONE');
#80 = VERTEX_POINT ( 'NONE', #92 ) ;
#81 = PRESENTATION_STYLE_ASSIGNMENT (( #130 ) ) ;
#82 = DIRECTION ( 'NONE',  ( -0.000000000000000000, -1.000000000000000000, -0.000000000000000000 ) ) ;
#83 = EDGE_LOOP ( 'NONE', ( #307, #203 ) ) ;
#84 = CARTESIAN_POINT ( 'NONE',  ( 2.296212748401287726E-17, 2.500000000000000000, 0.1875000000000000278 ) ) ;
#85 = EDGE_LOOP ( 'NONE', ( #235, #11, #155, #56 ) ) ;
#86 = SURFACE_STYLE_USAGE ( .BOTH. , #66 ) ;
#87 = VERTEX_POINT ( 'NONE', #193 ) ;
#88 = LENGTH_MEASURE_WITH_UNIT ( LENGTH_MEASURE( 0.02539999999999999897 ), #115 );
#89 = COLOUR_RGB ( '',1.000000000000000000, 0.000000000000000000, 0.000000000000000000 ) ;
#90 = SURFACE_STYLE_FILL_AREA ( #120 ) ;
#91 = CARTESIAN_POINT ( 'NONE',  ( 0.000000000000000000, 0.000000000000000000, 0.000000000000000000 ) ) ;
#92 = CARTESIAN_POINT ( 'NONE',  ( 0.000000000000000000, 2.500000000000000000, -0.1875000000000000278 ) ) ;
#93 = FILL_AREA_STYLE_COLOUR ( '', #89 ) ;
#94 = COLOUR_RGB ( '',0.7921568627450980005, 0.8196078431372548767, 0.9333333333333333481 ) ;
#95 =( LENGTH_UNIT ( ) NAMED_UNIT ( * ) SI_UNIT ( $, .METRE. ) );
#96 = DIRECTION ( 'NONE',  ( -4.898587196589413075E-17, 1.000000000000000000, -0.000000000000000000 ) ) ;
#97 = APPLICATION_CONTEXT ( 'automotive_design' ) ;
#98 = PRESENTATION_STYLE_ASSIGNMENT (( #121 ) ) ;
#99 = ADVANCED_FACE ( 'NONE', ( #289 ), #67, .T. ) ;
#100 = PRODUCT_RELATED_PRODUCT_CATEGORY ( 'part', '', ( #251 ) ) ;
#101 = DIRECTION ( 'NONE',  ( 1.000000000000000000, 4.898587196589412459E-17, 0.000000000000000000 ) ) ;
#102 = COLOUR_RGB ( '',1.000000000000000000, 0.000000000000000000, 0.000000000000000000 ) ;
#103 = FILL_AREA_STYLE_COLOUR ( '', #74 ) ;
#104 = LENGTH_MEASURE_WITH_UNIT ( LENGTH_MEASURE( 0.02539999999999999897 ), #174 );
#105 = ORIENTED_EDGE ( 'NONE', *, *, #245, .F. ) ;
#106 =( NAMED_UNIT ( * ) SI_UNIT ( $, .STERADIAN. ) SOLID_ANGLE_UNIT ( ) );
#107 = DIRECTION ( 'NONE',  ( 1.000000000000000000, 0.000000000000000000, 0.000000000000000000 ) ) ;
#108 = AXIS2_PLACEMENT_3D ( 'NONE', #30, #76, #101 ) ;
#109 = DIMENSIONAL_EXPONENTS ( 1.000000000000000000, 0.000000000000000000, 0.000000000000000000, 0.000000000000000000, 0.000000000000000000, 0.000000000000000000, 0.000000000000000000 ) ;
#110 = EDGE_CURVE ( 'NONE', #87, #219, #158, .T. ) ;
#111 = AXIS2_PLACEMENT_3D ( 'NONE', #47, #19, #139 ) ;
#112 = PRESENTATION_LAYER_ASSIGNMENT (  '', '', ( #125 ) ) ;
#113 =( NAMED_UNIT ( * ) SI_UNIT ( $, .STERADIAN. ) SOLID_ANGLE_UNIT ( ) );
#114 = CYLINDRICAL_SURFACE ( 'NONE', #69, 0.1875000000000000278 ) ;
#115 =( LENGTH_UNIT ( ) NAMED_UNIT ( * ) SI_UNIT ( $, .METRE. ) );
#116 = PLANE ( 'NONE',  #278 ) ;
#117 = VERTEX_POINT ( 'NONE', #145 ) ;
#118 = AXIS2_PLACEMENT_3D ( 'NONE', #190, #285, #214 ) ;
#119 = DIRECTION ( 'NONE',  ( -0.000000000000000000, -1.000000000000000000, -0.000000000000000000 ) ) ;
#120 = FILL_AREA_STYLE ('',( #211 ) ) ;
#121 = SURFACE_STYLE_USAGE ( .BOTH. , #236 ) ;
#122 =( CONVERSION_BASED_UNIT ( 'INCH', #78 ) LENGTH_UNIT ( ) NAMED_UNIT ( #109 ) );
#123 = AXIS2_PLACEMENT_3D ( 'NONE', #51, #265, #178 ) ;
#124 = UNCERTAINTY_MEASURE_WITH_UNIT (LENGTH_MEASURE( 1.000000000000000082E-05 ), #14, 'distance_accuracy_value', 'NONE');
#125 = STYLED_ITEM ( 'NONE', ( #170 ), #210 ) ;
#126 = CARTESIAN_POINT ( 'NONE',  ( -1.224646799147353207E-16, 5.000000000000000000, 0.000000000000000000 ) ) ;
#127 = EDGE_CURVE ( 'NONE', #34, #80, #303, .T. ) ;
#128 = LENGTH_MEASURE_WITH_UNIT ( LENGTH_MEASURE( 0.02539999999999999897 ), #12 );
#129 = ORIENTED_EDGE ( 'NONE', *, *, #127, .T. ) ;
#130 = SURFACE_STYLE_USAGE ( .BOTH. , #150 ) ;
#131 =( GEOMETRIC_REPRESENTATION_CONTEXT ( 3 ) GLOBAL_UNCERTAINTY_ASSIGNED_CONTEXT ( ( #124 ) ) GLOBAL_UNIT_ASSIGNED_CONTEXT ( ( #14, #281, #113 ) ) REPRESENTATION_CONTEXT ( 'NONE', 'WORKASPACE' ) );
#132 = ORIENTED_EDGE ( 'NONE', *, *, #44, .F. ) ;
#133 = CARTESIAN_POINT ( 'NONE',  ( 0.000000000000000000, 0.000000000000000000, 0.000000000000000000 ) ) ;
#134 =( LENGTH_UNIT ( ) NAMED_UNIT ( * ) SI_UNIT ( $, .METRE. ) );
#135 =( GEOMETRIC_REPRESENTATION_CONTEXT ( 3 ) GLOBAL_UNCERTAINTY_ASSIGNED_CONTEXT ( ( #79 ) ) GLOBAL_UNIT_ASSIGNED_CONTEXT ( ( #122, #218, #197 ) ) REPRESENTATION_CONTEXT ( 'NONE', 'WORKASPACE' ) );
#136 =( LENGTH_UNIT ( ) NAMED_UNIT ( * ) SI_UNIT ( $, .METRE. ) );
#137 = ORIENTED_EDGE ( 'NONE', *, *, #45, .F. ) ;
#138 = LENGTH_MEASURE_WITH_UNIT ( LENGTH_MEASURE( 0.02539999999999999897 ), #136 );
#139 = DIRECTION ( 'NONE',  ( -1.000000000000000000, -4.898587196589412459E-17, 0.000000000000000000 ) ) ;
#140 = SURFACE_SIDE_STYLE ('',( #90 ) ) ;
#141 = STYLED_ITEM ( 'NONE', ( #224 ), #287 ) ;
#142 = DIRECTION ( 'NONE',  ( -4.898587196589413075E-17, 1.000000000000000000, -0.000000000000000000 ) ) ;
#143 = SURFACE_STYLE_FILL_AREA ( #50 ) ;
#144 = DIRECTION ( 'NONE',  ( -0.000000000000000000, -1.000000000000000000, -0.000000000000000000 ) ) ;
#145 = CARTESIAN_POINT ( 'NONE',  ( 2.296212748401287726E-17, 0.000000000000000000, 0.1875000000000000278 ) ) ;
#146 = PRESENTATION_LAYER_ASSIGNMENT (  '', '', ( #284 ) ) ;
#147 = DIRECTION ( 'NONE',  ( -0.000000000000000000, -1.000000000000000000, -0.000000000000000000 ) ) ;
#148 = CARTESIAN_POINT ( 'NONE',  ( 0.1874999999999999445, 5.000000000000000000, 2.296212748401288342E-17 ) ) ;
#149 = CARTESIAN_POINT ( 'NONE',  ( 0.000000000000000000, 2.500000000000000000, 0.000000000000000000 ) ) ;
#150 = SURFACE_SIDE_STYLE ('',( #33 ) ) ;
#151 = CIRCLE ( 'NONE', #205, 0.1875000000000000278 ) ;
#152 =( GEOMETRIC_REPRESENTATION_CONTEXT ( 3 ) GLOBAL_UNCERTAINTY_ASSIGNED_CONTEXT ( ( #266 ) ) GLOBAL_UNIT_ASSIGNED_CONTEXT ( ( #238, #294, #173 ) ) REPRESENTATION_CONTEXT ( 'NONE', 'WORKASPACE' ) );
#153 = EDGE_CURVE ( 'NONE', #219, #87, #163, .T. ) ;
#154 = VERTEX_POINT ( 'NONE', #175 ) ;
#155 = ORIENTED_EDGE ( 'NONE', *, *, #261, .F. ) ;
#156 = PRODUCT_DEFINITION ( 'UNKNOWN', '', #304, #244 ) ;
#157 = ORIENTED_EDGE ( 'NONE', *, *, #127, .F. ) ;
#158 = CIRCLE ( 'NONE', #255, 0.1875000000000001388 ) ;
#159 = DIRECTION ( 'NONE',  ( -4.898587196589412459E-17, 1.000000000000000000, -0.000000000000000000 ) ) ;
#160 = VERTEX_POINT ( 'NONE', #298 ) ;
#161 = LINE ( 'NONE', #308, #3 ) ;
#162 =( NAMED_UNIT ( * ) SI_UNIT ( $, .STERADIAN. ) SOLID_ANGLE_UNIT ( ) );
#163 = CIRCLE ( 'NONE', #26, 0.1875000000000001388 ) ;
#164 = CIRCLE ( 'NONE', #223, 0.1875000000000000278 ) ;
#165 = DIRECTION ( 'NONE',  ( 0.000000000000000000, 0.000000000000000000, -1.000000000000000000 ) ) ;
#166 = DIRECTION ( 'NONE',  ( -1.000000000000000000, 0.000000000000000000, 0.000000000000000000 ) ) ;
#167 = ORIENTED_EDGE ( 'NONE', *, *, #290, .T. ) ;
#168 = DIRECTION ( 'NONE',  ( 0.000000000000000000, 0.000000000000000000, -1.000000000000000000 ) ) ;
#169 =( GEOMETRIC_REPRESENTATION_CONTEXT ( 3 ) GLOBAL_UNCERTAINTY_ASSIGNED_CONTEXT ( ( #53 ) ) GLOBAL_UNIT_ASSIGNED_CONTEXT ( ( #241, #221, #272 ) ) REPRESENTATION_CONTEXT ( 'NONE', 'WORKASPACE' ) );
#170 = PRESENTATION_STYLE_ASSIGNMENT (( #86 ) ) ;
#171 = UNCERTAINTY_MEASURE_WITH_UNIT (LENGTH_MEASURE( 1.000000000000000082E-05 ), #300, 'distance_accuracy_value', 'NONE');
#172 = CYLINDRICAL_SURFACE ( 'NONE', #252, 0.1875000000000000833 ) ;
#173 =( NAMED_UNIT ( * ) SI_UNIT ( $, .STERADIAN. ) SOLID_ANGLE_UNIT ( ) );
#174 =( LENGTH_UNIT ( ) NAMED_UNIT ( * ) SI_UNIT ( $, .METRE. ) );
#175 = CARTESIAN_POINT ( 'NONE',  ( 0.000000000000000000, 0.000000000000000000, -0.1875000000000000278 ) ) ;
#176 =( GEOMETRIC_REPRESENTATION_CONTEXT ( 3 ) GLOBAL_UNCERTAINTY_ASSIGNED_CONTEXT ( ( #48 ) ) GLOBAL_UNIT_ASSIGNED_CONTEXT ( ( #37, #283, #162 ) ) REPRESENTATION_CONTEXT ( 'NONE', 'WORKASPACE' ) );
#177 = CARTESIAN_POINT ( 'NONE',  ( -0.1875000000000000278, 2.500000000000000000, 0.000000000000000000 ) ) ;
#178 = DIRECTION ( 'NONE',  ( 0.000000000000000000, 0.000000000000000000, -1.000000000000000000 ) ) ;
#179 = FILL_AREA_STYLE ('',( #55 ) ) ;
#180 = FILL_AREA_STYLE ('',( #103 ) ) ;
#181 = EDGE_CURVE ( 'NONE', #80, #154, #198, .T. ) ;
#182 =( NAMED_UNIT ( * ) PLANE_ANGLE_UNIT ( ) SI_UNIT ( $, .RADIAN. ) );
#183 = VECTOR ( 'NONE', #159, 39.37007874015748143 ) ;
#184 = DIMENSIONAL_EXPONENTS ( 1.000000000000000000, 0.000000000000000000, 0.000000000000000000, 0.000000000000000000, 0.000000000000000000, 0.000000000000000000, 0.000000000000000000 ) ;
#185 = EDGE_LOOP ( 'NONE', ( #229, #225 ) ) ;
#186 = DIRECTION ( 'NONE',  ( -0.000000000000000000, -1.000000000000000000, -0.000000000000000000 ) ) ;
#187 = EDGE_LOOP ( 'NONE', ( #249, #167, #273, #6 ) ) ;
#188 = MECHANICAL_DESIGN_GEOMETRIC_PRESENTATION_REPRESENTATION (  '', ( #125 ), #195 ) ;
#189 =( CONVERSION_BASED_UNIT ( 'INCH', #138 ) LENGTH_UNIT ( ) NAMED_UNIT ( #20 ) );
#190 = CARTESIAN_POINT ( 'NONE',  ( -1.224646799147353207E-16, 5.000000000000000000, 0.000000000000000000 ) ) ;
#191 = MECHANICAL_DESIGN_GEOMETRIC_PRESENTATION_REPRESENTATION (  '', ( #269 ), #152 ) ;
#192 = CARTESIAN_POINT ( 'NONE',  ( 0.000000000000000000, 0.000000000000000000, 0.000000000000000000 ) ) ;
#193 = CARTESIAN_POINT ( 'NONE',  ( -0.1875000000000002776, 5.000000000000000000, 0.000000000000000000 ) ) ;
#194 = CYLINDRICAL_SURFACE ( 'NONE', #118, 0.1875000000000000833 ) ;
#195 =( GEOMETRIC_REPRESENTATION_CONTEXT ( 3 ) GLOBAL_UNCERTAINTY_ASSIGNED_CONTEXT ( ( #201 ) ) GLOBAL_UNIT_ASSIGNED_CONTEXT ( ( #189, #61, #231 ) ) REPRESENTATION_CONTEXT ( 'NONE', 'WORKASPACE' ) );
#196 = DIRECTION ( 'NONE',  ( -1.000000000000000000, 0.000000000000000000, 0.000000000000000000 ) ) ;
#197 =( NAMED_UNIT ( * ) SI_UNIT ( $, .STERADIAN. ) SOLID_ANGLE_UNIT ( ) );
#198 = LINE ( 'NONE', #52, #62 ) ;
#199 = MECHANICAL_DESIGN_GEOMETRIC_PRESENTATION_REPRESENTATION (  '', ( #297 ), #135 ) ;
#200 = SURFACE_STYLE_USAGE ( .BOTH. , #263 ) ;
#201 = UNCERTAINTY_MEASURE_WITH_UNIT (LENGTH_MEASURE( 1.000000000000000082E-05 ), #189, 'distance_accuracy_value', 'NONE');
#202 = LINE ( 'NONE', #60, #183 ) ;
#203 = ORIENTED_EDGE ( 'NONE', *, *, #153, .T. ) ;
#204 = DIMENSIONAL_EXPONENTS ( 1.000000000000000000, 0.000000000000000000, 0.000000000000000000, 0.000000000000000000, 0.000000000000000000, 0.000000000000000000, 0.000000000000000000 ) ;
#205 = AXIS2_PLACEMENT_3D ( 'NONE', #16, #276, #277 ) ;
#206 = ADVANCED_FACE ( 'NONE', ( #243 ), #29, .F. ) ;
#207 = PRODUCT_CONTEXT ( 'NONE', #63, 'mechanical' ) ;
#208 = CARTESIAN_POINT ( 'NONE',  ( 0.1875000000000000278, 5.000000000000000000, 2.296212748401288650E-17 ) ) ;
#209 = ADVANCED_FACE ( 'NONE', ( #54 ), #309, .T. ) ;
#210 = ADVANCED_FACE ( 'NONE', ( #237 ), #114, .T. ) ;
#211 = FILL_AREA_STYLE_COLOUR ( '', #102 ) ;
#212 = AXIS2_PLACEMENT_3D ( 'NONE', #72, #240, #220 ) ;
#213 = SURFACE_STYLE_FILL_AREA ( #256 ) ;
#214 = DIRECTION ( 'NONE',  ( -1.000000000000000000, 0.000000000000000000, 0.000000000000000000 ) ) ;
#215 =( GEOMETRIC_REPRESENTATION_CONTEXT ( 3 ) GLOBAL_UNCERTAINTY_ASSIGNED_CONTEXT ( ( #171 ) ) GLOBAL_UNIT_ASSIGNED_CONTEXT ( ( #300, #182, #106 ) ) REPRESENTATION_CONTEXT ( 'NONE', 'WORKASPACE' ) );
#216 = PRESENTATION_LAYER_ASSIGNMENT (  '', '', ( #269 ) ) ;
#217 = DIRECTION ( 'NONE',  ( -4.898587196589413075E-17, 1.000000000000000000, -0.000000000000000000 ) ) ;
#218 =( NAMED_UNIT ( * ) PLANE_ANGLE_UNIT ( ) SI_UNIT ( $, .RADIAN. ) );
#219 = VERTEX_POINT ( 'NONE', #208 ) ;
#220 = DIRECTION ( 'NONE',  ( 0.000000000000000000, 0.000000000000000000, -1.000000000000000000 ) ) ;
#221 =( NAMED_UNIT ( * ) PLANE_ANGLE_UNIT ( ) SI_UNIT ( $, .RADIAN. ) );
#222 = SURFACE_STYLE_FILL_AREA ( #179 ) ;
#223 = AXIS2_PLACEMENT_3D ( 'NONE', #257, #291, #43 ) ;
#224 = PRESENTATION_STYLE_ASSIGNMENT (( #270 ) ) ;
#225 = ORIENTED_EDGE ( 'NONE', *, *, #44, .T. ) ;
#226 = CLOSED_SHELL ( 'NONE', ( #210, #268, #99, #209 ) ) ;
#227 = AXIS2_PLACEMENT_3D ( 'NONE', #192, #234, #168 ) ;
#228 = ORIENTED_EDGE ( 'NONE', *, *, #245, .T. ) ;
#229 = ORIENTED_EDGE ( 'NONE', *, *, #261, .T. ) ;
#230 = ADVANCED_FACE ( 'NONE', ( #1 ), #194, .T. ) ;
#231 =( NAMED_UNIT ( * ) SI_UNIT ( $, .STERADIAN. ) SOLID_ANGLE_UNIT ( ) );
#232 = FACE_OUTER_BOUND ( 'NONE', #38, .T. ) ;
#233 = AXIS2_PLACEMENT_3D ( 'NONE', #133, #186, #58 ) ;
#234 = DIRECTION ( 'NONE',  ( 0.000000000000000000, -1.000000000000000000, -0.000000000000000000 ) ) ;
#235 = ORIENTED_EDGE ( 'NONE', *, *, #253, .T. ) ;
#236 = SURFACE_SIDE_STYLE ('',( #143 ) ) ;
#237 = FACE_OUTER_BOUND ( 'NONE', #85, .T. ) ;
#238 =( CONVERSION_BASED_UNIT ( 'INCH', #104 ) LENGTH_UNIT ( ) NAMED_UNIT ( #184 ) );
#239 = EDGE_LOOP ( 'NONE', ( #137, #105 ) ) ;
#240 = DIRECTION ( 'NONE',  ( -0.000000000000000000, -1.000000000000000000, -0.000000000000000000 ) ) ;
#241 =( CONVERSION_BASED_UNIT ( 'INCH', #73 ) LENGTH_UNIT ( ) NAMED_UNIT ( #41 ) );
#242 = FACE_OUTER_BOUND ( 'NONE', #187, .T. ) ;
#243 = FACE_OUTER_BOUND ( 'NONE', #83, .T. ) ;
#244 = PRODUCT_DEFINITION_CONTEXT ( 'detailed design', #97, 'design' ) ;
#245 = EDGE_CURVE ( 'NONE', #160, #282, #49, .T. ) ;
#246 = DIRECTION ( 'NONE',  ( -4.898587196589412459E-17, 1.000000000000000000, -0.000000000000000000 ) ) ;
#247 =( LENGTH_UNIT ( ) NAMED_UNIT ( * ) SI_UNIT ( $, .METRE. ) );
#248 = CIRCLE ( 'NONE', #293, 0.1875000000000000278 ) ;
#249 = ORIENTED_EDGE ( 'NONE', *, *, #45, .T. ) ;
#250 = APPLICATION_PROTOCOL_DEFINITION ( 'draft international standard', 'automotive_design', 1998, #97 ) ;
#251 = PRODUCT ( '86068', '86068', '', ( #207 ) ) ;
#252 = AXIS2_PLACEMENT_3D ( 'NONE', #36, #96, #196 ) ;
#253 = EDGE_CURVE ( 'NONE', #80, #34, #248, .T. ) ;
#254 = FACE_OUTER_BOUND ( 'NONE', #239, .T. ) ;
#255 = AXIS2_PLACEMENT_3D ( 'NONE', #10, #217, #8 ) ;
#256 = FILL_AREA_STYLE ('',( #93 ) ) ;
#257 = CARTESIAN_POINT ( 'NONE',  ( 0.000000000000000000, 0.000000000000000000, 0.000000000000000000 ) ) ;
#258 = DIRECTION ( 'NONE',  ( 0.000000000000000000, 0.000000000000000000, -1.000000000000000000 ) ) ;
#259 = PRESENTATION_LAYER_ASSIGNMENT (  '', '', ( #141 ) ) ;
#260 = FILL_AREA_STYLE_COLOUR ( '', #59 ) ;
#261 = EDGE_CURVE ( 'NONE', #154, #117, #164, .T. ) ;
#262 = CARTESIAN_POINT ( 'NONE',  ( 1.516480271171051896E-32, 2.500000000000000000, 0.000000000000000000 ) ) ;
#263 = SURFACE_SIDE_STYLE ('',( #222 ) ) ;
#264 = ORIENTED_EDGE ( 'NONE', *, *, #21, .F. ) ;
#265 = DIRECTION ( 'NONE',  ( -0.000000000000000000, -1.000000000000000000, -0.000000000000000000 ) ) ;
#266 = UNCERTAINTY_MEASURE_WITH_UNIT (LENGTH_MEASURE( 1.000000000000000082E-05 ), #238, 'distance_accuracy_value', 'NONE');
#267 = FILL_AREA_STYLE_COLOUR ( '', #94 ) ;
#268 = ADVANCED_FACE ( 'NONE', ( #232 ), #116, .T. ) ;
#269 = STYLED_ITEM ( 'NONE', ( #70 ), #268 ) ;
#270 = SURFACE_STYLE_USAGE ( .BOTH. , #295 ) ;
#271 = DIRECTION ( 'NONE',  ( -1.000000000000000000, 0.000000000000000000, 0.000000000000000000 ) ) ;
#272 =( NAMED_UNIT ( * ) SI_UNIT ( $, .STERADIAN. ) SOLID_ANGLE_UNIT ( ) );
#273 = ORIENTED_EDGE ( 'NONE', *, *, #110, .F. ) ;
#274 = ORIENTED_EDGE ( 'NONE', *, *, #181, .T. ) ;
#275 = CARTESIAN_POINT ( 'NONE',  ( 0.000000000000000000, 0.000000000000000000, 0.000000000000000000 ) ) ;
#276 = DIRECTION ( 'NONE',  ( -4.898587196589413075E-17, 1.000000000000000000, -0.000000000000000000 ) ) ;
#277 = DIRECTION ( 'NONE',  ( -1.000000000000000000, 0.000000000000000000, 0.000000000000000000 ) ) ;
#278 = AXIS2_PLACEMENT_3D ( 'NONE', #149, #24, #299 ) ;
#279 = LENGTH_MEASURE_WITH_UNIT ( LENGTH_MEASURE( 0.02539999999999999897 ), #134 );
#280 = EDGE_LOOP ( 'NONE', ( #305, #228, #288, #25 ) ) ;
#281 =( NAMED_UNIT ( * ) PLANE_ANGLE_UNIT ( ) SI_UNIT ( $, .RADIAN. ) );
#282 = VERTEX_POINT ( 'NONE', #177 ) ;
#283 =( NAMED_UNIT ( * ) PLANE_ANGLE_UNIT ( ) SI_UNIT ( $, .RADIAN. ) );
#284 = STYLED_ITEM ( 'NONE', ( #81 ), #209 ) ;
#285 = DIRECTION ( 'NONE',  ( -4.898587196589413075E-17, 1.000000000000000000, -0.000000000000000000 ) ) ;
#286 = SHAPE_DEFINITION_REPRESENTATION ( #302, #7 ) ;
#287 = MANIFOLD_SOLID_BREP ( 'Revolve - Cutting Edge', #226 ) ;
#288 = ORIENTED_EDGE ( 'NONE', *, *, #64, .T. ) ;
#289 = FACE_OUTER_BOUND ( 'NONE', #40, .T. ) ;
#290 = EDGE_CURVE ( 'NONE', #160, #219, #77, .T. ) ;
#291 = DIRECTION ( 'NONE',  ( -0.000000000000000000, -1.000000000000000000, -0.000000000000000000 ) ) ;
#292 = PRESENTATION_LAYER_ASSIGNMENT (  '', '', ( #68 ) ) ;
#293 = AXIS2_PLACEMENT_3D ( 'NONE', #5, #119, #258 ) ;
#294 =( NAMED_UNIT ( * ) PLANE_ANGLE_UNIT ( ) SI_UNIT ( $, .RADIAN. ) );
#295 = SURFACE_SIDE_STYLE ('',( #28 ) ) ;
#296 = MANIFOLD_SOLID_BREP ( 'Revolve - Tool Body (Straight Shanked)', #42 ) ;
#297 = STYLED_ITEM ( 'NONE', ( #301 ), #296 ) ;
#298 = CARTESIAN_POINT ( 'NONE',  ( 0.1875000000000000278, 2.500000000000000000, 2.296212748401288650E-17 ) ) ;
#299 = DIRECTION ( 'NONE',  ( 0.000000000000000000, -0.000000000000000000, 1.000000000000000000 ) ) ;
#300 =( CONVERSION_BASED_UNIT ( 'INCH', #128 ) LENGTH_UNIT ( ) NAMED_UNIT ( #204 ) );
#301 = PRESENTATION_STYLE_ASSIGNMENT (( #200 ) ) ;
#302 = PRODUCT_DEFINITION_SHAPE ( 'NONE', 'NONE',  #156 ) ;
#303 = CIRCLE ( 'NONE', #212, 0.1875000000000000278 ) ;
#304 = PRODUCT_DEFINITION_FORMATION_WITH_SPECIFIED_SOURCE ( 'ANY', '', #251, .NOT_KNOWN. ) ;
#305 = ORIENTED_EDGE ( 'NONE', *, *, #290, .F. ) ;
#306 = DIMENSIONAL_EXPONENTS ( 1.000000000000000000, 0.000000000000000000, 0.000000000000000000, 0.000000000000000000, 0.000000000000000000, 0.000000000000000000, 0.000000000000000000 ) ;
#307 = ORIENTED_EDGE ( 'NONE', *, *, #110, .T. ) ;
#308 = CARTESIAN_POINT ( 'NONE',  ( 2.296212748401287726E-17, 0.000000000000000000, 0.1875000000000000278 ) ) ;
#309 = PLANE ( 'NONE',  #227 ) ;
ENDSEC;
END-ISO-10303-21;
