ISO-10303-21;
HEADER;
FILE_DESCRIPTION (( 'STEP AP214' ),
    '1' );
FILE_NAME ('Micro_RME-025-2X.STEP',
    '2021-09-01T22:59:51',
    ( '' ),
    ( '' ),
    'SwSTEP 2.0',
    'SolidWorks 2020',
    '' );
FILE_SCHEMA (( 'AUTOMOTIVE_DESIGN' ));
ENDSEC;

DATA;
#1 = ORIENTED_EDGE ( 'NONE', *, *, #20, .F. ) ;
#2 = AXIS2_PLACEMENT_3D ( 'NONE', #261, #257, #51 ) ;
#3 = CIRCLE ( 'NONE', #192, 0.04750000000000064587 ) ;
#4 = DIRECTION ( 'NONE',  ( -1.000000000000000000, 0.0000000000000000000, 1.224646799147353454E-16 ) ) ;
#5 = CARTESIAN_POINT ( 'NONE',  ( 9.184850993605148746E-18, 0.0000000000000000000, 0.07499999999999999722 ) ) ;
#6 = ORIENTED_EDGE ( 'NONE', *, *, #203, .T. ) ;
#7 = APPLICATION_CONTEXT ( 'automotive_design' ) ;
#8 = DIRECTION ( 'NONE',  ( -0.7071067811865462405, 0.0000000000000000000, -0.7071067811865486830 ) ) ;
#9 = ORIENTED_EDGE ( 'NONE', *, *, #236, .F. ) ;
#10 = CIRCLE ( 'NONE', #199, 0.06250000000000002776 ) ;
#11 = MECHANICAL_DESIGN_GEOMETRIC_PRESENTATION_REPRESENTATION (  '', ( #183 ), #61 ) ;
#12 = VERTEX_POINT ( 'NONE', #228 ) ;
#13 = DIRECTION ( 'NONE',  ( 0.0000000000000000000, 0.0000000000000000000, 1.000000000000000000 ) ) ;
#14 = CARTESIAN_POINT ( 'NONE',  ( 0.0000000000000000000, 0.0000000000000000000, 1.500000000000000222 ) ) ;
#15 = DIRECTION ( 'NONE',  ( -0.0000000000000000000, -0.0000000000000000000, -1.000000000000000000 ) ) ;
#16 = CARTESIAN_POINT ( 'NONE',  ( 0.01248750000000000034, 1.529277690435257475E-18, 0.0000000000000000000 ) ) ;
#17 = VECTOR ( 'NONE', #50, 39.37007874015748143 ) ;
#18 = ORIENTED_EDGE ( 'NONE', *, *, #35, .T. ) ;
#19 = LENGTH_MEASURE_WITH_UNIT ( LENGTH_MEASURE( 0.02539999999999999897 ), #186 );
#20 = EDGE_CURVE ( 'NONE', #29, #172, #39, .T. ) ;
#21 = FACE_OUTER_BOUND ( 'NONE', #128, .T. ) ;
#22 = SURFACE_STYLE_FILL_AREA ( #44 ) ;
#23 = AXIS2_PLACEMENT_3D ( 'NONE', #276, #297, #189 ) ;
#24 = AXIS2_PLACEMENT_3D ( 'NONE', #41, #133, #163 ) ;
#25 = PRODUCT_DEFINITION_FORMATION_WITH_SPECIFIED_SOURCE ( 'ANY', '', #295, .NOT_KNOWN. ) ;
#26 = DIRECTION ( 'NONE',  ( 1.000000000000000000, 0.0000000000000000000, 0.0000000000000000000 ) ) ;
#27 = CYLINDRICAL_SURFACE ( 'NONE', #271, 0.01248750000000000034 ) ;
#28 = DIRECTION ( 'NONE',  ( -1.224646799147353454E-16, -0.0000000000000000000, -1.000000000000000000 ) ) ;
#29 = VERTEX_POINT ( 'NONE', #86 ) ;
#30 = EDGE_LOOP ( 'NONE', ( #1, #111, #242, #36 ) ) ;
#31 = AXIS2_PLACEMENT_3D ( 'NONE', #123, #100, #169 ) ;
#32 = DIRECTION ( 'NONE',  ( 0.1736481776669313859, 0.0000000000000000000, 0.9848077530122077983 ) ) ;
#33 = ORIENTED_EDGE ( 'NONE', *, *, #118, .F. ) ;
#34 = CARTESIAN_POINT ( 'NONE',  ( -0.04750000000000064587, 0.0000000000000000000, 1.500000000000000222 ) ) ;
#35 = EDGE_CURVE ( 'NONE', #172, #60, #190, .T. ) ;
#36 = ORIENTED_EDGE ( 'NONE', *, *, #35, .F. ) ;
#37 = CARTESIAN_POINT ( 'NONE',  ( 0.0000000000000000000, 0.0000000000000000000, 1.485000000000000764 ) ) ;
#38 = CYLINDRICAL_SURFACE ( 'NONE', #53, 0.06250000000000002776 ) ;
#39 = LINE ( 'NONE', #202, #214 ) ;
#40 =( NAMED_UNIT ( * ) SI_UNIT ( $, .STERADIAN. ) SOLID_ANGLE_UNIT ( ) );
#41 = CARTESIAN_POINT ( 'NONE',  ( 0.0000000000000000000, 0.0000000000000000000, 1.485000000000000764 ) ) ;
#42 =( LENGTH_UNIT ( ) NAMED_UNIT ( * ) SI_UNIT ( $, .METRE. ) );
#43 = ORIENTED_EDGE ( 'NONE', *, *, #212, .F. ) ;
#44 = FILL_AREA_STYLE ('',( #255 ) ) ;
#45 = ADVANCED_FACE ( 'NONE', ( #62 ), #153, .T. ) ;
#46 = SURFACE_STYLE_USAGE ( .BOTH. , #120 ) ;
#47 = EDGE_CURVE ( 'NONE', #109, #146, #139, .T. ) ;
#48 = CARTESIAN_POINT ( 'NONE',  ( 0.0000000000000000000, 0.0000000000000000000, 1.500000000000000222 ) ) ;
#49 = ORIENTED_EDGE ( 'NONE', *, *, #159, .T. ) ;
#50 = DIRECTION ( 'NONE',  ( -0.0000000000000000000, -0.0000000000000000000, -1.000000000000000000 ) ) ;
#51 = DIRECTION ( 'NONE',  ( 1.000000000000000000, 0.0000000000000000000, 0.0000000000000000000 ) ) ;
#52 = FACE_OUTER_BOUND ( 'NONE', #290, .T. ) ;
#53 = AXIS2_PLACEMENT_3D ( 'NONE', #14, #245, #87 ) ;
#54 = CARTESIAN_POINT ( 'NONE',  ( 0.01248750000000000034, 1.529277690435257475E-18, -1.529277690435257668E-18 ) ) ;
#55 = VERTEX_POINT ( 'NONE', #92 ) ;
#56 = CARTESIAN_POINT ( 'NONE',  ( -0.06249999999999997918, 0.0000000000000000000, 0.3586349820036292546 ) ) ;
#57 = LINE ( 'NONE', #34, #96 ) ;
#58 = CARTESIAN_POINT ( 'NONE',  ( 0.0000000000000000000, 0.0000000000000000000, 1.500000000000000222 ) ) ;
#59 = EDGE_CURVE ( 'NONE', #55, #220, #10, .T. ) ;
#60 = VERTEX_POINT ( 'NONE', #234 ) ;
#61 =( GEOMETRIC_REPRESENTATION_CONTEXT ( 3 ) GLOBAL_UNCERTAINTY_ASSIGNED_CONTEXT ( ( #267 ) ) GLOBAL_UNIT_ASSIGNED_CONTEXT ( ( #94, #138, #182 ) ) REPRESENTATION_CONTEXT ( 'NONE', 'WORKASPACE' ) );
#62 = FACE_OUTER_BOUND ( 'NONE', #266, .T. ) ;
#63 = FACE_OUTER_BOUND ( 'NONE', #263, .T. ) ;
#64 = DIRECTION ( 'NONE',  ( 1.000000000000000000, 0.0000000000000000000, 0.0000000000000000000 ) ) ;
#65 = ORIENTED_EDGE ( 'NONE', *, *, #119, .T. ) ;
#66 = CARTESIAN_POINT ( 'NONE',  ( -0.01248750000000000034, 0.0000000000000000000, 1.529277690435257668E-18 ) ) ;
#67 = VECTOR ( 'NONE', #32, 39.37007874015748143 ) ;
#68 = COLOUR_RGB ( '',0.7921568627450980005, 0.8196078431372548767, 0.9333333333333333481 ) ;
#69 = CYLINDRICAL_SURFACE ( 'NONE', #174, 0.01248750000000000034 ) ;
#70 = DIRECTION ( 'NONE',  ( -1.224646799147353454E-16, -0.0000000000000000000, -1.000000000000000000 ) ) ;
#71 = ADVANCED_FACE ( 'NONE', ( #21 ), #157, .F. ) ;
#72 = PLANE ( 'NONE',  #23 ) ;
#73 = ORIENTED_EDGE ( 'NONE', *, *, #236, .T. ) ;
#74 = CARTESIAN_POINT ( 'NONE',  ( -0.01248749999999999166, 4.591660092553109051E-18, 0.07499999999999999722 ) ) ;
#75 = UNCERTAINTY_MEASURE_WITH_UNIT (LENGTH_MEASURE( 1.000000000000000082E-05 ), #250, 'distance_accuracy_value', 'NONE');
#76 = ADVANCED_FACE ( 'NONE', ( #52 ), #69, .T. ) ;
#77 = CARTESIAN_POINT ( 'NONE',  ( 0.01248750000000000901, 0.0000000000000000000, 0.07499999999999999722 ) ) ;
#78 = ORIENTED_EDGE ( 'NONE', *, *, #159, .F. ) ;
#79 = CIRCLE ( 'NONE', #251, 0.01248750000000000034 ) ;
#80 =( GEOMETRIC_REPRESENTATION_CONTEXT ( 3 ) GLOBAL_UNCERTAINTY_ASSIGNED_CONTEXT ( ( #75 ) ) GLOBAL_UNIT_ASSIGNED_CONTEXT ( ( #250, #270, #40 ) ) REPRESENTATION_CONTEXT ( 'NONE', 'WORKASPACE' ) );
#81 = UNCERTAINTY_MEASURE_WITH_UNIT (LENGTH_MEASURE( 1.000000000000000082E-05 ), #248, 'distance_accuracy_value', 'NONE');
#82 = EDGE_CURVE ( 'NONE', #172, #55, #241, .T. ) ;
#83 = ORIENTED_EDGE ( 'NONE', *, *, #289, .T. ) ;
#84 = APPLICATION_PROTOCOL_DEFINITION ( 'draft international standard', 'automotive_design', 1998, #7 ) ;
#85 = AXIS2_PLACEMENT_3D ( 'NONE', #147, #28, #4 ) ;
#86 = CARTESIAN_POINT ( 'NONE',  ( 0.04750000000000064587, 6.735557395310483192E-18, 1.500000000000000222 ) ) ;
#87 = DIRECTION ( 'NONE',  ( -1.000000000000000000, 0.0000000000000000000, 0.0000000000000000000 ) ) ;
#88 = ADVANCED_FACE ( 'NONE', ( #124 ), #27, .T. ) ;
#89 = DIRECTION ( 'NONE',  ( -1.224646799147353454E-16, -0.0000000000000000000, -1.000000000000000000 ) ) ;
#90 = DIRECTION ( 'NONE',  ( -1.224646799147353454E-16, -0.0000000000000000000, -1.000000000000000000 ) ) ;
#91 = PRODUCT_CONTEXT ( 'NONE', #7, 'mechanical' ) ;
#92 = CARTESIAN_POINT ( 'NONE',  ( 0.06250000000000006939, 7.654042494670963708E-18, 0.3586349820036292546 ) ) ;
#93 = ADVANCED_FACE ( 'NONE', ( #195 ), #268, .T. ) ;
#94 =( CONVERSION_BASED_UNIT ( 'INCH', #19 ) LENGTH_UNIT ( ) NAMED_UNIT ( #277 ) );
#95 = CIRCLE ( 'NONE', #85, 0.01248750000000000034 ) ;
#96 = VECTOR ( 'NONE', #8, 39.37007874015748854 ) ;
#97 = CARTESIAN_POINT ( 'NONE',  ( -0.01248749999999999166, 1.529277690435257475E-18, 0.07499999999999999722 ) ) ;
#98 = EDGE_CURVE ( 'NONE', #106, #109, #280, .T. ) ;
#99 = DIRECTION ( 'NONE',  ( 0.0000000000000000000, 0.0000000000000000000, -1.000000000000000000 ) ) ;
#100 = DIRECTION ( 'NONE',  ( -1.224646799147353454E-16, -0.0000000000000000000, -1.000000000000000000 ) ) ;
#101 = VECTOR ( 'NONE', #89, 39.37007874015748143 ) ;
#102 = CIRCLE ( 'NONE', #274, 0.04750000000000064587 ) ;
#103 = DIRECTION ( 'NONE',  ( -1.000000000000000000, 0.0000000000000000000, 1.224646799147353454E-16 ) ) ;
#104 = ADVANCED_FACE ( 'NONE', ( #143 ), #232, .T. ) ;
#105 = CARTESIAN_POINT ( 'NONE',  ( 0.01248750000000000901, 0.0000000000000000000, 0.07499999999999999722 ) ) ;
#106 = VERTEX_POINT ( 'NONE', #105 ) ;
#107 = CARTESIAN_POINT ( 'NONE',  ( -0.06250000000000002776, 0.0000000000000000000, 1.500000000000000222 ) ) ;
#108 = VECTOR ( 'NONE', #151, 39.37007874015748143 ) ;
#109 = VERTEX_POINT ( 'NONE', #74 ) ;
#110 = ADVANCED_BREP_SHAPE_REPRESENTATION ( 'Micro_RME-025-2X', ( #247, #122 ), #80 ) ;
#111 = ORIENTED_EDGE ( 'NONE', *, *, #210, .F. ) ;
#112 = CARTESIAN_POINT ( 'NONE',  ( 0.0000000000000000000, 0.0000000000000000000, 1.500000000000000222 ) ) ;
#113 = LINE ( 'NONE', #107, #222 ) ;
#114 = ORIENTED_EDGE ( 'NONE', *, *, #47, .T. ) ;
#115 = MECHANICAL_DESIGN_GEOMETRIC_PRESENTATION_REPRESENTATION (  '', ( #207 ), #281 ) ;
#116 = APPLICATION_CONTEXT ( 'automotive_design' ) ;
#117 = AXIS2_PLACEMENT_3D ( 'NONE', #265, #99, #256 ) ;
#118 = EDGE_CURVE ( 'NONE', #106, #225, #223, .T. ) ;
#119 = EDGE_CURVE ( 'NONE', #146, #225, #95, .T. ) ;
#120 = SURFACE_SIDE_STYLE ('',( #22 ) ) ;
#121 = FACE_OUTER_BOUND ( 'NONE', #244, .T. ) ;
#122 = AXIS2_PLACEMENT_3D ( 'NONE', #273, #213, #64 ) ;
#123 = CARTESIAN_POINT ( 'NONE',  ( 9.184850993605148746E-18, 0.0000000000000000000, 0.07499999999999999722 ) ) ;
#124 = FACE_OUTER_BOUND ( 'NONE', #193, .T. ) ;
#125 = DIRECTION ( 'NONE',  ( -0.1736481776669311916, 2.126576849575783316E-17, 0.9848077530122080203 ) ) ;
#126 = EDGE_CURVE ( 'NONE', #220, #55, #141, .T. ) ;
#127 = CARTESIAN_POINT ( 'NONE',  ( 1.872825028598995623E-34, 0.0000000000000000000, 1.529277690435257668E-18 ) ) ;
#128 = EDGE_LOOP ( 'NONE', ( #65, #49 ) ) ;
#129 = ORIENTED_EDGE ( 'NONE', *, *, #98, .T. ) ;
#130 = DIRECTION ( 'NONE',  ( 0.0000000000000000000, 0.0000000000000000000, -1.000000000000000000 ) ) ;
#131 = LENGTH_MEASURE_WITH_UNIT ( LENGTH_MEASURE( 0.02539999999999999897 ), #208 );
#132 = DIRECTION ( 'NONE',  ( -1.000000000000000000, 0.0000000000000000000, 0.0000000000000000000 ) ) ;
#133 = DIRECTION ( 'NONE',  ( 0.0000000000000000000, 0.0000000000000000000, -1.000000000000000000 ) ) ;
#134 = DIRECTION ( 'NONE',  ( 1.000000000000000000, 0.0000000000000000000, 0.0000000000000000000 ) ) ;
#135 = EDGE_LOOP ( 'NONE', ( #83, #209, #224, #9 ) ) ;
#136 = CARTESIAN_POINT ( 'NONE',  ( 4.392011827730132361E-17, 0.0000000000000000000, 0.3586349820036292546 ) ) ;
#137 = ADVANCED_FACE ( 'NONE', ( #121 ), #264, .T. ) ;
#138 =( NAMED_UNIT ( * ) PLANE_ANGLE_UNIT ( ) SI_UNIT ( $, .RADIAN. ) );
#139 = LINE ( 'NONE', #66, #101 ) ;
#140 = EDGE_CURVE ( 'NONE', #106, #55, #217, .T. ) ;
#141 = CIRCLE ( 'NONE', #164, 0.06250000000000002776 ) ;
#142 = DIRECTION ( 'NONE',  ( -1.000000000000000000, 0.0000000000000000000, 1.224646799147353454E-16 ) ) ;
#143 = FACE_OUTER_BOUND ( 'NONE', #285, .T. ) ;
#144 = DIRECTION ( 'NONE',  ( 1.224646799147353454E-16, 0.0000000000000000000, 1.000000000000000000 ) ) ;
#145 = ORIENTED_EDGE ( 'NONE', *, *, #289, .F. ) ;
#146 = VERTEX_POINT ( 'NONE', #296 ) ;
#147 = CARTESIAN_POINT ( 'NONE',  ( 1.872825028598995623E-34, 0.0000000000000000000, 1.529277690435257668E-18 ) ) ;
#148 = PRODUCT_DEFINITION_CONTEXT ( 'detailed design', #116, 'design' ) ;
#149 = PRESENTATION_LAYER_ASSIGNMENT (  '', '', ( #207 ) ) ;
#150 = ORIENTED_EDGE ( 'NONE', *, *, #154, .T. ) ;
#151 = DIRECTION ( 'NONE',  ( -1.224646799147353454E-16, -0.0000000000000000000, -1.000000000000000000 ) ) ;
#152 = FACE_OUTER_BOUND ( 'NONE', #135, .T. ) ;
#153 = CYLINDRICAL_SURFACE ( 'NONE', #235, 0.06250000000000002776 ) ;
#154 = EDGE_CURVE ( 'NONE', #109, #220, #299, .T. ) ;
#155 = AXIS2_PLACEMENT_3D ( 'NONE', #5, #167, #173 ) ;
#156 = ORIENTED_EDGE ( 'NONE', *, *, #59, .T. ) ;
#157 = PLANE ( 'NONE',  #226 ) ;
#158 = LENGTH_MEASURE_WITH_UNIT ( LENGTH_MEASURE( 0.02539999999999999897 ), #42 );
#159 = EDGE_CURVE ( 'NONE', #225, #146, #79, .T. ) ;
#160 = DIRECTION ( 'NONE',  ( 1.000000000000000000, 0.0000000000000000000, 0.0000000000000000000 ) ) ;
#161 = ORIENTED_EDGE ( 'NONE', *, *, #154, .F. ) ;
#162 = DIRECTION ( 'NONE',  ( -1.000000000000000000, 0.0000000000000000000, 0.0000000000000000000 ) ) ;
#163 = DIRECTION ( 'NONE',  ( 1.000000000000000000, 0.0000000000000000000, 0.0000000000000000000 ) ) ;
#164 = AXIS2_PLACEMENT_3D ( 'NONE', #239, #238, #286 ) ;
#165 = CIRCLE ( 'NONE', #31, 0.01248750000000000034 ) ;
#166 = CARTESIAN_POINT ( 'NONE',  ( 0.06250000000000002776, 7.654042494670959086E-18, 1.485000000000000764 ) ) ;
#167 = DIRECTION ( 'NONE',  ( -1.224646799147353454E-16, -0.0000000000000000000, -1.000000000000000000 ) ) ;
#168 = ADVANCED_FACE ( 'NONE', ( #282 ), #72, .T. ) ;
#169 = DIRECTION ( 'NONE',  ( -1.000000000000000000, 0.0000000000000000000, 0.0000000000000000000 ) ) ;
#170 = ORIENTED_EDGE ( 'NONE', *, *, #119, .F. ) ;
#171 = DIRECTION ( 'NONE',  ( 0.0000000000000000000, 0.0000000000000000000, 1.000000000000000000 ) ) ;
#172 = VERTEX_POINT ( 'NONE', #166 ) ;
#173 = DIRECTION ( 'NONE',  ( -1.000000000000000000, 0.0000000000000000000, 0.0000000000000000000 ) ) ;
#174 = AXIS2_PLACEMENT_3D ( 'NONE', #243, #70, #142 ) ;
#175 = CIRCLE ( 'NONE', #187, 0.06250000000000002776 ) ;
#176 = ORIENTED_EDGE ( 'NONE', *, *, #203, .F. ) ;
#177 = ORIENTED_EDGE ( 'NONE', *, *, #118, .T. ) ;
#178 = ORIENTED_EDGE ( 'NONE', *, *, #98, .F. ) ;
#179 = FILL_AREA_STYLE_COLOUR ( '', #68 ) ;
#180 = EDGE_CURVE ( 'NONE', #29, #12, #3, .T. ) ;
#181 = SURFACE_STYLE_USAGE ( .BOTH. , #269 ) ;
#182 =( NAMED_UNIT ( * ) SI_UNIT ( $, .STERADIAN. ) SOLID_ANGLE_UNIT ( ) );
#183 = STYLED_ITEM ( 'NONE', ( #184 ), #110 ) ;
#184 = PRESENTATION_STYLE_ASSIGNMENT (( #46 ) ) ;
#185 = PRODUCT_DEFINITION ( 'UNKNOWN', '', #25, #148 ) ;
#186 =( LENGTH_UNIT ( ) NAMED_UNIT ( * ) SI_UNIT ( $, .METRE. ) );
#187 = AXIS2_PLACEMENT_3D ( 'NONE', #37, #130, #134 ) ;
#188 = DIRECTION ( 'NONE',  ( -1.000000000000000000, 0.0000000000000000000, 1.224646799147353454E-16 ) ) ;
#189 = DIRECTION ( 'NONE',  ( 1.000000000000000000, 0.0000000000000000000, -0.0000000000000000000 ) ) ;
#190 = CIRCLE ( 'NONE', #24, 0.06250000000000002776 ) ;
#191 = DIRECTION ( 'NONE',  ( 1.000000000000000000, 0.0000000000000000000, 0.0000000000000000000 ) ) ;
#192 = AXIS2_PLACEMENT_3D ( 'NONE', #48, #237, #26 ) ;
#193 = EDGE_LOOP ( 'NONE', ( #33, #129, #114, #78 ) ) ;
#194 = EDGE_LOOP ( 'NONE', ( #262, #246 ) ) ;
#195 = FACE_OUTER_BOUND ( 'NONE', #30, .T. ) ;
#196 = CARTESIAN_POINT ( 'NONE',  ( 9.184850993605148746E-18, 0.0000000000000000000, 0.07499999999999999722 ) ) ;
#197 = ORIENTED_EDGE ( 'NONE', *, *, #59, .F. ) ;
#198 = DIRECTION ( 'NONE',  ( 0.0000000000000000000, 0.0000000000000000000, -1.000000000000000000 ) ) ;
#199 = AXIS2_PLACEMENT_3D ( 'NONE', #136, #90, #253 ) ;
#200 = SURFACE_STYLE_FILL_AREA ( #204 ) ;
#201 = ORIENTED_EDGE ( 'NONE', *, *, #82, .F. ) ;
#202 = CARTESIAN_POINT ( 'NONE',  ( 0.04750000000000064587, 5.817072295950006528E-18, 1.500000000000000222 ) ) ;
#203 = EDGE_CURVE ( 'NONE', #109, #106, #165, .T. ) ;
#204 = FILL_AREA_STYLE ('',( #179 ) ) ;
#205 = DIMENSIONAL_EXPONENTS ( 1.000000000000000000, 0.0000000000000000000, 0.0000000000000000000, 0.0000000000000000000, 0.0000000000000000000, 0.0000000000000000000, 0.0000000000000000000 ) ;
#206 = ORIENTED_EDGE ( 'NONE', *, *, #140, .T. ) ;
#207 = STYLED_ITEM ( 'NONE', ( #288 ), #247 ) ;
#208 =( LENGTH_UNIT ( ) NAMED_UNIT ( * ) SI_UNIT ( $, .METRE. ) );
#209 = ORIENTED_EDGE ( 'NONE', *, *, #82, .T. ) ;
#210 = EDGE_CURVE ( 'NONE', #12, #29, #102, .T. ) ;
#211 = APPLICATION_PROTOCOL_DEFINITION ( 'draft international standard', 'automotive_design', 1998, #116 ) ;
#212 = EDGE_CURVE ( 'NONE', #12, #60, #57, .T. ) ;
#213 = DIRECTION ( 'NONE',  ( 0.0000000000000000000, 0.0000000000000000000, 1.000000000000000000 ) ) ;
#214 = VECTOR ( 'NONE', #291, 39.37007874015748854 ) ;
#215 = VECTOR ( 'NONE', #125, 39.37007874015747433 ) ;
#216 = COLOUR_RGB ( '',0.7921568627450980005, 0.8196078431372548767, 0.9333333333333333481 ) ;
#217 = LINE ( 'NONE', #77, #67 ) ;
#218 = CARTESIAN_POINT ( 'NONE',  ( 0.0000000000000000000, 0.0000000000000000000, 0.0000000000000000000 ) ) ;
#219 = DIRECTION ( 'NONE',  ( -1.224646799147353454E-16, -0.0000000000000000000, -1.000000000000000000 ) ) ;
#220 = VERTEX_POINT ( 'NONE', #56 ) ;
#221 = CARTESIAN_POINT ( 'NONE',  ( 0.0000000000000000000, 0.0000000000000000000, 1.500000000000000222 ) ) ;
#222 = VECTOR ( 'NONE', #287, 39.37007874015748143 ) ;
#223 = LINE ( 'NONE', #54, #108 ) ;
#224 = ORIENTED_EDGE ( 'NONE', *, *, #126, .F. ) ;
#225 = VERTEX_POINT ( 'NONE', #16 ) ;
#226 = AXIS2_PLACEMENT_3D ( 'NONE', #279, #171, #258 ) ;
#227 = ADVANCED_FACE ( 'NONE', ( #63 ), #294, .T. ) ;
#228 = CARTESIAN_POINT ( 'NONE',  ( -0.04750000000000064587, 0.0000000000000000000, 1.500000000000000222 ) ) ;
#229 =( NAMED_UNIT ( * ) PLANE_ANGLE_UNIT ( ) SI_UNIT ( $, .RADIAN. ) );
#230 = DIMENSIONAL_EXPONENTS ( 1.000000000000000000, 0.0000000000000000000, 0.0000000000000000000, 0.0000000000000000000, 0.0000000000000000000, 0.0000000000000000000, 0.0000000000000000000 ) ;
#231 =( NAMED_UNIT ( * ) SI_UNIT ( $, .STERADIAN. ) SOLID_ANGLE_UNIT ( ) );
#232 = CONICAL_SURFACE ( 'NONE', #2, 0.01248750000000000034, 0.1745329251994338915 ) ;
#233 = AXIS2_PLACEMENT_3D ( 'NONE', #112, #198, #132 ) ;
#234 = CARTESIAN_POINT ( 'NONE',  ( -0.06250000000000002776, 0.0000000000000000000, 1.485000000000000764 ) ) ;
#235 = AXIS2_PLACEMENT_3D ( 'NONE', #58, #15, #162 ) ;
#236 = EDGE_CURVE ( 'NONE', #60, #220, #113, .T. ) ;
#237 = DIRECTION ( 'NONE',  ( 0.0000000000000000000, 0.0000000000000000000, 1.000000000000000000 ) ) ;
#238 = DIRECTION ( 'NONE',  ( -1.224646799147353454E-16, -0.0000000000000000000, -1.000000000000000000 ) ) ;
#239 = CARTESIAN_POINT ( 'NONE',  ( 4.392011827730132361E-17, 0.0000000000000000000, 0.3586349820036292546 ) ) ;
#240 = ORIENTED_EDGE ( 'NONE', *, *, #20, .T. ) ;
#241 = LINE ( 'NONE', #284, #17 ) ;
#242 = ORIENTED_EDGE ( 'NONE', *, *, #212, .T. ) ;
#243 = CARTESIAN_POINT ( 'NONE',  ( 0.0000000000000000000, 0.0000000000000000000, 0.0000000000000000000 ) ) ;
#244 = EDGE_LOOP ( 'NONE', ( #161, #178, #206, #156 ) ) ;
#245 = DIRECTION ( 'NONE',  ( -0.0000000000000000000, -0.0000000000000000000, -1.000000000000000000 ) ) ;
#246 = ORIENTED_EDGE ( 'NONE', *, *, #180, .T. ) ;
#247 = MANIFOLD_SOLID_BREP ( 'Cut-Revolve1', #254 ) ;
#248 =( CONVERSION_BASED_UNIT ( 'INCH', #158 ) LENGTH_UNIT ( ) NAMED_UNIT ( #230 ) );
#249 = ORIENTED_EDGE ( 'NONE', *, *, #140, .F. ) ;
#250 =( CONVERSION_BASED_UNIT ( 'INCH', #131 ) LENGTH_UNIT ( ) NAMED_UNIT ( #205 ) );
#251 = AXIS2_PLACEMENT_3D ( 'NONE', #127, #278, #188 ) ;
#252 = PRESENTATION_LAYER_ASSIGNMENT (  '', '', ( #183 ) ) ;
#253 = DIRECTION ( 'NONE',  ( 1.000000000000000000, 0.0000000000000000000, 0.0000000000000000000 ) ) ;
#254 = CLOSED_SHELL ( 'NONE', ( #76, #104, #227, #272, #45, #168, #93, #137, #88, #71 ) ) ;
#255 = FILL_AREA_STYLE_COLOUR ( '', #216 ) ;
#256 = DIRECTION ( 'NONE',  ( -1.000000000000000000, 0.0000000000000000000, 0.0000000000000000000 ) ) ;
#257 = DIRECTION ( 'NONE',  ( 1.224646799147353454E-16, 0.0000000000000000000, 1.000000000000000000 ) ) ;
#258 = DIRECTION ( 'NONE',  ( 1.000000000000000000, 0.0000000000000000000, -0.0000000000000000000 ) ) ;
#259 = ORIENTED_EDGE ( 'NONE', *, *, #126, .T. ) ;
#260 = ORIENTED_EDGE ( 'NONE', *, *, #47, .F. ) ;
#261 = CARTESIAN_POINT ( 'NONE',  ( 9.184850993605148746E-18, 0.0000000000000000000, 0.07499999999999999722 ) ) ;
#262 = ORIENTED_EDGE ( 'NONE', *, *, #210, .T. ) ;
#263 = EDGE_LOOP ( 'NONE', ( #283, #240, #145, #43 ) ) ;
#264 = CONICAL_SURFACE ( 'NONE', #293, 0.01248750000000000034, 0.1745329251994338915 ) ;
#265 = CARTESIAN_POINT ( 'NONE',  ( 0.0000000000000000000, 0.0000000000000000000, 1.500000000000000222 ) ) ;
#266 = EDGE_LOOP ( 'NONE', ( #201, #18, #73, #197 ) ) ;
#267 = UNCERTAINTY_MEASURE_WITH_UNIT (LENGTH_MEASURE( 1.000000000000000082E-05 ), #94, 'distance_accuracy_value', 'NONE');
#268 = CONICAL_SURFACE ( 'NONE', #117, 0.04750000000000064587, 0.7853981633974466137 ) ;
#269 = SURFACE_SIDE_STYLE ('',( #200 ) ) ;
#270 =( NAMED_UNIT ( * ) PLANE_ANGLE_UNIT ( ) SI_UNIT ( $, .RADIAN. ) );
#271 = AXIS2_PLACEMENT_3D ( 'NONE', #218, #219, #103 ) ;
#272 = ADVANCED_FACE ( 'NONE', ( #152 ), #38, .T. ) ;
#273 = CARTESIAN_POINT ( 'NONE',  ( 0.0000000000000000000, 0.0000000000000000000, 0.0000000000000000000 ) ) ;
#274 = AXIS2_PLACEMENT_3D ( 'NONE', #221, #13, #160 ) ;
#275 = PRODUCT_RELATED_PRODUCT_CATEGORY ( 'part', '', ( #295 ) ) ;
#276 = CARTESIAN_POINT ( 'NONE',  ( 0.0000000000000000000, 0.0000000000000000000, 1.500000000000000222 ) ) ;
#277 = DIMENSIONAL_EXPONENTS ( 1.000000000000000000, 0.0000000000000000000, 0.0000000000000000000, 0.0000000000000000000, 0.0000000000000000000, 0.0000000000000000000, 0.0000000000000000000 ) ;
#278 = DIRECTION ( 'NONE',  ( -1.224646799147353454E-16, -0.0000000000000000000, -1.000000000000000000 ) ) ;
#279 = CARTESIAN_POINT ( 'NONE',  ( 0.0000000000000000000, 0.0000000000000000000, 0.0000000000000000000 ) ) ;
#280 = CIRCLE ( 'NONE', #155, 0.01248750000000000034 ) ;
#281 =( GEOMETRIC_REPRESENTATION_CONTEXT ( 3 ) GLOBAL_UNCERTAINTY_ASSIGNED_CONTEXT ( ( #81 ) ) GLOBAL_UNIT_ASSIGNED_CONTEXT ( ( #248, #229, #231 ) ) REPRESENTATION_CONTEXT ( 'NONE', 'WORKASPACE' ) );
#282 = FACE_OUTER_BOUND ( 'NONE', #194, .T. ) ;
#283 = ORIENTED_EDGE ( 'NONE', *, *, #180, .F. ) ;
#284 = CARTESIAN_POINT ( 'NONE',  ( 0.06250000000000002776, 7.654042494670959086E-18, 1.500000000000000222 ) ) ;
#285 = EDGE_LOOP ( 'NONE', ( #176, #150, #259, #249 ) ) ;
#286 = DIRECTION ( 'NONE',  ( 1.000000000000000000, 0.0000000000000000000, 0.0000000000000000000 ) ) ;
#287 = DIRECTION ( 'NONE',  ( -0.0000000000000000000, -0.0000000000000000000, -1.000000000000000000 ) ) ;
#288 = PRESENTATION_STYLE_ASSIGNMENT (( #181 ) ) ;
#289 = EDGE_CURVE ( 'NONE', #60, #172, #175, .T. ) ;
#290 = EDGE_LOOP ( 'NONE', ( #6, #177, #170, #260 ) ) ;
#291 = DIRECTION ( 'NONE',  ( 0.7071067811865462405, 8.659560562354916834E-17, -0.7071067811865486830 ) ) ;
#292 = SHAPE_DEFINITION_REPRESENTATION ( #298, #110 ) ;
#293 = AXIS2_PLACEMENT_3D ( 'NONE', #196, #144, #191 ) ;
#294 = CONICAL_SURFACE ( 'NONE', #233, 0.04750000000000064587, 0.7853981633974466137 ) ;
#295 = PRODUCT ( 'Micro_RME-025-2X', 'Micro_RME-025-2X', '', ( #91 ) ) ;
#296 = CARTESIAN_POINT ( 'NONE',  ( -0.01248750000000000034, 0.0000000000000000000, 3.058555380870515335E-18 ) ) ;
#297 = DIRECTION ( 'NONE',  ( 0.0000000000000000000, 0.0000000000000000000, 1.000000000000000000 ) ) ;
#298 = PRODUCT_DEFINITION_SHAPE ( 'NONE', 'NONE',  #185 ) ;
#299 = LINE ( 'NONE', #97, #215 ) ;
ENDSEC;
END-ISO-10303-21;
