ISO-10303-21;
HEADER;
FILE_DESCRIPTION (( 'STEP AP214' ),
    '1' );
FILE_NAME ('03345.STEP',
    '2023-06-22T15:11:21',
    ( '' ),
    ( '' ),
    'SwSTEP 2.0',
    'SolidWorks 2023',
    '' );
FILE_SCHEMA (( 'AUTOMOTIVE_DESIGN' ));
ENDSEC;

DATA;
#1 = MECHANICAL_DESIGN_GEOMETRIC_PRESENTATION_REPRESENTATION (  '', ( #38 ), #211 ) ;
#2 = CYLINDRICAL_SURFACE ( 'NONE', #271, 0.1875000000000000833 ) ;
#3 =( LENGTH_UNIT ( ) NAMED_UNIT ( * ) SI_UNIT ( $, .METRE. ) );
#4 =( CONVERSION_BASED_UNIT ( 'INCH', #139 ) LENGTH_UNIT ( ) NAMED_UNIT ( #52 ) );
#5 = PRESENTATION_STYLE_ASSIGNMENT (( #209 ) ) ;
#6 = ORIENTED_EDGE ( 'NONE', *, *, #154, .T. ) ;
#7 = DIRECTION ( 'NONE',  ( -0.000000000000000000, -1.000000000000000000, -0.000000000000000000 ) ) ;
#8 = CLOSED_SHELL ( 'NONE', ( #123, #105, #245, #272 ) ) ;
#9 =( NAMED_UNIT ( * ) PLANE_ANGLE_UNIT ( ) SI_UNIT ( $, .RADIAN. ) );
#10 = CARTESIAN_POINT ( 'NONE',  ( 0.1875000000000000278, 3.000000000000000444, 0.000000000000000000 ) ) ;
#11 =( CONVERSION_BASED_UNIT ( 'INCH', #243 ) LENGTH_UNIT ( ) NAMED_UNIT ( #277 ) );
#12 = DIRECTION ( 'NONE',  ( 1.000000000000000000, 6.123233995736769734E-17, 0.000000000000000000 ) ) ;
#13 = AXIS2_PLACEMENT_3D ( 'NONE', #155, #41, #252 ) ;
#14 =( GEOMETRIC_REPRESENTATION_CONTEXT ( 3 ) GLOBAL_UNCERTAINTY_ASSIGNED_CONTEXT ( ( #35 ) ) GLOBAL_UNIT_ASSIGNED_CONTEXT ( ( #99, #214, #119 ) ) REPRESENTATION_CONTEXT ( 'NONE', 'WORKASPACE' ) );
#15 = SURFACE_STYLE_FILL_AREA ( #59 ) ;
#16 = COLOUR_RGB ( '',1.000000000000000000, 0.000000000000000000, 0.000000000000000000 ) ;
#17 = SURFACE_SIDE_STYLE ('',( #15 ) ) ;
#18 =( CONVERSION_BASED_UNIT ( 'INCH', #116 ) LENGTH_UNIT ( ) NAMED_UNIT ( #77 ) );
#19 = VERTEX_POINT ( 'NONE', #67 ) ;
#20 = FACE_OUTER_BOUND ( 'NONE', #26, .T. ) ;
#21 = ORIENTED_EDGE ( 'NONE', *, *, #193, .T. ) ;
#22 = COLOUR_RGB ( '',1.000000000000000000, 0.000000000000000000, 0.000000000000000000 ) ;
#23 = DIRECTION ( 'NONE',  ( -6.123233995736769734E-17, 1.000000000000000000, -0.000000000000000000 ) ) ;
#24 = VECTOR ( 'NONE', #7, 39.37007874015748143 ) ;
#25 = ADVANCED_BREP_SHAPE_REPRESENTATION ( '03345', ( #301, #83, #109 ), #304 ) ;
#26 = EDGE_LOOP ( 'NONE', ( #307, #131 ) ) ;
#27 = DIRECTION ( 'NONE',  ( 6.123233995736769734E-17, -1.000000000000000000, 0.000000000000000000 ) ) ;
#28 = PRESENTATION_STYLE_ASSIGNMENT (( #90 ) ) ;
#29 = ORIENTED_EDGE ( 'NONE', *, *, #200, .F. ) ;
#30 = CARTESIAN_POINT ( 'NONE',  ( 0.000000000000000000, 0.000000000000000000, 0.000000000000000000 ) ) ;
#31 = PRESENTATION_STYLE_ASSIGNMENT (( #169 ) ) ;
#32 = CARTESIAN_POINT ( 'NONE',  ( -1.224646799147353700E-16, 3.000000000000000444, 0.000000000000000000 ) ) ;
#33 = STYLED_ITEM ( 'NONE', ( #229 ), #56 ) ;
#34 = AXIS2_PLACEMENT_3D ( 'NONE', #259, #270, #136 ) ;
#35 = UNCERTAINTY_MEASURE_WITH_UNIT (LENGTH_MEASURE( 1.000000000000000082E-05 ), #99, 'distance_accuracy_value', 'NONE');
#36 = DIMENSIONAL_EXPONENTS ( 1.000000000000000000, 0.000000000000000000, 0.000000000000000000, 0.000000000000000000, 0.000000000000000000, 0.000000000000000000, 0.000000000000000000 ) ;
#37 = SURFACE_SIDE_STYLE ('',( #213 ) ) ;
#38 = STYLED_ITEM ( 'NONE', ( #45 ), #167 ) ;
#39 = PRESENTATION_LAYER_ASSIGNMENT (  '', '', ( #33 ) ) ;
#40 = CARTESIAN_POINT ( 'NONE',  ( -0.1875000000000002776, 3.000000000000000444, 0.000000000000000000 ) ) ;
#41 = DIRECTION ( 'NONE',  ( -0.000000000000000000, -1.000000000000000000, -0.000000000000000000 ) ) ;
#42 = EDGE_CURVE ( 'NONE', #283, #142, #194, .T. ) ;
#43 = VERTEX_POINT ( 'NONE', #261 ) ;
#44 = UNCERTAINTY_MEASURE_WITH_UNIT (LENGTH_MEASURE( 1.000000000000000082E-05 ), #11, 'distance_accuracy_value', 'NONE');
#45 = PRESENTATION_STYLE_ASSIGNMENT (( #257 ) ) ;
#46 = SURFACE_SIDE_STYLE ('',( #180 ) ) ;
#47 = DIRECTION ( 'NONE',  ( -6.123233995736769734E-17, 1.000000000000000000, -0.000000000000000000 ) ) ;
#48 = STYLED_ITEM ( 'NONE', ( #302 ), #83 ) ;
#49 = EDGE_CURVE ( 'NONE', #43, #295, #79, .T. ) ;
#50 = SURFACE_SIDE_STYLE ('',( #290 ) ) ;
#51 = APPLICATION_PROTOCOL_DEFINITION ( 'draft international standard', 'automotive_design', 1998, #97 ) ;
#52 = DIMENSIONAL_EXPONENTS ( 1.000000000000000000, 0.000000000000000000, 0.000000000000000000, 0.000000000000000000, 0.000000000000000000, 0.000000000000000000, 0.000000000000000000 ) ;
#53 = DIRECTION ( 'NONE',  ( -1.000000000000000000, 0.000000000000000000, 0.000000000000000000 ) ) ;
#54 = CARTESIAN_POINT ( 'NONE',  ( -0.1875000000000000278, 1.000000000000000000, 0.000000000000000000 ) ) ;
#55 = CARTESIAN_POINT ( 'NONE',  ( 2.296212748401287726E-17, 0.000000000000000000, 0.1875000000000000278 ) ) ;
#56 = ADVANCED_FACE ( 'NONE', ( #224 ), #69, .T. ) ;
#57 = DIRECTION ( 'NONE',  ( -1.000000000000000000, 0.000000000000000000, 0.000000000000000000 ) ) ;
#58 = CIRCLE ( 'NONE', #231, 0.1875000000000000278 ) ;
#59 = FILL_AREA_STYLE ('',( #220 ) ) ;
#60 =( GEOMETRIC_REPRESENTATION_CONTEXT ( 3 ) GLOBAL_UNCERTAINTY_ASSIGNED_CONTEXT ( ( #44 ) ) GLOBAL_UNIT_ASSIGNED_CONTEXT ( ( #11, #9, #78 ) ) REPRESENTATION_CONTEXT ( 'NONE', 'WORKASPACE' ) );
#61 = AXIS2_PLACEMENT_3D ( 'NONE', #297, #75, #269 ) ;
#62 = PRODUCT_RELATED_PRODUCT_CATEGORY ( 'part', '', ( #288 ) ) ;
#63 = AXIS2_PLACEMENT_3D ( 'NONE', #80, #217, #171 ) ;
#64 = FILL_AREA_STYLE_COLOUR ( '', #16 ) ;
#65 = AXIS2_PLACEMENT_3D ( 'NONE', #276, #23, #57 ) ;
#66 = FILL_AREA_STYLE ('',( #284 ) ) ;
#67 = CARTESIAN_POINT ( 'NONE',  ( 0.1875000000000000278, 3.000000000000000444, 2.296212748401288650E-17 ) ) ;
#68 =( NAMED_UNIT ( * ) PLANE_ANGLE_UNIT ( ) SI_UNIT ( $, .RADIAN. ) );
#69 = PLANE ( 'NONE',  #63 ) ;
#70 = DIRECTION ( 'NONE',  ( -1.000000000000000000, -6.123233995736769734E-17, 0.000000000000000000 ) ) ;
#71 = APPLICATION_PROTOCOL_DEFINITION ( 'draft international standard', 'automotive_design', 1998, #256 ) ;
#72 = LENGTH_MEASURE_WITH_UNIT ( LENGTH_MEASURE( 0.02539999999999999897 ), #143 );
#73 = DIMENSIONAL_EXPONENTS ( 1.000000000000000000, 0.000000000000000000, 0.000000000000000000, 0.000000000000000000, 0.000000000000000000, 0.000000000000000000, 0.000000000000000000 ) ;
#74 =( NAMED_UNIT ( * ) PLANE_ANGLE_UNIT ( ) SI_UNIT ( $, .RADIAN. ) );
#75 = DIRECTION ( 'NONE',  ( -0.000000000000000000, -1.000000000000000000, -0.000000000000000000 ) ) ;
#76 = DIMENSIONAL_EXPONENTS ( 1.000000000000000000, 0.000000000000000000, 0.000000000000000000, 0.000000000000000000, 0.000000000000000000, 0.000000000000000000, 0.000000000000000000 ) ;
#77 = DIMENSIONAL_EXPONENTS ( 1.000000000000000000, 0.000000000000000000, 0.000000000000000000, 0.000000000000000000, 0.000000000000000000, 0.000000000000000000, 0.000000000000000000 ) ;
#78 =( NAMED_UNIT ( * ) SI_UNIT ( $, .STERADIAN. ) SOLID_ANGLE_UNIT ( ) );
#79 = CIRCLE ( 'NONE', #170, 0.1875000000000000278 ) ;
#80 = CARTESIAN_POINT ( 'NONE',  ( 0.000000000000000000, 0.000000000000000000, 0.000000000000000000 ) ) ;
#81 =( NAMED_UNIT ( * ) SI_UNIT ( $, .STERADIAN. ) SOLID_ANGLE_UNIT ( ) );
#82 = ADVANCED_FACE ( 'NONE', ( #267 ), #246, .T. ) ;
#83 = MANIFOLD_SOLID_BREP ( 'Revolve - Tool Body (Straight Shanked)', #8 ) ;
#84 = AXIS2_PLACEMENT_3D ( 'NONE', #262, #95, #266 ) ;
#85 = DIRECTION ( 'NONE',  ( 0.000000000000000000, 0.000000000000000000, -1.000000000000000000 ) ) ;
#86 = LENGTH_MEASURE_WITH_UNIT ( LENGTH_MEASURE( 0.02539999999999999897 ), #127 );
#87 = VECTOR ( 'NONE', #225, 39.37007874015748143 ) ;
#88 = CIRCLE ( 'NONE', #61, 0.1875000000000000278 ) ;
#89 = EDGE_CURVE ( 'NONE', #295, #43, #58, .T. ) ;
#90 = SURFACE_STYLE_USAGE ( .BOTH. , #50 ) ;
#91 = CARTESIAN_POINT ( 'NONE',  ( 0.000000000000000000, 1.000000000000000000, 0.000000000000000000 ) ) ;
#92 = CARTESIAN_POINT ( 'NONE',  ( 0.000000000000000000, 0.000000000000000000, 0.000000000000000000 ) ) ;
#93 = ORIENTED_EDGE ( 'NONE', *, *, #218, .F. ) ;
#94 = CARTESIAN_POINT ( 'NONE',  ( 0.1875000000000000278, 1.000000000000000000, 2.296212748401288650E-17 ) ) ;
#95 = DIRECTION ( 'NONE',  ( 0.000000000000000000, 1.000000000000000000, 0.000000000000000000 ) ) ;
#96 = LENGTH_MEASURE_WITH_UNIT ( LENGTH_MEASURE( 0.02539999999999999897 ), #234 );
#97 = APPLICATION_CONTEXT ( 'automotive_design' ) ;
#98 = DIRECTION ( 'NONE',  ( 0.000000000000000000, 0.000000000000000000, -1.000000000000000000 ) ) ;
#99 =( CONVERSION_BASED_UNIT ( 'INCH', #72 ) LENGTH_UNIT ( ) NAMED_UNIT ( #73 ) );
#100 = FILL_AREA_STYLE_COLOUR ( '', #250 ) ;
#101 = LINE ( 'NONE', #236, #233 ) ;
#102 = CARTESIAN_POINT ( 'NONE',  ( -1.224646799147353700E-16, 3.000000000000000444, 0.000000000000000000 ) ) ;
#103 = DIRECTION ( 'NONE',  ( -0.000000000000000000, -1.000000000000000000, -0.000000000000000000 ) ) ;
#104 = AXIS2_PLACEMENT_3D ( 'NONE', #102, #188, #212 ) ;
#105 = ADVANCED_FACE ( 'NONE', ( #160 ), #228, .F. ) ;
#106 = AXIS2_PLACEMENT_3D ( 'NONE', #273, #103, #85 ) ;
#107 = COLOUR_RGB ( '',0.7921568627450980005, 0.8196078431372548767, 0.9333333333333333481 ) ;
#108 =( NAMED_UNIT ( * ) PLANE_ANGLE_UNIT ( ) SI_UNIT ( $, .RADIAN. ) );
#109 = AXIS2_PLACEMENT_3D ( 'NONE', #30, #117, #264 ) ;
#110 = LINE ( 'NONE', #175, #87 ) ;
#111 = ORIENTED_EDGE ( 'NONE', *, *, #279, .T. ) ;
#112 = DIRECTION ( 'NONE',  ( -1.000000000000000000, 0.000000000000000000, 0.000000000000000000 ) ) ;
#113 = VERTEX_POINT ( 'NONE', #40 ) ;
#114 = PRODUCT_DEFINITION_CONTEXT ( 'detailed design', #97, 'design' ) ;
#115 = EDGE_CURVE ( 'NONE', #295, #221, #132, .T. ) ;
#116 = LENGTH_MEASURE_WITH_UNIT ( LENGTH_MEASURE( 0.02539999999999999897 ), #3 );
#117 = DIRECTION ( 'NONE',  ( 0.000000000000000000, 0.000000000000000000, 1.000000000000000000 ) ) ;
#118 = ORIENTED_EDGE ( 'NONE', *, *, #115, .F. ) ;
#119 =( NAMED_UNIT ( * ) SI_UNIT ( $, .STERADIAN. ) SOLID_ANGLE_UNIT ( ) );
#120 = ORIENTED_EDGE ( 'NONE', *, *, #305, .F. ) ;
#121 = PLANE ( 'NONE',  #138 ) ;
#122 = MECHANICAL_DESIGN_GEOMETRIC_PRESENTATION_REPRESENTATION (  '', ( #33 ), #184 ) ;
#123 = ADVANCED_FACE ( 'NONE', ( #165 ), #2, .T. ) ;
#124 = DIRECTION ( 'NONE',  ( -6.123233995736769734E-17, 1.000000000000000000, -0.000000000000000000 ) ) ;
#125 = ADVANCED_FACE ( 'NONE', ( #206 ), #282, .T. ) ;
#126 = STYLED_ITEM ( 'NONE', ( #5 ), #301 ) ;
#127 =( LENGTH_UNIT ( ) NAMED_UNIT ( * ) SI_UNIT ( $, .METRE. ) );
#128 = COLOUR_RGB ( '',0.7921568627450980005, 0.8196078431372548767, 0.9333333333333333481 ) ;
#129 = PRESENTATION_LAYER_ASSIGNMENT (  '', '', ( #303 ) ) ;
#130 = DIRECTION ( 'NONE',  ( -0.000000000000000000, -1.000000000000000000, -0.000000000000000000 ) ) ;
#131 = ORIENTED_EDGE ( 'NONE', *, *, #49, .F. ) ;
#132 = LINE ( 'NONE', #141, #172 ) ;
#133 = EDGE_LOOP ( 'NONE', ( #238, #21, #29, #118 ) ) ;
#134 = PRODUCT_DEFINITION_SHAPE ( 'NONE', 'NONE',  #247 ) ;
#135 = SURFACE_STYLE_USAGE ( .BOTH. , #46 ) ;
#136 = DIRECTION ( 'NONE',  ( -1.000000000000000000, 0.000000000000000000, 0.000000000000000000 ) ) ;
#137 = MECHANICAL_DESIGN_GEOMETRIC_PRESENTATION_REPRESENTATION (  '', ( #303 ), #300 ) ;
#138 = AXIS2_PLACEMENT_3D ( 'NONE', #10, #27, #12 ) ;
#139 = LENGTH_MEASURE_WITH_UNIT ( LENGTH_MEASURE( 0.02539999999999999897 ), #161 );
#140 = CARTESIAN_POINT ( 'NONE',  ( 0.000000000000000000, 0.000000000000000000, -0.1875000000000000278 ) ) ;
#141 = CARTESIAN_POINT ( 'NONE',  ( 0.000000000000000000, 0.000000000000000000, -0.1875000000000000278 ) ) ;
#142 = VERTEX_POINT ( 'NONE', #94 ) ;
#143 =( LENGTH_UNIT ( ) NAMED_UNIT ( * ) SI_UNIT ( $, .METRE. ) );
#144 = FILL_AREA_STYLE_COLOUR ( '', #107 ) ;
#145 = PRESENTATION_LAYER_ASSIGNMENT (  '', '', ( #48 ) ) ;
#146 = CIRCLE ( 'NONE', #34, 0.1875000000000000278 ) ;
#147 = CYLINDRICAL_SURFACE ( 'NONE', #242, 0.1875000000000000833 ) ;
#148 = UNCERTAINTY_MEASURE_WITH_UNIT (LENGTH_MEASURE( 1.000000000000000082E-05 ), #18, 'distance_accuracy_value', 'NONE');
#149 = PRESENTATION_LAYER_ASSIGNMENT (  '', '', ( #38 ) ) ;
#150 = DIMENSIONAL_EXPONENTS ( 1.000000000000000000, 0.000000000000000000, 0.000000000000000000, 0.000000000000000000, 0.000000000000000000, 0.000000000000000000, 0.000000000000000000 ) ;
#151 = EDGE_CURVE ( 'NONE', #187, #221, #152, .T. ) ;
#152 = CIRCLE ( 'NONE', #216, 0.1875000000000000278 ) ;
#153 = ORIENTED_EDGE ( 'NONE', *, *, #193, .F. ) ;
#154 = EDGE_CURVE ( 'NONE', #283, #113, #110, .T. ) ;
#155 = CARTESIAN_POINT ( 'NONE',  ( 0.000000000000000000, 0.000000000000000000, 0.000000000000000000 ) ) ;
#156 = EDGE_LOOP ( 'NONE', ( #111, #286 ) ) ;
#157 = EDGE_LOOP ( 'NONE', ( #226, #265, #195, #178 ) ) ;
#158 = SURFACE_STYLE_FILL_AREA ( #66 ) ;
#159 = FILL_AREA_STYLE_COLOUR ( '', #22 ) ;
#160 = FACE_OUTER_BOUND ( 'NONE', #166, .T. ) ;
#161 =( LENGTH_UNIT ( ) NAMED_UNIT ( * ) SI_UNIT ( $, .METRE. ) );
#162 =( NAMED_UNIT ( * ) SI_UNIT ( $, .STERADIAN. ) SOLID_ANGLE_UNIT ( ) );
#163 =( NAMED_UNIT ( * ) SI_UNIT ( $, .STERADIAN. ) SOLID_ANGLE_UNIT ( ) );
#164 = COLOUR_RGB ( '',1.000000000000000000, 0.000000000000000000, 0.000000000000000000 ) ;
#165 = FACE_OUTER_BOUND ( 'NONE', #157, .T. ) ;
#166 = EDGE_LOOP ( 'NONE', ( #176, #120 ) ) ;
#167 = ADVANCED_FACE ( 'NONE', ( #20 ), #308, .T. ) ;
#168 = UNCERTAINTY_MEASURE_WITH_UNIT (LENGTH_MEASURE( 1.000000000000000082E-05 ), #294, 'distance_accuracy_value', 'NONE');
#169 = SURFACE_STYLE_USAGE ( .BOTH. , #37 ) ;
#170 = AXIS2_PLACEMENT_3D ( 'NONE', #91, #204, #98 ) ;
#171 = DIRECTION ( 'NONE',  ( 0.000000000000000000, 0.000000000000000000, -1.000000000000000000 ) ) ;
#172 = VECTOR ( 'NONE', #130, 39.37007874015748143 ) ;
#173 =( CONVERSION_BASED_UNIT ( 'INCH', #86 ) LENGTH_UNIT ( ) NAMED_UNIT ( #36 ) );
#174 = MECHANICAL_DESIGN_GEOMETRIC_PRESENTATION_REPRESENTATION (  '', ( #222 ), #60 ) ;
#175 = CARTESIAN_POINT ( 'NONE',  ( -0.1875000000000002220, 3.000000000000000444, 0.000000000000000000 ) ) ;
#176 = ORIENTED_EDGE ( 'NONE', *, *, #42, .F. ) ;
#177 = DIRECTION ( 'NONE',  ( -6.123233995736769734E-17, 1.000000000000000000, 0.000000000000000000 ) ) ;
#178 = ORIENTED_EDGE ( 'NONE', *, *, #154, .F. ) ;
#179 = DIRECTION ( 'NONE',  ( 0.000000000000000000, 0.000000000000000000, -1.000000000000000000 ) ) ;
#180 = SURFACE_STYLE_FILL_AREA ( #258 ) ;
#181 =( CONVERSION_BASED_UNIT ( 'INCH', #230 ) LENGTH_UNIT ( ) NAMED_UNIT ( #76 ) );
#182 = ORIENTED_EDGE ( 'NONE', *, *, #305, .T. ) ;
#183 =( LENGTH_UNIT ( ) NAMED_UNIT ( * ) SI_UNIT ( $, .METRE. ) );
#184 =( GEOMETRIC_REPRESENTATION_CONTEXT ( 3 ) GLOBAL_UNCERTAINTY_ASSIGNED_CONTEXT ( ( #296 ) ) GLOBAL_UNIT_ASSIGNED_CONTEXT ( ( #4, #190, #81 ) ) REPRESENTATION_CONTEXT ( 'NONE', 'WORKASPACE' ) );
#185 = PRODUCT_DEFINITION_FORMATION_WITH_SPECIFIED_SOURCE ( 'ANY', '', #288, .NOT_KNOWN. ) ;
#186 =( NAMED_UNIT ( * ) PLANE_ANGLE_UNIT ( ) SI_UNIT ( $, .RADIAN. ) );
#187 = VERTEX_POINT ( 'NONE', #55 ) ;
#188 = DIRECTION ( 'NONE',  ( -6.123233995736769734E-17, 1.000000000000000000, -0.000000000000000000 ) ) ;
#189 = FILL_AREA_STYLE ('',( #144 ) ) ;
#190 =( NAMED_UNIT ( * ) PLANE_ANGLE_UNIT ( ) SI_UNIT ( $, .RADIAN. ) );
#191 = SURFACE_STYLE_FILL_AREA ( #189 ) ;
#192 = AXIS2_PLACEMENT_3D ( 'NONE', #198, #177, #70 ) ;
#193 = EDGE_CURVE ( 'NONE', #43, #187, #239, .T. ) ;
#194 = CIRCLE ( 'NONE', #241, 0.1875000000000000278 ) ;
#195 = ORIENTED_EDGE ( 'NONE', *, *, #279, .F. ) ;
#196 = CIRCLE ( 'NONE', #104, 0.1875000000000001388 ) ;
#197 = FILL_AREA_STYLE ('',( #64 ) ) ;
#198 = CARTESIAN_POINT ( 'NONE',  ( 3.515061990613733472E-34, 1.000000000000000000, 0.000000000000000000 ) ) ;
#199 = ORIENTED_EDGE ( 'NONE', *, *, #151, .F. ) ;
#200 = EDGE_CURVE ( 'NONE', #221, #187, #88, .T. ) ;
#201 = DIRECTION ( 'NONE',  ( -0.000000000000000000, -1.000000000000000000, -0.000000000000000000 ) ) ;
#202 = EDGE_LOOP ( 'NONE', ( #281, #235 ) ) ;
#203 =( NAMED_UNIT ( * ) SI_UNIT ( $, .STERADIAN. ) SOLID_ANGLE_UNIT ( ) );
#204 = DIRECTION ( 'NONE',  ( -0.000000000000000000, -1.000000000000000000, -0.000000000000000000 ) ) ;
#205 = CARTESIAN_POINT ( 'NONE',  ( 0.000000000000000000, 1.000000000000000000, -0.1875000000000000278 ) ) ;
#206 = FACE_OUTER_BOUND ( 'NONE', #133, .T. ) ;
#207 = ORIENTED_EDGE ( 'NONE', *, *, #115, .T. ) ;
#208 = ORIENTED_EDGE ( 'NONE', *, *, #49, .T. ) ;
#209 = SURFACE_STYLE_USAGE ( .BOTH. , #299 ) ;
#210 = CARTESIAN_POINT ( 'NONE',  ( 2.296212748401287726E-17, 0.000000000000000000, 0.1875000000000000278 ) ) ;
#211 =( GEOMETRIC_REPRESENTATION_CONTEXT ( 3 ) GLOBAL_UNCERTAINTY_ASSIGNED_CONTEXT ( ( #168 ) ) GLOBAL_UNIT_ASSIGNED_CONTEXT ( ( #294, #186, #163 ) ) REPRESENTATION_CONTEXT ( 'NONE', 'WORKASPACE' ) );
#212 = DIRECTION ( 'NONE',  ( -1.000000000000000000, 0.000000000000000000, 0.000000000000000000 ) ) ;
#213 = SURFACE_STYLE_FILL_AREA ( #219 ) ;
#214 =( NAMED_UNIT ( * ) PLANE_ANGLE_UNIT ( ) SI_UNIT ( $, .RADIAN. ) );
#215 =( LENGTH_UNIT ( ) NAMED_UNIT ( * ) SI_UNIT ( $, .METRE. ) );
#216 = AXIS2_PLACEMENT_3D ( 'NONE', #92, #201, #179 ) ;
#217 = DIRECTION ( 'NONE',  ( 0.000000000000000000, -1.000000000000000000, -0.000000000000000000 ) ) ;
#218 = EDGE_CURVE ( 'NONE', #19, #113, #293, .T. ) ;
#219 = FILL_AREA_STYLE ('',( #100 ) ) ;
#220 = FILL_AREA_STYLE_COLOUR ( '', #128 ) ;
#221 = VERTEX_POINT ( 'NONE', #140 ) ;
#222 = STYLED_ITEM ( 'NONE', ( #31 ), #82 ) ;
#223 = DIRECTION ( 'NONE',  ( 0.000000000000000000, 0.000000000000000000, -1.000000000000000000 ) ) ;
#224 = FACE_OUTER_BOUND ( 'NONE', #202, .T. ) ;
#225 = DIRECTION ( 'NONE',  ( -6.123233995736769734E-17, 1.000000000000000000, -0.000000000000000000 ) ) ;
#226 = ORIENTED_EDGE ( 'NONE', *, *, #42, .T. ) ;
#227 = UNCERTAINTY_MEASURE_WITH_UNIT (LENGTH_MEASURE( 1.000000000000000082E-05 ), #173, 'distance_accuracy_value', 'NONE');
#228 = PLANE ( 'NONE',  #192 ) ;
#229 = PRESENTATION_STYLE_ASSIGNMENT (( #135 ) ) ;
#230 = LENGTH_MEASURE_WITH_UNIT ( LENGTH_MEASURE( 0.02539999999999999897 ), #183 );
#231 = AXIS2_PLACEMENT_3D ( 'NONE', #251, #306, #223 ) ;
#232 =( GEOMETRIC_REPRESENTATION_CONTEXT ( 3 ) GLOBAL_UNCERTAINTY_ASSIGNED_CONTEXT ( ( #227 ) ) GLOBAL_UNIT_ASSIGNED_CONTEXT ( ( #173, #108, #280 ) ) REPRESENTATION_CONTEXT ( 'NONE', 'WORKASPACE' ) );
#233 = VECTOR ( 'NONE', #47, 39.37007874015748143 ) ;
#234 =( LENGTH_UNIT ( ) NAMED_UNIT ( * ) SI_UNIT ( $, .METRE. ) );
#235 = ORIENTED_EDGE ( 'NONE', *, *, #151, .T. ) ;
#236 = CARTESIAN_POINT ( 'NONE',  ( 0.1874999999999999445, 3.000000000000000444, 2.296212748401288342E-17 ) ) ;
#237 = SHAPE_DEFINITION_REPRESENTATION ( #134, #25 ) ;
#238 = ORIENTED_EDGE ( 'NONE', *, *, #89, .T. ) ;
#239 = LINE ( 'NONE', #210, #24 ) ;
#240 = FACE_OUTER_BOUND ( 'NONE', #156, .T. ) ;
#241 = AXIS2_PLACEMENT_3D ( 'NONE', #255, #309, #53 ) ;
#242 = AXIS2_PLACEMENT_3D ( 'NONE', #32, #124, #268 ) ;
#243 = LENGTH_MEASURE_WITH_UNIT ( LENGTH_MEASURE( 0.02539999999999999897 ), #215 );
#244 = FACE_OUTER_BOUND ( 'NONE', #289, .T. ) ;
#245 = ADVANCED_FACE ( 'NONE', ( #244 ), #147, .T. ) ;
#246 = CYLINDRICAL_SURFACE ( 'NONE', #106, 0.1875000000000000278 ) ;
#247 = PRODUCT_DEFINITION ( 'UNKNOWN', '', #185, #114 ) ;
#248 = PRESENTATION_LAYER_ASSIGNMENT (  '', '', ( #222 ) ) ;
#249 = MECHANICAL_DESIGN_GEOMETRIC_PRESENTATION_REPRESENTATION (  '', ( #126 ), #14 ) ;
#250 = COLOUR_RGB ( '',1.000000000000000000, 0.000000000000000000, 0.000000000000000000 ) ;
#251 = CARTESIAN_POINT ( 'NONE',  ( 0.000000000000000000, 1.000000000000000000, 0.000000000000000000 ) ) ;
#252 = DIRECTION ( 'NONE',  ( 0.000000000000000000, 0.000000000000000000, -1.000000000000000000 ) ) ;
#253 = EDGE_LOOP ( 'NONE', ( #153, #208, #207, #199 ) ) ;
#254 = PRESENTATION_LAYER_ASSIGNMENT (  '', '', ( #126 ) ) ;
#255 = CARTESIAN_POINT ( 'NONE',  ( 3.032960542342103792E-32, 1.000000000000000000, 0.000000000000000000 ) ) ;
#256 = APPLICATION_CONTEXT ( 'automotive_design' ) ;
#257 = SURFACE_STYLE_USAGE ( .BOTH. , #287 ) ;
#258 = FILL_AREA_STYLE ('',( #159 ) ) ;
#259 = CARTESIAN_POINT ( 'NONE',  ( 3.032960542342103792E-32, 1.000000000000000000, 0.000000000000000000 ) ) ;
#260 = DIRECTION ( 'NONE',  ( -6.123233995736769734E-17, 1.000000000000000000, -0.000000000000000000 ) ) ;
#261 = CARTESIAN_POINT ( 'NONE',  ( 2.296212748401287726E-17, 1.000000000000000000, 0.1875000000000000278 ) ) ;
#262 = CARTESIAN_POINT ( 'NONE',  ( 0.000000000000000000, 1.000000000000000000, 0.000000000000000000 ) ) ;
#263 = CARTESIAN_POINT ( 'NONE',  ( -1.224646799147353700E-16, 3.000000000000000444, 0.000000000000000000 ) ) ;
#264 = DIRECTION ( 'NONE',  ( 1.000000000000000000, 0.000000000000000000, 0.000000000000000000 ) ) ;
#265 = ORIENTED_EDGE ( 'NONE', *, *, #298, .T. ) ;
#266 = DIRECTION ( 'NONE',  ( 0.000000000000000000, -0.000000000000000000, 1.000000000000000000 ) ) ;
#267 = FACE_OUTER_BOUND ( 'NONE', #253, .T. ) ;
#268 = DIRECTION ( 'NONE',  ( -1.000000000000000000, 0.000000000000000000, 0.000000000000000000 ) ) ;
#269 = DIRECTION ( 'NONE',  ( 0.000000000000000000, 0.000000000000000000, -1.000000000000000000 ) ) ;
#270 = DIRECTION ( 'NONE',  ( -6.123233995736769734E-17, 1.000000000000000000, -0.000000000000000000 ) ) ;
#271 = AXIS2_PLACEMENT_3D ( 'NONE', #263, #260, #112 ) ;
#272 = ADVANCED_FACE ( 'NONE', ( #240 ), #121, .F. ) ;
#273 = CARTESIAN_POINT ( 'NONE',  ( 0.000000000000000000, 0.000000000000000000, 0.000000000000000000 ) ) ;
#274 = CLOSED_SHELL ( 'NONE', ( #125, #167, #82, #56 ) ) ;
#275 = UNCERTAINTY_MEASURE_WITH_UNIT (LENGTH_MEASURE( 1.000000000000000082E-05 ), #181, 'distance_accuracy_value', 'NONE');
#276 = CARTESIAN_POINT ( 'NONE',  ( -1.224646799147353700E-16, 3.000000000000000444, 0.000000000000000000 ) ) ;
#277 = DIMENSIONAL_EXPONENTS ( 1.000000000000000000, 0.000000000000000000, 0.000000000000000000, 0.000000000000000000, 0.000000000000000000, 0.000000000000000000, 0.000000000000000000 ) ;
#278 = SURFACE_STYLE_USAGE ( .BOTH. , #17 ) ;
#279 = EDGE_CURVE ( 'NONE', #113, #19, #196, .T. ) ;
#280 =( NAMED_UNIT ( * ) SI_UNIT ( $, .STERADIAN. ) SOLID_ANGLE_UNIT ( ) );
#281 = ORIENTED_EDGE ( 'NONE', *, *, #200, .T. ) ;
#282 = CYLINDRICAL_SURFACE ( 'NONE', #13, 0.1875000000000000278 ) ;
#283 = VERTEX_POINT ( 'NONE', #54 ) ;
#284 = FILL_AREA_STYLE_COLOUR ( '', #164 ) ;
#285 = PRODUCT_CONTEXT ( 'NONE', #256, 'mechanical' ) ;
#286 = ORIENTED_EDGE ( 'NONE', *, *, #218, .T. ) ;
#287 = SURFACE_SIDE_STYLE ('',( #158 ) ) ;
#288 = PRODUCT ( '03345', '03345', '', ( #285 ) ) ;
#289 = EDGE_LOOP ( 'NONE', ( #291, #182, #6, #93 ) ) ;
#290 = SURFACE_STYLE_FILL_AREA ( #197 ) ;
#291 = ORIENTED_EDGE ( 'NONE', *, *, #298, .F. ) ;
#292 = MECHANICAL_DESIGN_GEOMETRIC_PRESENTATION_REPRESENTATION (  '', ( #48 ), #232 ) ;
#293 = CIRCLE ( 'NONE', #65, 0.1875000000000001388 ) ;
#294 =( CONVERSION_BASED_UNIT ( 'INCH', #96 ) LENGTH_UNIT ( ) NAMED_UNIT ( #150 ) );
#295 = VERTEX_POINT ( 'NONE', #205 ) ;
#296 = UNCERTAINTY_MEASURE_WITH_UNIT (LENGTH_MEASURE( 1.000000000000000082E-05 ), #4, 'distance_accuracy_value', 'NONE');
#297 = CARTESIAN_POINT ( 'NONE',  ( 0.000000000000000000, 0.000000000000000000, 0.000000000000000000 ) ) ;
#298 = EDGE_CURVE ( 'NONE', #142, #19, #101, .T. ) ;
#299 = SURFACE_SIDE_STYLE ('',( #191 ) ) ;
#300 =( GEOMETRIC_REPRESENTATION_CONTEXT ( 3 ) GLOBAL_UNCERTAINTY_ASSIGNED_CONTEXT ( ( #148 ) ) GLOBAL_UNIT_ASSIGNED_CONTEXT ( ( #18, #68, #203 ) ) REPRESENTATION_CONTEXT ( 'NONE', 'WORKASPACE' ) );
#301 = MANIFOLD_SOLID_BREP ( 'Revolve - Cutting Edge', #274 ) ;
#302 = PRESENTATION_STYLE_ASSIGNMENT (( #278 ) ) ;
#303 = STYLED_ITEM ( 'NONE', ( #28 ), #125 ) ;
#304 =( GEOMETRIC_REPRESENTATION_CONTEXT ( 3 ) GLOBAL_UNCERTAINTY_ASSIGNED_CONTEXT ( ( #275 ) ) GLOBAL_UNIT_ASSIGNED_CONTEXT ( ( #181, #74, #162 ) ) REPRESENTATION_CONTEXT ( 'NONE', 'WORKASPACE' ) );
#305 = EDGE_CURVE ( 'NONE', #142, #283, #146, .T. ) ;
#306 = DIRECTION ( 'NONE',  ( -0.000000000000000000, -1.000000000000000000, -0.000000000000000000 ) ) ;
#307 = ORIENTED_EDGE ( 'NONE', *, *, #89, .F. ) ;
#308 = PLANE ( 'NONE',  #84 ) ;
#309 = DIRECTION ( 'NONE',  ( -6.123233995736769734E-17, 1.000000000000000000, -0.000000000000000000 ) ) ;
ENDSEC;
END-ISO-10303-21;
