ISO-10303-21;
HEADER;
FILE_DESCRIPTION (( 'STEP AP214' ),
    '1' );
FILE_NAME ('Micro_BMSM-025-2.STEP',
    '2021-09-03T16:05:25',
    ( '' ),
    ( '' ),
    'SwSTEP 2.0',
    'SolidWorks 2020',
    '' );
FILE_SCHEMA (( 'AUTOMOTIVE_DESIGN' ));
ENDSEC;

DATA;
#1 = SURFACE_SIDE_STYLE ('',( #150 ) ) ;
#2 = ORIENTED_EDGE ( 'NONE', *, *, #284, .T. ) ;
#3 = EDGE_LOOP ( 'NONE', ( #279, #181, #212, #31 ) ) ;
#4 = CONICAL_SURFACE ( 'NONE', #304, 0.04916328749999999276, 0.1745329251994338082 ) ;
#5 = LINE ( 'NONE', #104, #176 ) ;
#6 = CARTESIAN_POINT ( 'NONE',  ( 0.04405499999999973326, 6.313666573004162521E-18, 1.496062999999999921 ) ) ;
#7 = DIRECTION ( 'NONE',  ( 1.000000000000000000, 0.0000000000000000000, 0.0000000000000000000 ) ) ;
#8 = CIRCLE ( 'NONE', #287, 0.04916328749999999276 ) ;
#9 = DIRECTION ( 'NONE',  ( 1.000000000000000000, 0.0000000000000000000, -0.0000000000000000000 ) ) ;
#10 = ADVANCED_FACE ( 'NONE', ( #156 ), #208, .T. ) ;
#11 = DIRECTION ( 'NONE',  ( 0.7071067811865482389, 8.659560562354941486E-17, -0.7071067811865469066 ) ) ;
#12 = ADVANCED_FACE ( 'NONE', ( #254 ), #302, .T. ) ;
#13 = DIRECTION ( 'NONE',  ( 1.000000000000000000, 0.0000000000000000000, 0.0000000000000000000 ) ) ;
#14 = VECTOR ( 'NONE', #11, 39.37007874015748143 ) ;
#15 = CIRCLE ( 'NONE', #69, 0.04916328749999999276 ) ;
#16 = CARTESIAN_POINT ( 'NONE',  ( 1.832145090332389117E-17, 0.0000000000000000000, 0.1496059999999999890 ) ) ;
#17 = VERTEX_POINT ( 'NONE', #27 ) ;
#18 = PRODUCT_DEFINITION_SHAPE ( 'NONE', 'NONE',  #257 ) ;
#19 = DIRECTION ( 'NONE',  ( 0.0000000000000000000, 0.0000000000000000000, 1.000000000000000000 ) ) ;
#20 = LINE ( 'NONE', #139, #242 ) ;
#21 = UNCERTAINTY_MEASURE_WITH_UNIT (LENGTH_MEASURE( 1.000000000000000082E-05 ), #219, 'distance_accuracy_value', 'NONE');
#22 = DIRECTION ( 'NONE',  ( -1.224646799147353207E-16, -0.0000000000000000000, -1.000000000000000000 ) ) ;
#23 = EDGE_LOOP ( 'NONE', ( #229, #96, #101, #122 ) ) ;
#24 = PRODUCT_CONTEXT ( 'NONE', #253, 'mechanical' ) ;
#25 = UNCERTAINTY_MEASURE_WITH_UNIT (LENGTH_MEASURE( 1.000000000000000082E-05 ), #243, 'distance_accuracy_value', 'NONE');
#26 = ORIENTED_EDGE ( 'NONE', *, *, #32, .F. ) ;
#27 = CARTESIAN_POINT ( 'NONE',  ( 9.031149400865411725E-18, 0.0000000000000000000, 0.0000000000000000000 ) ) ;
#28 = COLOUR_RGB ( '',0.7921568627450980005, 0.8196078431372548767, 0.9333333333333333481 ) ;
#29 = DIRECTION ( 'NONE',  ( 0.0000000000000000000, 0.0000000000000000000, 1.000000000000000000 ) ) ;
#30 =( LENGTH_UNIT ( ) NAMED_UNIT ( * ) SI_UNIT ( $, .METRE. ) );
#31 = ORIENTED_EDGE ( 'NONE', *, *, #284, .F. ) ;
#32 = EDGE_CURVE ( 'NONE', #282, #78, #93, .T. ) ;
#33 = ORIENTED_EDGE ( 'NONE', *, *, #140, .F. ) ;
#34 = CARTESIAN_POINT ( 'NONE',  ( 6.020766267243607560E-18, 0.0000000000000000000, 0.04916328749999999276 ) ) ;
#35 = DIRECTION ( 'NONE',  ( -1.224646799147353207E-16, -0.0000000000000000000, -1.000000000000000000 ) ) ;
#36 = DIRECTION ( 'NONE',  ( 1.000000000000000000, 0.0000000000000000000, 0.0000000000000000000 ) ) ;
#37 = CIRCLE ( 'NONE', #204, 0.05905500000000000332 ) ;
#38 = DIRECTION ( 'NONE',  ( 0.0000000000000000000, 1.000000000000000000, 0.0000000000000000000 ) ) ;
#39 = FACE_OUTER_BOUND ( 'NONE', #3, .T. ) ;
#40 = ORIENTED_EDGE ( 'NONE', *, *, #186, .T. ) ;
#41 = DIRECTION ( 'NONE',  ( 1.000000000000000000, 0.0000000000000000000, 0.0000000000000000000 ) ) ;
#42 = AXIS2_PLACEMENT_3D ( 'NONE', #48, #261, #79 ) ;
#43 = VECTOR ( 'NONE', #289, 39.37007874015748143 ) ;
#44 = DIRECTION ( 'NONE',  ( 0.0000000000000000000, 0.0000000000000000000, 1.000000000000000000 ) ) ;
#45 = ADVANCED_FACE ( 'NONE', ( #95 ), #203, .T. ) ;
#46 = ORIENTED_EDGE ( 'NONE', *, *, #303, .F. ) ;
#47 = AXIS2_PLACEMENT_3D ( 'NONE', #63, #35, #189 ) ;
#48 = CARTESIAN_POINT ( 'NONE',  ( 0.0000000000000000000, 0.0000000000000000000, 0.0000000000000000000 ) ) ;
#49 = SHAPE_DEFINITION_REPRESENTATION ( #18, #205 ) ;
#50 = VERTEX_POINT ( 'NONE', #236 ) ;
#51 = EDGE_LOOP ( 'NONE', ( #168, #46, #325, #177 ) ) ;
#52 = FILL_AREA_STYLE_COLOUR ( '', #227 ) ;
#53 = EDGE_LOOP ( 'NONE', ( #252, #81 ) ) ;
#54 = CARTESIAN_POINT ( 'NONE',  ( -0.04916328749999998582, 0.0000000000000000000, 0.04916328750000000664 ) ) ;
#55 = PRESENTATION_LAYER_ASSIGNMENT (  '', '', ( #80 ) ) ;
#56 = MECHANICAL_DESIGN_GEOMETRIC_PRESENTATION_REPRESENTATION (  '', ( #255 ), #108 ) ;
#57 = FACE_OUTER_BOUND ( 'NONE', #51, .T. ) ;
#58 = PRODUCT_DEFINITION_CONTEXT ( 'detailed design', #235, 'design' ) ;
#59 = MANIFOLD_SOLID_BREP ( 'Fillet1', #160 ) ;
#60 = DIRECTION ( 'NONE',  ( -1.000000000000000000, 0.0000000000000000000, 1.736463408839537879E-16 ) ) ;
#61 = AXIS2_PLACEMENT_3D ( 'NONE', #137, #83, #9 ) ;
#62 = VECTOR ( 'NONE', #119, 39.37007874015748143 ) ;
#63 = CARTESIAN_POINT ( 'NONE',  ( 2.519155892793731369E-17, 0.0000000000000000000, 0.2057046892661350268 ) ) ;
#64 = DIRECTION ( 'NONE',  ( 0.0000000000000000000, 0.0000000000000000000, -1.000000000000000000 ) ) ;
#65 = ORIENTED_EDGE ( 'NONE', *, *, #188, .F. ) ;
#66 = FACE_OUTER_BOUND ( 'NONE', #90, .T. ) ;
#67 = DIRECTION ( 'NONE',  ( -0.0000000000000000000, -0.0000000000000000000, -1.000000000000000000 ) ) ;
#68 = ADVANCED_FACE ( 'NONE', ( #290 ), #100, .T. ) ;
#69 = AXIS2_PLACEMENT_3D ( 'NONE', #248, #193, #295 ) ;
#70 = CARTESIAN_POINT ( 'NONE',  ( -0.04916328749999999276, 0.0000000000000000000, 6.020766267243607560E-18 ) ) ;
#71 = ORIENTED_EDGE ( 'NONE', *, *, #112, .F. ) ;
#72 =( NAMED_UNIT ( * ) SI_UNIT ( $, .STERADIAN. ) SOLID_ANGLE_UNIT ( ) );
#73 = EDGE_CURVE ( 'NONE', #78, #50, #266, .T. ) ;
#74 =( GEOMETRIC_REPRESENTATION_CONTEXT ( 3 ) GLOBAL_UNCERTAINTY_ASSIGNED_CONTEXT ( ( #21 ) ) GLOBAL_UNIT_ASSIGNED_CONTEXT ( ( #219, #215, #86 ) ) REPRESENTATION_CONTEXT ( 'NONE', 'WORKASPACE' ) );
#75 = CIRCLE ( 'NONE', #271, 0.05905500000000000332 ) ;
#76 = SURFACE_STYLE_USAGE ( .BOTH. , #1 ) ;
#77 = ORIENTED_EDGE ( 'NONE', *, *, #73, .F. ) ;
#78 = VERTEX_POINT ( 'NONE', #6 ) ;
#79 = DIRECTION ( 'NONE',  ( -1.000000000000000000, 0.0000000000000000000, 1.224646799147353207E-16 ) ) ;
#80 = STYLED_ITEM ( 'NONE', ( #184 ), #59 ) ;
#81 = ORIENTED_EDGE ( 'NONE', *, *, #288, .T. ) ;
#82 = DIRECTION ( 'NONE',  ( -0.0000000000000000000, -0.0000000000000000000, -1.000000000000000000 ) ) ;
#83 = DIRECTION ( 'NONE',  ( 0.0000000000000000000, 0.0000000000000000000, 1.000000000000000000 ) ) ;
#84 = AXIS2_PLACEMENT_3D ( 'NONE', #185, #110, #7 ) ;
#85 = CARTESIAN_POINT ( 'NONE',  ( 0.04916328750000001357, 0.0000000000000000000, 0.1496059999999999890 ) ) ;
#86 =( NAMED_UNIT ( * ) SI_UNIT ( $, .STERADIAN. ) SOLID_ANGLE_UNIT ( ) );
#87 = PRESENTATION_LAYER_ASSIGNMENT (  '', '', ( #255 ) ) ;
#88 =( NAMED_UNIT ( * ) PLANE_ANGLE_UNIT ( ) SI_UNIT ( $, .RADIAN. ) );
#89 = CARTESIAN_POINT ( 'NONE',  ( 0.0000000000000000000, 0.0000000000000000000, 1.496062999999999921 ) ) ;
#90 = EDGE_LOOP ( 'NONE', ( #141, #299, #151, #124 ) ) ;
#91 = CARTESIAN_POINT ( 'NONE',  ( 0.05905500000000003108, 7.232151672364698504E-18, 0.2057046892661350268 ) ) ;
#92 = DIRECTION ( 'NONE',  ( -1.000000000000000000, 0.0000000000000000000, 0.0000000000000000000 ) ) ;
#93 = CIRCLE ( 'NONE', #280, 0.04405499999999973326 ) ;
#94 = VERTEX_POINT ( 'NONE', #85 ) ;
#95 = FACE_OUTER_BOUND ( 'NONE', #292, .T. ) ;
#96 = ORIENTED_EDGE ( 'NONE', *, *, #303, .T. ) ;
#97 = AXIS2_PLACEMENT_3D ( 'NONE', #307, #82, #285 ) ;
#98 = CARTESIAN_POINT ( 'NONE',  ( 0.0000000000000000000, 0.0000000000000000000, 1.496062999999999921 ) ) ;
#99 = LENGTH_MEASURE_WITH_UNIT ( LENGTH_MEASURE( 0.02539999999999999897 ), #30 );
#100 = PLANE ( 'NONE',  #61 ) ;
#101 = ORIENTED_EDGE ( 'NONE', *, *, #312, .T. ) ;
#102 = EDGE_CURVE ( 'NONE', #273, #277, #249, .T. ) ;
#103 = VECTOR ( 'NONE', #173, 39.37007874015748143 ) ;
#104 = CARTESIAN_POINT ( 'NONE',  ( 0.04916328749999999276, 6.020766267243607560E-18, -6.020766267243607560E-18 ) ) ;
#105 = PRODUCT_RELATED_PRODUCT_CATEGORY ( 'part', '', ( #146 ) ) ;
#106 = SPHERICAL_SURFACE ( 'NONE', #147, 0.04916328749999999276 ) ;
#107 = LINE ( 'NONE', #223, #158 ) ;
#108 =( GEOMETRIC_REPRESENTATION_CONTEXT ( 3 ) GLOBAL_UNCERTAINTY_ASSIGNED_CONTEXT ( ( #207 ) ) GLOBAL_UNIT_ASSIGNED_CONTEXT ( ( #296, #210, #72 ) ) REPRESENTATION_CONTEXT ( 'NONE', 'WORKASPACE' ) );
#109 = DIRECTION ( 'NONE',  ( 1.000000000000000000, 0.0000000000000000000, 0.0000000000000000000 ) ) ;
#110 = DIRECTION ( 'NONE',  ( 1.224646799147353207E-16, 0.0000000000000000000, 1.000000000000000000 ) ) ;
#111 = CARTESIAN_POINT ( 'NONE',  ( -0.05905499999999998251, 0.0000000000000000000, 0.2057046892661350268 ) ) ;
#112 = EDGE_CURVE ( 'NONE', #128, #231, #324, .T. ) ;
#113 = AXIS2_PLACEMENT_3D ( 'NONE', #196, #44, #116 ) ;
#114 = CARTESIAN_POINT ( 'NONE',  ( -0.05905500000000000332, 0.0000000000000000000, 1.496062999999999921 ) ) ;
#115 = ORIENTED_EDGE ( 'NONE', *, *, #140, .T. ) ;
#116 = DIRECTION ( 'NONE',  ( 1.000000000000000000, 0.0000000000000000000, 0.0000000000000000000 ) ) ;
#117 = EDGE_LOOP ( 'NONE', ( #40, #123, #323, #256 ) ) ;
#118 = DIRECTION ( 'NONE',  ( 1.000000000000000000, 0.0000000000000000000, 0.0000000000000000000 ) ) ;
#119 = DIRECTION ( 'NONE',  ( 0.1736481776669313026, 0.0000000000000000000, 0.9848077530122077983 ) ) ;
#120 = EDGE_LOOP ( 'NONE', ( #65, #269, #71 ) ) ;
#121 = DIRECTION ( 'NONE',  ( -1.000000000000000000, 0.0000000000000000000, 0.0000000000000000000 ) ) ;
#122 = ORIENTED_EDGE ( 'NONE', *, *, #112, .T. ) ;
#123 = ORIENTED_EDGE ( 'NONE', *, *, #166, .T. ) ;
#124 = ORIENTED_EDGE ( 'NONE', *, *, #225, .F. ) ;
#125 = AXIS2_PLACEMENT_3D ( 'NONE', #315, #19, #118 ) ;
#126 = EDGE_CURVE ( 'NONE', #50, #273, #161, .T. ) ;
#127 = DIRECTION ( 'NONE',  ( 0.0000000000000000000, 0.0000000000000000000, -1.000000000000000000 ) ) ;
#128 = VERTEX_POINT ( 'NONE', #54 ) ;
#129 = DIRECTION ( 'NONE',  ( -1.000000000000000000, 0.0000000000000000000, 1.224646799147353207E-16 ) ) ;
#130 = CIRCLE ( 'NONE', #113, 0.04405499999999973326 ) ;
#131 =( LENGTH_UNIT ( ) NAMED_UNIT ( * ) SI_UNIT ( $, .METRE. ) );
#132 = DIRECTION ( 'NONE',  ( 1.224646799147353207E-16, 0.0000000000000000000, 1.000000000000000000 ) ) ;
#133 = DIRECTION ( 'NONE',  ( 0.0000000000000000000, 0.0000000000000000000, -1.000000000000000000 ) ) ;
#134 = AXIS2_PLACEMENT_3D ( 'NONE', #98, #127, #297 ) ;
#135 = ADVANCED_FACE ( 'NONE', ( #157 ), #106, .T. ) ;
#136 = AXIS2_PLACEMENT_3D ( 'NONE', #286, #310, #60 ) ;
#137 = CARTESIAN_POINT ( 'NONE',  ( 0.0000000000000000000, 0.0000000000000000000, 1.496062999999999921 ) ) ;
#138 = LENGTH_MEASURE_WITH_UNIT ( LENGTH_MEASURE( 0.02539999999999999897 ), #174 );
#139 = CARTESIAN_POINT ( 'NONE',  ( -0.04405499999999973326, 0.0000000000000000000, 1.496062999999999921 ) ) ;
#140 = EDGE_CURVE ( 'NONE', #50, #182, #217, .T. ) ;
#141 = ORIENTED_EDGE ( 'NONE', *, *, #288, .F. ) ;
#142 = LINE ( 'NONE', #114, #250 ) ;
#143 = DIRECTION ( 'NONE',  ( -0.1736481776669311083, 2.126576849575782084E-17, 0.9848077530122080203 ) ) ;
#144 = CARTESIAN_POINT ( 'NONE',  ( -0.05905500000000000332, 0.0000000000000000000, 1.481062999999999574 ) ) ;
#145 = ADVANCED_FACE ( 'NONE', ( #57 ), #281, .T. ) ;
#146 = PRODUCT ( 'Micro_BMSM-025-2', 'Micro_BMSM-025-2', '', ( #24 ) ) ;
#147 = AXIS2_PLACEMENT_3D ( 'NONE', #34, #187, #36 ) ;
#148 = ORIENTED_EDGE ( 'NONE', *, *, #179, .T. ) ;
#149 = DIRECTION ( 'NONE',  ( -1.224646799147353207E-16, -0.0000000000000000000, -1.000000000000000000 ) ) ;
#150 = SURFACE_STYLE_FILL_AREA ( #178 ) ;
#151 = ORIENTED_EDGE ( 'NONE', *, *, #234, .F. ) ;
#152 = AXIS2_PLACEMENT_3D ( 'NONE', #163, #38, #238 ) ;
#153 = APPLICATION_PROTOCOL_DEFINITION ( 'draft international standard', 'automotive_design', 1998, #253 ) ;
#154 = FILL_AREA_STYLE ('',( #52 ) ) ;
#155 = EDGE_CURVE ( 'NONE', #231, #128, #198, .T. ) ;
#156 = FACE_OUTER_BOUND ( 'NONE', #117, .T. ) ;
#157 = FACE_OUTER_BOUND ( 'NONE', #222, .T. ) ;
#158 = VECTOR ( 'NONE', #143, 39.37007874015747433 ) ;
#159 = FACE_OUTER_BOUND ( 'NONE', #301, .T. ) ;
#160 = CLOSED_SHELL ( 'NONE', ( #135, #10, #262, #216, #260, #175, #68, #45, #145, #12, #162 ) ) ;
#161 = LINE ( 'NONE', #191, #43 ) ;
#162 = ADVANCED_FACE ( 'NONE', ( #190 ), #241, .T. ) ;
#163 = CARTESIAN_POINT ( 'NONE',  ( 6.020766267243607560E-18, 0.0000000000000000000, 0.04916328749999999276 ) ) ;
#164 = CIRCLE ( 'NONE', #220, 0.04916328749999999276 ) ;
#165 = CARTESIAN_POINT ( 'NONE',  ( 0.0000000000000000000, 0.0000000000000000000, 1.481062999999999574 ) ) ;
#166 = EDGE_CURVE ( 'NONE', #94, #231, #5, .T. ) ;
#167 = DIRECTION ( 'NONE',  ( -1.224646799147353207E-16, -0.0000000000000000000, -1.000000000000000000 ) ) ;
#168 = ORIENTED_EDGE ( 'NONE', *, *, #179, .F. ) ;
#169 = CARTESIAN_POINT ( 'NONE',  ( -0.04405499999999973326, 0.0000000000000000000, 1.496062999999999921 ) ) ;
#170 = AXIS2_PLACEMENT_3D ( 'NONE', #89, #67, #228 ) ;
#171 = DIRECTION ( 'NONE',  ( 1.000000000000000000, 0.0000000000000000000, 0.0000000000000000000 ) ) ;
#172 = ORIENTED_EDGE ( 'NONE', *, *, #155, .F. ) ;
#173 = DIRECTION ( 'NONE',  ( -1.224646799147353207E-16, -0.0000000000000000000, -1.000000000000000000 ) ) ;
#174 =( LENGTH_UNIT ( ) NAMED_UNIT ( * ) SI_UNIT ( $, .METRE. ) );
#175 = ADVANCED_FACE ( 'NONE', ( #159 ), #265, .T. ) ;
#176 = VECTOR ( 'NONE', #214, 39.37007874015748143 ) ;
#177 = ORIENTED_EDGE ( 'NONE', *, *, #102, .T. ) ;
#178 = FILL_AREA_STYLE ('',( #201 ) ) ;
#179 = EDGE_CURVE ( 'NONE', #211, #277, #107, .T. ) ;
#180 = CARTESIAN_POINT ( 'NONE',  ( 0.0000000000000000000, 0.0000000000000000000, 0.0000000000000000000 ) ) ;
#181 = ORIENTED_EDGE ( 'NONE', *, *, #126, .T. ) ;
#182 = VERTEX_POINT ( 'NONE', #144 ) ;
#183 = AXIS2_PLACEMENT_3D ( 'NONE', #165, #133, #109 ) ;
#184 = PRESENTATION_STYLE_ASSIGNMENT (( #237 ) ) ;
#185 = CARTESIAN_POINT ( 'NONE',  ( 1.832145090332389117E-17, 0.0000000000000000000, 0.1496059999999999890 ) ) ;
#186 = EDGE_CURVE ( 'NONE', #211, #94, #298, .T. ) ;
#187 = DIRECTION ( 'NONE',  ( 0.0000000000000000000, 1.000000000000000000, 0.0000000000000000000 ) ) ;
#188 = EDGE_CURVE ( 'NONE', #17, #128, #8, .T. ) ;
#189 = DIRECTION ( 'NONE',  ( 1.000000000000000000, 0.0000000000000000000, 0.0000000000000000000 ) ) ;
#190 = FACE_OUTER_BOUND ( 'NONE', #120, .T. ) ;
#191 = CARTESIAN_POINT ( 'NONE',  ( 0.05905500000000000332, 7.232151672364695422E-18, 1.496062999999999921 ) ) ;
#192 = MECHANICAL_DESIGN_GEOMETRIC_PRESENTATION_REPRESENTATION (  '', ( #80 ), #74 ) ;
#193 = DIRECTION ( 'NONE',  ( 0.0000000000000000000, -1.000000000000000000, 0.0000000000000000000 ) ) ;
#194 = ORIENTED_EDGE ( 'NONE', *, *, #188, .T. ) ;
#195 = FACE_OUTER_BOUND ( 'NONE', #318, .T. ) ;
#196 = CARTESIAN_POINT ( 'NONE',  ( 0.0000000000000000000, 0.0000000000000000000, 1.496062999999999921 ) ) ;
#197 = AXIS2_PLACEMENT_3D ( 'NONE', #180, #149, #129 ) ;
#198 = CIRCLE ( 'NONE', #239, 0.04916328749999999276 ) ;
#199 = CARTESIAN_POINT ( 'NONE',  ( 2.519155892793731369E-17, 0.0000000000000000000, 0.2057046892661350268 ) ) ;
#200 = DIRECTION ( 'NONE',  ( 1.224646799147353207E-16, 1.000000000000000000, -0.0000000000000000000 ) ) ;
#201 = FILL_AREA_STYLE_COLOUR ( '', #28 ) ;
#202 = ORIENTED_EDGE ( 'NONE', *, *, #309, .F. ) ;
#203 = CONICAL_SURFACE ( 'NONE', #134, 0.04405499999999973326, 0.7853981633974491672 ) ;
#204 = AXIS2_PLACEMENT_3D ( 'NONE', #316, #64, #41 ) ;
#205 = ADVANCED_BREP_SHAPE_REPRESENTATION ( 'Micro_BMSM-025-2', ( #59, #125 ), #319 ) ;
#206 = ORIENTED_EDGE ( 'NONE', *, *, #230, .T. ) ;
#207 = UNCERTAINTY_MEASURE_WITH_UNIT (LENGTH_MEASURE( 1.000000000000000082E-05 ), #296, 'distance_accuracy_value', 'NONE');
#208 = CYLINDRICAL_SURFACE ( 'NONE', #197, 0.04916328749999999276 ) ;
#209 = APPLICATION_PROTOCOL_DEFINITION ( 'draft international standard', 'automotive_design', 1998, #235 ) ;
#210 =( NAMED_UNIT ( * ) PLANE_ANGLE_UNIT ( ) SI_UNIT ( $, .RADIAN. ) );
#211 = VERTEX_POINT ( 'NONE', #294 ) ;
#212 = ORIENTED_EDGE ( 'NONE', *, *, #230, .F. ) ;
#213 = AXIS2_PLACEMENT_3D ( 'NONE', #276, #274, #121 ) ;
#214 = DIRECTION ( 'NONE',  ( -1.224646799147353207E-16, -0.0000000000000000000, -1.000000000000000000 ) ) ;
#215 =( NAMED_UNIT ( * ) PLANE_ANGLE_UNIT ( ) SI_UNIT ( $, .RADIAN. ) );
#216 = ADVANCED_FACE ( 'NONE', ( #66 ), #264, .T. ) ;
#217 = CIRCLE ( 'NONE', #183, 0.05905500000000000332 ) ;
#218 = DIRECTION ( 'NONE',  ( -1.000000000000000000, 0.0000000000000000000, 1.736463408839537879E-16 ) ) ;
#219 =( CONVERSION_BASED_UNIT ( 'INCH', #263 ) LENGTH_UNIT ( ) NAMED_UNIT ( #259 ) );
#220 = AXIS2_PLACEMENT_3D ( 'NONE', #226, #317, #92 ) ;
#221 = CARTESIAN_POINT ( 'NONE',  ( 6.020766267243607560E-18, 0.0000000000000000000, 0.04916328749999999276 ) ) ;
#222 = EDGE_LOOP ( 'NONE', ( #202, #194, #172 ) ) ;
#223 = CARTESIAN_POINT ( 'NONE',  ( -0.04916328749999997888, 6.020766267243607560E-18, 0.1496059999999999890 ) ) ;
#224 = ORIENTED_EDGE ( 'NONE', *, *, #186, .F. ) ;
#225 = EDGE_CURVE ( 'NONE', #282, #182, #20, .T. ) ;
#226 = CARTESIAN_POINT ( 'NONE',  ( 1.832145090332389117E-17, 0.0000000000000000000, 0.1496059999999999890 ) ) ;
#227 = COLOUR_RGB ( '',0.7921568627450980005, 0.8196078431372548767, 0.9333333333333333481 ) ;
#228 = DIRECTION ( 'NONE',  ( -1.000000000000000000, 0.0000000000000000000, 0.0000000000000000000 ) ) ;
#229 = ORIENTED_EDGE ( 'NONE', *, *, #166, .F. ) ;
#230 = EDGE_CURVE ( 'NONE', #277, #273, #75, .T. ) ;
#231 = VERTEX_POINT ( 'NONE', #291 ) ;
#232 = AXIS2_PLACEMENT_3D ( 'NONE', #246, #167, #293 ) ;
#233 = DIRECTION ( 'NONE',  ( 1.000000000000000000, 0.0000000000000000000, 0.0000000000000000000 ) ) ;
#234 = EDGE_CURVE ( 'NONE', #182, #50, #37, .T. ) ;
#235 = APPLICATION_CONTEXT ( 'automotive_design' ) ;
#236 = CARTESIAN_POINT ( 'NONE',  ( 0.05905500000000000332, 7.232151672364695422E-18, 1.481062999999999574 ) ) ;
#237 = SURFACE_STYLE_USAGE ( .BOTH. , #306 ) ;
#238 = DIRECTION ( 'NONE',  ( 1.000000000000000000, 0.0000000000000000000, 0.0000000000000000000 ) ) ;
#239 = AXIS2_PLACEMENT_3D ( 'NONE', #267, #132, #218 ) ;
#240 = CARTESIAN_POINT ( 'NONE',  ( 0.04405499999999973326, 5.395181473643630390E-18, 1.496062999999999921 ) ) ;
#241 = SPHERICAL_SURFACE ( 'NONE', #152, 0.04916328749999999276 ) ;
#242 = VECTOR ( 'NONE', #268, 39.37007874015748143 ) ;
#243 =( CONVERSION_BASED_UNIT ( 'INCH', #138 ) LENGTH_UNIT ( ) NAMED_UNIT ( #305 ) );
#244 = DIRECTION ( 'NONE',  ( 1.224646799147353207E-16, 0.0000000000000000000, 1.000000000000000000 ) ) ;
#245 = DIRECTION ( 'NONE',  ( -0.0000000000000000000, -0.0000000000000000000, -1.000000000000000000 ) ) ;
#246 = CARTESIAN_POINT ( 'NONE',  ( 1.832145090332389117E-17, 0.0000000000000000000, 0.1496059999999999890 ) ) ;
#247 = EDGE_CURVE ( 'NONE', #94, #273, #272, .T. ) ;
#248 = CARTESIAN_POINT ( 'NONE',  ( 6.020766267243607560E-18, 0.0000000000000000000, 0.04916328749999999276 ) ) ;
#249 = CIRCLE ( 'NONE', #47, 0.05905500000000000332 ) ;
#250 = VECTOR ( 'NONE', #245, 39.37007874015748143 ) ;
#251 =( NAMED_UNIT ( * ) SI_UNIT ( $, .STERADIAN. ) SOLID_ANGLE_UNIT ( ) );
#252 = ORIENTED_EDGE ( 'NONE', *, *, #32, .T. ) ;
#253 = APPLICATION_CONTEXT ( 'automotive_design' ) ;
#254 = FACE_OUTER_BOUND ( 'NONE', #23, .T. ) ;
#255 = STYLED_ITEM ( 'NONE', ( #300 ), #205 ) ;
#256 = ORIENTED_EDGE ( 'NONE', *, *, #312, .F. ) ;
#257 = PRODUCT_DEFINITION ( 'UNKNOWN', '', #308, #58 ) ;
#258 = SURFACE_STYLE_FILL_AREA ( #154 ) ;
#259 = DIMENSIONAL_EXPONENTS ( 1.000000000000000000, 0.0000000000000000000, 0.0000000000000000000, 0.0000000000000000000, 0.0000000000000000000, 0.0000000000000000000, 0.0000000000000000000 ) ;
#260 = ADVANCED_FACE ( 'NONE', ( #39 ), #311, .T. ) ;
#261 = DIRECTION ( 'NONE',  ( -1.224646799147353207E-16, -0.0000000000000000000, -1.000000000000000000 ) ) ;
#262 = ADVANCED_FACE ( 'NONE', ( #195 ), #4, .T. ) ;
#263 = LENGTH_MEASURE_WITH_UNIT ( LENGTH_MEASURE( 0.02539999999999999897 ), #131 );
#264 = CONICAL_SURFACE ( 'NONE', #213, 0.04405499999999973326, 0.7853981633974491672 ) ;
#265 = CYLINDRICAL_SURFACE ( 'NONE', #97, 0.05905500000000000332 ) ;
#266 = LINE ( 'NONE', #240, #14 ) ;
#267 = CARTESIAN_POINT ( 'NONE',  ( 6.020766267243607560E-18, 0.0000000000000000000, 0.04916328749999999276 ) ) ;
#268 = DIRECTION ( 'NONE',  ( -0.7071067811865482389, 0.0000000000000000000, -0.7071067811865469066 ) ) ;
#269 = ORIENTED_EDGE ( 'NONE', *, *, #309, .T. ) ;
#270 = DIRECTION ( 'NONE',  ( -1.000000000000000000, 1.224646799147353207E-16, 0.0000000000000000000 ) ) ;
#271 = AXIS2_PLACEMENT_3D ( 'NONE', #199, #22, #13 ) ;
#272 = LINE ( 'NONE', #313, #62 ) ;
#273 = VERTEX_POINT ( 'NONE', #91 ) ;
#274 = DIRECTION ( 'NONE',  ( 0.0000000000000000000, 0.0000000000000000000, -1.000000000000000000 ) ) ;
#275 = ORIENTED_EDGE ( 'NONE', *, *, #247, .F. ) ;
#276 = CARTESIAN_POINT ( 'NONE',  ( 0.0000000000000000000, 0.0000000000000000000, 1.496062999999999921 ) ) ;
#277 = VERTEX_POINT ( 'NONE', #111 ) ;
#278 = ORIENTED_EDGE ( 'NONE', *, *, #225, .T. ) ;
#279 = ORIENTED_EDGE ( 'NONE', *, *, #234, .T. ) ;
#280 = AXIS2_PLACEMENT_3D ( 'NONE', #322, #29, #233 ) ;
#281 = CONICAL_SURFACE ( 'NONE', #84, 0.04916328749999999276, 0.1745329251994338082 ) ;
#282 = VERTEX_POINT ( 'NONE', #169 ) ;
#283 = DIMENSIONAL_EXPONENTS ( 1.000000000000000000, 0.0000000000000000000, 0.0000000000000000000, 0.0000000000000000000, 0.0000000000000000000, 0.0000000000000000000, 0.0000000000000000000 ) ;
#284 = EDGE_CURVE ( 'NONE', #182, #277, #142, .T. ) ;
#285 = DIRECTION ( 'NONE',  ( -1.000000000000000000, 0.0000000000000000000, 0.0000000000000000000 ) ) ;
#286 = CARTESIAN_POINT ( 'NONE',  ( 6.020766267243607560E-18, 0.0000000000000000000, 0.04916328749999999276 ) ) ;
#287 = AXIS2_PLACEMENT_3D ( 'NONE', #221, #200, #270 ) ;
#288 = EDGE_CURVE ( 'NONE', #78, #282, #130, .T. ) ;
#289 = DIRECTION ( 'NONE',  ( -0.0000000000000000000, -0.0000000000000000000, -1.000000000000000000 ) ) ;
#290 = FACE_OUTER_BOUND ( 'NONE', #53, .T. ) ;
#291 = CARTESIAN_POINT ( 'NONE',  ( 0.04916328750000000664, 6.020766267243607560E-18, 0.04916328749999998582 ) ) ;
#292 = EDGE_LOOP ( 'NONE', ( #77, #26, #278, #33 ) ) ;
#293 = DIRECTION ( 'NONE',  ( -1.000000000000000000, 0.0000000000000000000, 0.0000000000000000000 ) ) ;
#294 = CARTESIAN_POINT ( 'NONE',  ( -0.04916328749999997888, 6.626458969804151876E-18, 0.1496059999999999890 ) ) ;
#295 = DIRECTION ( 'NONE',  ( 0.0000000000000000000, 0.0000000000000000000, -1.000000000000000000 ) ) ;
#296 =( CONVERSION_BASED_UNIT ( 'INCH', #99 ) LENGTH_UNIT ( ) NAMED_UNIT ( #283 ) );
#297 = DIRECTION ( 'NONE',  ( -1.000000000000000000, 0.0000000000000000000, 0.0000000000000000000 ) ) ;
#298 = CIRCLE ( 'NONE', #232, 0.04916328749999999276 ) ;
#299 = ORIENTED_EDGE ( 'NONE', *, *, #73, .T. ) ;
#300 = PRESENTATION_STYLE_ASSIGNMENT (( #76 ) ) ;
#301 = EDGE_LOOP ( 'NONE', ( #314, #115, #2, #321 ) ) ;
#302 = CYLINDRICAL_SURFACE ( 'NONE', #42, 0.04916328749999999276 ) ;
#303 = EDGE_CURVE ( 'NONE', #94, #211, #164, .T. ) ;
#304 = AXIS2_PLACEMENT_3D ( 'NONE', #16, #244, #171 ) ;
#305 = DIMENSIONAL_EXPONENTS ( 1.000000000000000000, 0.0000000000000000000, 0.0000000000000000000, 0.0000000000000000000, 0.0000000000000000000, 0.0000000000000000000, 0.0000000000000000000 ) ;
#306 = SURFACE_SIDE_STYLE ('',( #258 ) ) ;
#307 = CARTESIAN_POINT ( 'NONE',  ( 0.0000000000000000000, 0.0000000000000000000, 1.496062999999999921 ) ) ;
#308 = PRODUCT_DEFINITION_FORMATION_WITH_SPECIFIED_SOURCE ( 'ANY', '', #146, .NOT_KNOWN. ) ;
#309 = EDGE_CURVE ( 'NONE', #17, #231, #15, .T. ) ;
#310 = DIRECTION ( 'NONE',  ( 1.224646799147353207E-16, 0.0000000000000000000, 1.000000000000000000 ) ) ;
#311 = CYLINDRICAL_SURFACE ( 'NONE', #170, 0.05905500000000000332 ) ;
#312 = EDGE_CURVE ( 'NONE', #211, #128, #320, .T. ) ;
#313 = CARTESIAN_POINT ( 'NONE',  ( 0.04916328750000001357, 0.0000000000000000000, 0.1496059999999999890 ) ) ;
#314 = ORIENTED_EDGE ( 'NONE', *, *, #126, .F. ) ;
#315 = CARTESIAN_POINT ( 'NONE',  ( 0.0000000000000000000, 0.0000000000000000000, 0.0000000000000000000 ) ) ;
#316 = CARTESIAN_POINT ( 'NONE',  ( 0.0000000000000000000, 0.0000000000000000000, 1.481062999999999574 ) ) ;
#317 = DIRECTION ( 'NONE',  ( -1.224646799147353207E-16, -0.0000000000000000000, -1.000000000000000000 ) ) ;
#318 = EDGE_LOOP ( 'NONE', ( #224, #148, #206, #275 ) ) ;
#319 =( GEOMETRIC_REPRESENTATION_CONTEXT ( 3 ) GLOBAL_UNCERTAINTY_ASSIGNED_CONTEXT ( ( #25 ) ) GLOBAL_UNIT_ASSIGNED_CONTEXT ( ( #243, #88, #251 ) ) REPRESENTATION_CONTEXT ( 'NONE', 'WORKASPACE' ) );
#320 = LINE ( 'NONE', #70, #103 ) ;
#321 = ORIENTED_EDGE ( 'NONE', *, *, #102, .F. ) ;
#322 = CARTESIAN_POINT ( 'NONE',  ( 0.0000000000000000000, 0.0000000000000000000, 1.496062999999999921 ) ) ;
#323 = ORIENTED_EDGE ( 'NONE', *, *, #155, .T. ) ;
#324 = CIRCLE ( 'NONE', #136, 0.04916328749999999276 ) ;
#325 = ORIENTED_EDGE ( 'NONE', *, *, #247, .T. ) ;
ENDSEC;
END-ISO-10303-21;
