ISO-10303-21;
HEADER;
FILE_DESCRIPTION (( 'STEP AP214' ),
    '1' );
FILE_NAME ('Micro_RTCM-060-1X.STEP',
    '2021-09-03T18:23:54',
    ( '' ),
    ( '' ),
    'SwSTEP 2.0',
    'SolidWorks 2020',
    '' );
FILE_SCHEMA (( 'AUTOMOTIVE_DESIGN' ));
ENDSEC;

DATA;
#1 = MANIFOLD_SOLID_BREP ( 'Cut-Revolve1', #39 ) ;
#2 = SURFACE_STYLE_FILL_AREA ( #73 ) ;
#3 =( GEOMETRIC_REPRESENTATION_CONTEXT ( 3 ) GLOBAL_UNCERTAINTY_ASSIGNED_CONTEXT ( ( #196 ) ) GLOBAL_UNIT_ASSIGNED_CONTEXT ( ( #192, #142, #180 ) ) REPRESENTATION_CONTEXT ( 'NONE', 'WORKASPACE' ) );
#4 = DIRECTION ( 'NONE',  ( -0.0000000000000000000, -0.0000000000000000000, -1.000000000000000000 ) ) ;
#5 = CARTESIAN_POINT ( 'NONE',  ( 0.0000000000000000000, 0.0000000000000000000, 2.244094000000000033 ) ) ;
#6 = AXIS2_PLACEMENT_3D ( 'NONE', #222, #93, #194 ) ;
#7 = EDGE_CURVE ( 'NONE', #42, #10, #32, .T. ) ;
#8 = PRODUCT ( 'Micro_RTCM-060-1X', 'Micro_RTCM-060-1X', '', ( #27 ) ) ;
#9 = PRESENTATION_STYLE_ASSIGNMENT (( #26 ) ) ;
#10 = VERTEX_POINT ( 'NONE', #170 ) ;
#11 = VERTEX_POINT ( 'NONE', #128 ) ;
#12 = DIRECTION ( 'NONE',  ( -1.000000000000000000, 0.0000000000000000000, 0.0000000000000000000 ) ) ;
#13 = ORIENTED_EDGE ( 'NONE', *, *, #240, .T. ) ;
#14 = CARTESIAN_POINT ( 'NONE',  ( -0.1031100000000002570, 0.0000000000000000000, 2.244094000000000033 ) ) ;
#15 = DIRECTION ( 'NONE',  ( 1.000000000000000000, 0.0000000000000000000, -0.0000000000000000000 ) ) ;
#16 = DIRECTION ( 'NONE',  ( 0.0000000000000000000, 0.0000000000000000000, 1.000000000000000000 ) ) ;
#17 = CARTESIAN_POINT ( 'NONE',  ( 0.0000000000000000000, 0.0000000000000000000, 2.244094000000000033 ) ) ;
#18 =( GEOMETRIC_REPRESENTATION_CONTEXT ( 3 ) GLOBAL_UNCERTAINTY_ASSIGNED_CONTEXT ( ( #143 ) ) GLOBAL_UNIT_ASSIGNED_CONTEXT ( ( #120, #123, #46 ) ) REPRESENTATION_CONTEXT ( 'NONE', 'WORKASPACE' ) );
#19 =( CONVERSION_BASED_UNIT ( 'INCH', #36 ) LENGTH_UNIT ( ) NAMED_UNIT ( #231 ) );
#20 = SURFACE_STYLE_USAGE ( .BOTH. , #116 ) ;
#21 =( NAMED_UNIT ( * ) SI_UNIT ( $, .STERADIAN. ) SOLID_ANGLE_UNIT ( ) );
#22 = CARTESIAN_POINT ( 'NONE',  ( 0.1181100000000000066, 1.446430334472939084E-17, 2.244094000000000033 ) ) ;
#23 = CARTESIAN_POINT ( 'NONE',  ( 0.0000000000000000000, 0.0000000000000000000, 2.229093999999999465 ) ) ;
#24 = EDGE_CURVE ( 'NONE', #81, #42, #171, .T. ) ;
#25 = ORIENTED_EDGE ( 'NONE', *, *, #88, .F. ) ;
#26 = SURFACE_STYLE_USAGE ( .BOTH. , #44 ) ;
#27 = PRODUCT_CONTEXT ( 'NONE', #154, 'mechanical' ) ;
#28 = EDGE_LOOP ( 'NONE', ( #148, #13 ) ) ;
#29 = CONICAL_SURFACE ( 'NONE', #40, 0.003936999999999995191, 0.2617993877991502960 ) ;
#30 = ORIENTED_EDGE ( 'NONE', *, *, #159, .F. ) ;
#31 = DIRECTION ( 'NONE',  ( 1.000000000000000000, 0.0000000000000000000, -0.0000000000000000000 ) ) ;
#32 = CIRCLE ( 'NONE', #67, 0.1181100000000000066 ) ;
#33 = CARTESIAN_POINT ( 'NONE',  ( 0.1031100000000002570, 1.262733314600838667E-17, 2.244094000000000033 ) ) ;
#34 = CYLINDRICAL_SURFACE ( 'NONE', #57, 0.1181100000000000066 ) ;
#35 = AXIS2_PLACEMENT_3D ( 'NONE', #145, #214, #164 ) ;
#36 = LENGTH_MEASURE_WITH_UNIT ( LENGTH_MEASURE( 0.02539999999999999897 ), #74 );
#37 =( LENGTH_UNIT ( ) NAMED_UNIT ( * ) SI_UNIT ( $, .METRE. ) );
#38 = LINE ( 'NONE', #22, #141 ) ;
#39 = CLOSED_SHELL ( 'NONE', ( #102, #191, #189, #161, #107, #195, #227, #54 ) ) ;
#40 = AXIS2_PLACEMENT_3D ( 'NONE', #75, #213, #211 ) ;
#41 = ORIENTED_EDGE ( 'NONE', *, *, #111, .T. ) ;
#42 = VERTEX_POINT ( 'NONE', #208 ) ;
#43 = CIRCLE ( 'NONE', #198, 0.003936999999999995191 ) ;
#44 = SURFACE_SIDE_STYLE ('',( #199 ) ) ;
#45 = CARTESIAN_POINT ( 'NONE',  ( 0.0000000000000000000, 0.0000000000000000000, 2.244094000000000033 ) ) ;
#46 =( NAMED_UNIT ( * ) SI_UNIT ( $, .STERADIAN. ) SOLID_ANGLE_UNIT ( ) );
#47 = CYLINDRICAL_SURFACE ( 'NONE', #210, 0.1181100000000000066 ) ;
#48 = VECTOR ( 'NONE', #82, 39.37007874015748143 ) ;
#49 = PLANE ( 'NONE',  #216 ) ;
#50 = DIRECTION ( 'NONE',  ( -1.000000000000000000, 0.0000000000000000000, 0.0000000000000000000 ) ) ;
#51 = LINE ( 'NONE', #229, #83 ) ;
#52 = DIMENSIONAL_EXPONENTS ( 1.000000000000000000, 0.0000000000000000000, 0.0000000000000000000, 0.0000000000000000000, 0.0000000000000000000, 0.0000000000000000000, 0.0000000000000000000 ) ;
#53 = AXIS2_PLACEMENT_3D ( 'NONE', #5, #72, #158 ) ;
#54 = ADVANCED_FACE ( 'NONE', ( #202 ), #49, .F. ) ;
#55 = SHAPE_DEFINITION_REPRESENTATION ( #150, #66 ) ;
#56 = ORIENTED_EDGE ( 'NONE', *, *, #138, .F. ) ;
#57 = AXIS2_PLACEMENT_3D ( 'NONE', #17, #247, #50 ) ;
#58 = COLOUR_RGB ( '',0.7921568627450980005, 0.8196078431372548767, 0.9333333333333333481 ) ;
#59 = EDGE_LOOP ( 'NONE', ( #56, #25, #179, #96 ) ) ;
#60 = ORIENTED_EDGE ( 'NONE', *, *, #118, .T. ) ;
#61 = VERTEX_POINT ( 'NONE', #104 ) ;
#62 = CARTESIAN_POINT ( 'NONE',  ( -0.1181100000000000066, 0.0000000000000000000, 2.244094000000000033 ) ) ;
#63 = FACE_OUTER_BOUND ( 'NONE', #28, .T. ) ;
#64 = CARTESIAN_POINT ( 'NONE',  ( 0.0000000000000000000, 0.0000000000000000000, 0.0000000000000000000 ) ) ;
#65 = DIRECTION ( 'NONE',  ( -1.000000000000000000, 0.0000000000000000000, 0.0000000000000000000 ) ) ;
#66 = ADVANCED_BREP_SHAPE_REPRESENTATION ( 'Micro_RTCM-060-1X', ( #1, #35 ), #84 ) ;
#67 = AXIS2_PLACEMENT_3D ( 'NONE', #162, #204, #205 ) ;
#68 = MECHANICAL_DESIGN_GEOMETRIC_PRESENTATION_REPRESENTATION (  '', ( #121 ), #3 ) ;
#69 = CARTESIAN_POINT ( 'NONE',  ( 0.0000000000000000000, 0.0000000000000000000, 0.4260994368525598541 ) ) ;
#70 = EDGE_CURVE ( 'NONE', #77, #11, #130, .T. ) ;
#71 = DIRECTION ( 'NONE',  ( 0.0000000000000000000, 0.0000000000000000000, 1.000000000000000000 ) ) ;
#72 = DIRECTION ( 'NONE',  ( 0.0000000000000000000, 0.0000000000000000000, -1.000000000000000000 ) ) ;
#73 = FILL_AREA_STYLE ('',( #190 ) ) ;
#74 =( LENGTH_UNIT ( ) NAMED_UNIT ( * ) SI_UNIT ( $, .METRE. ) );
#75 = CARTESIAN_POINT ( 'NONE',  ( 0.0000000000000000000, 0.0000000000000000000, 0.0000000000000000000 ) ) ;
#76 = CIRCLE ( 'NONE', #220, 0.1181100000000000066 ) ;
#77 = VERTEX_POINT ( 'NONE', #244 ) ;
#78 = PRODUCT_RELATED_PRODUCT_CATEGORY ( 'part', '', ( #8 ) ) ;
#79 = VERTEX_POINT ( 'NONE', #153 ) ;
#80 = ORIENTED_EDGE ( 'NONE', *, *, #246, .T. ) ;
#81 = VERTEX_POINT ( 'NONE', #132 ) ;
#82 = DIRECTION ( 'NONE',  ( -0.0000000000000000000, -0.0000000000000000000, -1.000000000000000000 ) ) ;
#83 = VECTOR ( 'NONE', #175, 39.37007874015748143 ) ;
#84 =( GEOMETRIC_REPRESENTATION_CONTEXT ( 3 ) GLOBAL_UNCERTAINTY_ASSIGNED_CONTEXT ( ( #184 ) ) GLOBAL_UNIT_ASSIGNED_CONTEXT ( ( #19, #89, #21 ) ) REPRESENTATION_CONTEXT ( 'NONE', 'WORKASPACE' ) );
#85 = CARTESIAN_POINT ( 'NONE',  ( -0.003936999999999995191, 4.821434448243123477E-19, 0.0000000000000000000 ) ) ;
#86 = LINE ( 'NONE', #14, #212 ) ;
#87 = DIRECTION ( 'NONE',  ( -0.0000000000000000000, -0.0000000000000000000, -1.000000000000000000 ) ) ;
#88 = EDGE_CURVE ( 'NONE', #79, #238, #43, .T. ) ;
#89 =( NAMED_UNIT ( * ) PLANE_ANGLE_UNIT ( ) SI_UNIT ( $, .RADIAN. ) );
#90 = DIRECTION ( 'NONE',  ( 0.0000000000000000000, 0.0000000000000000000, 1.000000000000000000 ) ) ;
#91 = DIRECTION ( 'NONE',  ( -1.000000000000000000, 0.0000000000000000000, 0.0000000000000000000 ) ) ;
#92 = COLOUR_RGB ( '',0.7921568627450980005, 0.8196078431372548767, 0.9333333333333333481 ) ;
#93 = DIRECTION ( 'NONE',  ( 0.0000000000000000000, 0.0000000000000000000, -1.000000000000000000 ) ) ;
#94 = DIRECTION ( 'NONE',  ( 1.000000000000000000, 0.0000000000000000000, 0.0000000000000000000 ) ) ;
#95 = PRODUCT_DEFINITION_CONTEXT ( 'detailed design', #166, 'design' ) ;
#96 = ORIENTED_EDGE ( 'NONE', *, *, #70, .T. ) ;
#97 = ORIENTED_EDGE ( 'NONE', *, *, #7, .F. ) ;
#98 = ORIENTED_EDGE ( 'NONE', *, *, #235, .T. ) ;
#99 = CIRCLE ( 'NONE', #230, 0.1031100000000002570 ) ;
#100 = PRESENTATION_LAYER_ASSIGNMENT (  '', '', ( #121 ) ) ;
#101 = ORIENTED_EDGE ( 'NONE', *, *, #24, .F. ) ;
#102 = ADVANCED_FACE ( 'NONE', ( #106 ), #146, .T. ) ;
#103 = EDGE_LOOP ( 'NONE', ( #169, #234, #167, #236 ) ) ;
#104 = CARTESIAN_POINT ( 'NONE',  ( -0.1031100000000002570, 0.0000000000000000000, 2.244094000000000033 ) ) ;
#105 = AXIS2_PLACEMENT_3D ( 'NONE', #176, #71, #133 ) ;
#106 = FACE_OUTER_BOUND ( 'NONE', #122, .T. ) ;
#107 = ADVANCED_FACE ( 'NONE', ( #63 ), #152, .T. ) ;
#108 = CARTESIAN_POINT ( 'NONE',  ( 0.0000000000000000000, 0.0000000000000000000, 0.4260994368525598541 ) ) ;
#109 = CARTESIAN_POINT ( 'NONE',  ( 0.0000000000000000000, 0.0000000000000000000, 0.0000000000000000000 ) ) ;
#110 = AXIS2_PLACEMENT_3D ( 'NONE', #112, #136, #91 ) ;
#111 = EDGE_CURVE ( 'NONE', #11, #77, #76, .T. ) ;
#112 = CARTESIAN_POINT ( 'NONE',  ( 0.0000000000000000000, 0.0000000000000000000, 0.0000000000000000000 ) ) ;
#113 = LENGTH_MEASURE_WITH_UNIT ( LENGTH_MEASURE( 0.02539999999999999897 ), #37 );
#114 = CONICAL_SURFACE ( 'NONE', #53, 0.1031100000000002570, 0.7853981633974318477 ) ;
#115 = LENGTH_MEASURE_WITH_UNIT ( LENGTH_MEASURE( 0.02539999999999999897 ), #206 );
#116 = SURFACE_SIDE_STYLE ('',( #2 ) ) ;
#117 = APPLICATION_PROTOCOL_DEFINITION ( 'draft international standard', 'automotive_design', 1998, #166 ) ;
#118 = EDGE_CURVE ( 'NONE', #61, #10, #86, .T. ) ;
#119 = ORIENTED_EDGE ( 'NONE', *, *, #111, .F. ) ;
#120 =( CONVERSION_BASED_UNIT ( 'INCH', #115 ) LENGTH_UNIT ( ) NAMED_UNIT ( #157 ) );
#121 = STYLED_ITEM ( 'NONE', ( #249 ), #66 ) ;
#122 = EDGE_LOOP ( 'NONE', ( #144, #242, #41, #239 ) ) ;
#123 =( NAMED_UNIT ( * ) PLANE_ANGLE_UNIT ( ) SI_UNIT ( $, .RADIAN. ) );
#124 = ORIENTED_EDGE ( 'NONE', *, *, #88, .T. ) ;
#125 = ORIENTED_EDGE ( 'NONE', *, *, #203, .F. ) ;
#126 = STYLED_ITEM ( 'NONE', ( #9 ), #1 ) ;
#127 = ORIENTED_EDGE ( 'NONE', *, *, #203, .T. ) ;
#128 = CARTESIAN_POINT ( 'NONE',  ( -0.1181100000000000066, 0.0000000000000000000, 0.4260994368525598541 ) ) ;
#129 = DIRECTION ( 'NONE',  ( -1.000000000000000000, 0.0000000000000000000, 0.0000000000000000000 ) ) ;
#130 = CIRCLE ( 'NONE', #186, 0.1181100000000000066 ) ;
#131 = DIRECTION ( 'NONE',  ( -0.0000000000000000000, -0.0000000000000000000, -1.000000000000000000 ) ) ;
#132 = CARTESIAN_POINT ( 'NONE',  ( 0.1031100000000002570, 1.354581824536888722E-17, 2.244094000000000033 ) ) ;
#133 = DIRECTION ( 'NONE',  ( 1.000000000000000000, 0.0000000000000000000, 0.0000000000000000000 ) ) ;
#134 = AXIS2_PLACEMENT_3D ( 'NONE', #23, #156, #94 ) ;
#135 = CARTESIAN_POINT ( 'NONE',  ( -0.003936999999999995191, 7.473223394776851115E-18, 0.0000000000000000000 ) ) ;
#136 = DIRECTION ( 'NONE',  ( -0.0000000000000000000, -0.0000000000000000000, -1.000000000000000000 ) ) ;
#137 = CARTESIAN_POINT ( 'NONE',  ( 0.0000000000000000000, 0.0000000000000000000, 2.244094000000000033 ) ) ;
#138 = EDGE_CURVE ( 'NONE', #238, #11, #245, .T. ) ;
#139 = CIRCLE ( 'NONE', #110, 0.003936999999999995191 ) ;
#140 = DIRECTION ( 'NONE',  ( 1.000000000000000000, 0.0000000000000000000, 0.0000000000000000000 ) ) ;
#141 = VECTOR ( 'NONE', #4, 39.37007874015748143 ) ;
#142 =( NAMED_UNIT ( * ) PLANE_ANGLE_UNIT ( ) SI_UNIT ( $, .RADIAN. ) );
#143 = UNCERTAINTY_MEASURE_WITH_UNIT (LENGTH_MEASURE( 1.000000000000000082E-05 ), #120, 'distance_accuracy_value', 'NONE');
#144 = ORIENTED_EDGE ( 'NONE', *, *, #235, .F. ) ;
#145 = CARTESIAN_POINT ( 'NONE',  ( 0.0000000000000000000, 0.0000000000000000000, 0.0000000000000000000 ) ) ;
#146 = CONICAL_SURFACE ( 'NONE', #182, 0.003936999999999995191, 0.2617993877991502960 ) ;
#147 = FILL_AREA_STYLE_COLOUR ( '', #92 ) ;
#148 = ORIENTED_EDGE ( 'NONE', *, *, #221, .T. ) ;
#149 = EDGE_LOOP ( 'NONE', ( #101, #201, #60, #97 ) ) ;
#150 = PRODUCT_DEFINITION_SHAPE ( 'NONE', 'NONE',  #174 ) ;
#151 = DIRECTION ( 'NONE',  ( 0.0000000000000000000, 0.0000000000000000000, 1.000000000000000000 ) ) ;
#152 = PLANE ( 'NONE',  #226 ) ;
#153 = CARTESIAN_POINT ( 'NONE',  ( 0.003936999999999995191, 0.0000000000000000000, 0.0000000000000000000 ) ) ;
#154 = APPLICATION_CONTEXT ( 'automotive_design' ) ;
#155 = DIRECTION ( 'NONE',  ( 1.000000000000000000, 0.0000000000000000000, 0.0000000000000000000 ) ) ;
#156 = DIRECTION ( 'NONE',  ( 0.0000000000000000000, 0.0000000000000000000, -1.000000000000000000 ) ) ;
#157 = DIMENSIONAL_EXPONENTS ( 1.000000000000000000, 0.0000000000000000000, 0.0000000000000000000, 0.0000000000000000000, 0.0000000000000000000, 0.0000000000000000000, 0.0000000000000000000 ) ;
#158 = DIRECTION ( 'NONE',  ( -1.000000000000000000, 0.0000000000000000000, 0.0000000000000000000 ) ) ;
#159 = EDGE_CURVE ( 'NONE', #10, #11, #224, .T. ) ;
#160 = VECTOR ( 'NONE', #225, 39.37007874015748854 ) ;
#161 = ADVANCED_FACE ( 'NONE', ( #173 ), #47, .T. ) ;
#162 = CARTESIAN_POINT ( 'NONE',  ( 0.0000000000000000000, 0.0000000000000000000, 2.229093999999999465 ) ) ;
#163 = EDGE_LOOP ( 'NONE', ( #127, #80, #119, #30 ) ) ;
#164 = DIRECTION ( 'NONE',  ( 1.000000000000000000, 0.0000000000000000000, 0.0000000000000000000 ) ) ;
#165 = CIRCLE ( 'NONE', #134, 0.1181100000000000066 ) ;
#166 = APPLICATION_CONTEXT ( 'automotive_design' ) ;
#167 = ORIENTED_EDGE ( 'NONE', *, *, #159, .T. ) ;
#168 = DIRECTION ( 'NONE',  ( -0.2588190451025216832, 3.169619151431776035E-17, 0.9659258262890679791 ) ) ;
#169 = ORIENTED_EDGE ( 'NONE', *, *, #246, .F. ) ;
#170 = CARTESIAN_POINT ( 'NONE',  ( -0.1181100000000000066, 0.0000000000000000000, 2.229093999999999465 ) ) ;
#171 = LINE ( 'NONE', #33, #160 ) ;
#172 = DIRECTION ( 'NONE',  ( -0.7071067811865358044, 0.0000000000000000000, -0.7071067811865590080 ) ) ;
#173 = FACE_OUTER_BOUND ( 'NONE', #103, .T. ) ;
#174 = PRODUCT_DEFINITION ( 'UNKNOWN', '', #243, #95 ) ;
#175 = DIRECTION ( 'NONE',  ( 0.2588190451025216832, 0.0000000000000000000, 0.9659258262890679791 ) ) ;
#176 = CARTESIAN_POINT ( 'NONE',  ( 0.0000000000000000000, 0.0000000000000000000, 2.244094000000000033 ) ) ;
#177 = MECHANICAL_DESIGN_GEOMETRIC_PRESENTATION_REPRESENTATION (  '', ( #126 ), #18 ) ;
#178 = FACE_OUTER_BOUND ( 'NONE', #59, .T. ) ;
#179 = ORIENTED_EDGE ( 'NONE', *, *, #200, .T. ) ;
#180 =( NAMED_UNIT ( * ) SI_UNIT ( $, .STERADIAN. ) SOLID_ANGLE_UNIT ( ) );
#181 = ORIENTED_EDGE ( 'NONE', *, *, #118, .F. ) ;
#182 = AXIS2_PLACEMENT_3D ( 'NONE', #185, #16, #155 ) ;
#183 = DIRECTION ( 'NONE',  ( 0.0000000000000000000, 0.0000000000000000000, 1.000000000000000000 ) ) ;
#184 = UNCERTAINTY_MEASURE_WITH_UNIT (LENGTH_MEASURE( 1.000000000000000082E-05 ), #19, 'distance_accuracy_value', 'NONE');
#185 = CARTESIAN_POINT ( 'NONE',  ( 0.0000000000000000000, 0.0000000000000000000, 0.0000000000000000000 ) ) ;
#186 = AXIS2_PLACEMENT_3D ( 'NONE', #69, #87, #228 ) ;
#187 = FACE_OUTER_BOUND ( 'NONE', #163, .T. ) ;
#188 = DIRECTION ( 'NONE',  ( -0.0000000000000000000, -0.0000000000000000000, -1.000000000000000000 ) ) ;
#189 = ADVANCED_FACE ( 'NONE', ( #187 ), #34, .T. ) ;
#190 = FILL_AREA_STYLE_COLOUR ( '', #58 ) ;
#191 = ADVANCED_FACE ( 'NONE', ( #241 ), #237, .T. ) ;
#192 =( CONVERSION_BASED_UNIT ( 'INCH', #113 ) LENGTH_UNIT ( ) NAMED_UNIT ( #52 ) );
#193 = CIRCLE ( 'NONE', #105, 0.1031100000000002570 ) ;
#194 = DIRECTION ( 'NONE',  ( -1.000000000000000000, 0.0000000000000000000, 0.0000000000000000000 ) ) ;
#195 = ADVANCED_FACE ( 'NONE', ( #209 ), #114, .T. ) ;
#196 = UNCERTAINTY_MEASURE_WITH_UNIT (LENGTH_MEASURE( 1.000000000000000082E-05 ), #192, 'distance_accuracy_value', 'NONE');
#197 = ORIENTED_EDGE ( 'NONE', *, *, #24, .T. ) ;
#198 = AXIS2_PLACEMENT_3D ( 'NONE', #109, #131, #12 ) ;
#199 = SURFACE_STYLE_FILL_AREA ( #219 ) ;
#200 = EDGE_CURVE ( 'NONE', #79, #77, #51, .T. ) ;
#201 = ORIENTED_EDGE ( 'NONE', *, *, #221, .F. ) ;
#202 = FACE_OUTER_BOUND ( 'NONE', #218, .T. ) ;
#203 = EDGE_CURVE ( 'NONE', #10, #42, #165, .T. ) ;
#204 = DIRECTION ( 'NONE',  ( 0.0000000000000000000, 0.0000000000000000000, -1.000000000000000000 ) ) ;
#205 = DIRECTION ( 'NONE',  ( 1.000000000000000000, 0.0000000000000000000, 0.0000000000000000000 ) ) ;
#206 =( LENGTH_UNIT ( ) NAMED_UNIT ( * ) SI_UNIT ( $, .METRE. ) );
#207 = DIRECTION ( 'NONE',  ( -0.0000000000000000000, -0.0000000000000000000, -1.000000000000000000 ) ) ;
#208 = CARTESIAN_POINT ( 'NONE',  ( 0.1181100000000000066, 1.446430334472939084E-17, 2.229093999999999465 ) ) ;
#209 = FACE_OUTER_BOUND ( 'NONE', #149, .T. ) ;
#210 = AXIS2_PLACEMENT_3D ( 'NONE', #45, #188, #129 ) ;
#211 = DIRECTION ( 'NONE',  ( 1.000000000000000000, 0.0000000000000000000, 0.0000000000000000000 ) ) ;
#212 = VECTOR ( 'NONE', #172, 39.37007874015748854 ) ;
#213 = DIRECTION ( 'NONE',  ( 0.0000000000000000000, 0.0000000000000000000, 1.000000000000000000 ) ) ;
#214 = DIRECTION ( 'NONE',  ( 0.0000000000000000000, 0.0000000000000000000, 1.000000000000000000 ) ) ;
#215 = ORIENTED_EDGE ( 'NONE', *, *, #240, .F. ) ;
#216 = AXIS2_PLACEMENT_3D ( 'NONE', #64, #151, #31 ) ;
#217 = EDGE_LOOP ( 'NONE', ( #215, #197, #125, #181 ) ) ;
#218 = EDGE_LOOP ( 'NONE', ( #124, #98 ) ) ;
#219 = FILL_AREA_STYLE ('',( #147 ) ) ;
#220 = AXIS2_PLACEMENT_3D ( 'NONE', #108, #207, #65 ) ;
#221 = EDGE_CURVE ( 'NONE', #61, #81, #99, .T. ) ;
#222 = CARTESIAN_POINT ( 'NONE',  ( 0.0000000000000000000, 0.0000000000000000000, 2.244094000000000033 ) ) ;
#223 = CARTESIAN_POINT ( 'NONE',  ( 0.0000000000000000000, 0.0000000000000000000, 2.244094000000000033 ) ) ;
#224 = LINE ( 'NONE', #62, #48 ) ;
#225 = DIRECTION ( 'NONE',  ( 0.7071067811865358044, 8.659560562354788645E-17, -0.7071067811865590080 ) ) ;
#226 = AXIS2_PLACEMENT_3D ( 'NONE', #223, #183, #15 ) ;
#227 = ADVANCED_FACE ( 'NONE', ( #178 ), #29, .T. ) ;
#228 = DIRECTION ( 'NONE',  ( -1.000000000000000000, 0.0000000000000000000, 0.0000000000000000000 ) ) ;
#229 = CARTESIAN_POINT ( 'NONE',  ( 0.003936999999999995191, 0.0000000000000000000, 0.0000000000000000000 ) ) ;
#230 = AXIS2_PLACEMENT_3D ( 'NONE', #137, #90, #140 ) ;
#231 = DIMENSIONAL_EXPONENTS ( 1.000000000000000000, 0.0000000000000000000, 0.0000000000000000000, 0.0000000000000000000, 0.0000000000000000000, 0.0000000000000000000, 0.0000000000000000000 ) ;
#232 = APPLICATION_PROTOCOL_DEFINITION ( 'draft international standard', 'automotive_design', 1998, #154 ) ;
#233 = VECTOR ( 'NONE', #168, 39.37007874015748143 ) ;
#234 = ORIENTED_EDGE ( 'NONE', *, *, #7, .T. ) ;
#235 = EDGE_CURVE ( 'NONE', #238, #79, #139, .T. ) ;
#236 = ORIENTED_EDGE ( 'NONE', *, *, #70, .F. ) ;
#237 = CONICAL_SURFACE ( 'NONE', #6, 0.1031100000000002570, 0.7853981633974318477 ) ;
#238 = VERTEX_POINT ( 'NONE', #135 ) ;
#239 = ORIENTED_EDGE ( 'NONE', *, *, #200, .F. ) ;
#240 = EDGE_CURVE ( 'NONE', #81, #61, #193, .T. ) ;
#241 = FACE_OUTER_BOUND ( 'NONE', #217, .T. ) ;
#242 = ORIENTED_EDGE ( 'NONE', *, *, #138, .T. ) ;
#243 = PRODUCT_DEFINITION_FORMATION_WITH_SPECIFIED_SOURCE ( 'ANY', '', #8, .NOT_KNOWN. ) ;
#244 = CARTESIAN_POINT ( 'NONE',  ( 0.1181100000000000066, 1.446430334472939084E-17, 0.4260994368525598541 ) ) ;
#245 = LINE ( 'NONE', #85, #233 ) ;
#246 = EDGE_CURVE ( 'NONE', #42, #77, #38, .T. ) ;
#247 = DIRECTION ( 'NONE',  ( -0.0000000000000000000, -0.0000000000000000000, -1.000000000000000000 ) ) ;
#248 = PRESENTATION_LAYER_ASSIGNMENT (  '', '', ( #126 ) ) ;
#249 = PRESENTATION_STYLE_ASSIGNMENT (( #20 ) ) ;
ENDSEC;
END-ISO-10303-21;
