ISO-10303-21;
HEADER;
FILE_DESCRIPTION (( 'STEP AP214' ),
    '1' );
FILE_NAME ('59742.STEP',
    '2023-07-24T15:32:06',
    ( '' ),
    ( '' ),
    'SwSTEP 2.0',
    'SolidWorks 2023',
    '' );
FILE_SCHEMA (( 'AUTOMOTIVE_DESIGN' ));
ENDSEC;

DATA;
#1 = MECHANICAL_DESIGN_GEOMETRIC_PRESENTATION_REPRESENTATION (  '', ( #211 ), #235 ) ;
#2 = FACE_OUTER_BOUND ( 'NONE', #150, .T. ) ;
#3 = CIRCLE ( 'NONE', #193, 4.000000000000000000 ) ;
#4 = DIRECTION ( 'NONE',  ( -4.697880814296055710E-17, 1.000000000000000000, -0.000000000000000000 ) ) ;
#5 = ORIENTED_EDGE ( 'NONE', *, *, #86, .F. ) ;
#6 = PRESENTATION_STYLE_ASSIGNMENT (( #175 ) ) ;
#7 = CARTESIAN_POINT ( 'NONE',  ( 3.184081677783117402E-15, 63.00000000000000000, 0.000000000000000000 ) ) ;
#8 = DIRECTION ( 'NONE',  ( 0.000000000000000000, -0.000000000000000000, 1.000000000000000000 ) ) ;
#9 = VERTEX_POINT ( 'NONE', #44 ) ;
#10 = CLOSED_SHELL ( 'NONE', ( #23, #317, #264, #178, #256, #363 ) ) ;
#11 = CARTESIAN_POINT ( 'NONE',  ( 4.898587196589412829E-16, 1.000000000000000000, 4.000000000000000000 ) ) ;
#12 = EDGE_CURVE ( 'NONE', #250, #288, #108, .T. ) ;
#13 =( GEOMETRIC_REPRESENTATION_CONTEXT ( 3 ) GLOBAL_UNCERTAINTY_ASSIGNED_CONTEXT ( ( #269 ) ) GLOBAL_UNIT_ASSIGNED_CONTEXT ( ( #170, #345, #93 ) ) REPRESENTATION_CONTEXT ( 'NONE', 'WORKASPACE' ) );
#14 = SURFACE_SIDE_STYLE ('',( #97 ) ) ;
#15 = CARTESIAN_POINT ( 'NONE',  ( 0.000000000000000000, 0.000000000000000000, 0.000000000000000000 ) ) ;
#16 = SURFACE_STYLE_FILL_AREA ( #172 ) ;
#17 = PRODUCT_DEFINITION ( 'UNKNOWN', '', #53, #270 ) ;
#18 = SURFACE_STYLE_USAGE ( .BOTH. , #113 ) ;
#19 = AXIS2_PLACEMENT_3D ( 'NONE', #92, #119, #191 ) ;
#20 = DIRECTION ( 'NONE',  ( -1.000000000000000000, -4.697880814296055710E-17, 0.000000000000000000 ) ) ;
#21 = CARTESIAN_POINT ( 'NONE',  ( 0.000000000000000000, 0.000000000000000000, 0.000000000000000000 ) ) ;
#22 = CARTESIAN_POINT ( 'NONE',  ( 0.000000000000000000, 0.000000000000000000, 0.000000000000000000 ) ) ;
#23 = ADVANCED_FACE ( 'NONE', ( #272 ), #49, .T. ) ;
#24 = AXIS2_PLACEMENT_3D ( 'NONE', #323, #249, #278 ) ;
#25 = STYLED_ITEM ( 'NONE', ( #87 ), #363 ) ;
#26 = ORIENTED_EDGE ( 'NONE', *, *, #287, .F. ) ;
#27 = DIRECTION ( 'NONE',  ( -1.000000000000000000, 0.000000000000000000, 0.000000000000000000 ) ) ;
#28 = CARTESIAN_POINT ( 'NONE',  ( 0.000000000000000000, 0.000000000000000000, 0.000000000000000000 ) ) ;
#29 = LINE ( 'NONE', #251, #183 ) ;
#30 = STYLED_ITEM ( 'NONE', ( #227 ), #317 ) ;
#31 = ORIENTED_EDGE ( 'NONE', *, *, #370, .F. ) ;
#32 = DIRECTION ( 'NONE',  ( 0.000000000000000000, 0.000000000000000000, -1.000000000000000000 ) ) ;
#33 = ORIENTED_EDGE ( 'NONE', *, *, #88, .T. ) ;
#34 =( NAMED_UNIT ( * ) PLANE_ANGLE_UNIT ( ) SI_UNIT ( $, .RADIAN. ) );
#35 = CARTESIAN_POINT ( 'NONE',  ( 5.510910596163088569E-16, 0.000000000000000000, 4.000000000000000000 ) ) ;
#36 = ORIENTED_EDGE ( 'NONE', *, *, #265, .F. ) ;
#37 = CARTESIAN_POINT ( 'NONE',  ( 5.000000000000000000, 20.00000000000000355, 6.123233995736762338E-16 ) ) ;
#38 = LINE ( 'NONE', #152, #258 ) ;
#39 = DIRECTION ( 'NONE',  ( 0.000000000000000000, 0.000000000000000000, -1.000000000000000000 ) ) ;
#40 = CIRCLE ( 'NONE', #90, 4.999999999999996447 ) ;
#41 =( GEOMETRIC_REPRESENTATION_CONTEXT ( 3 ) GLOBAL_UNCERTAINTY_ASSIGNED_CONTEXT ( ( #306 ) ) GLOBAL_UNIT_ASSIGNED_CONTEXT ( ( #61, #153, #125 ) ) REPRESENTATION_CONTEXT ( 'NONE', 'WORKASPACE' ) );
#42 = PRODUCT_RELATED_PRODUCT_CATEGORY ( 'part', '', ( #135 ) ) ;
#43 = CIRCLE ( 'NONE', #303, 5.000000000000000000 ) ;
#44 = CARTESIAN_POINT ( 'NONE',  ( 6.123233995736766282E-16, 20.00000000000000000, 5.000000000000000000 ) ) ;
#45 = DIRECTION ( 'NONE',  ( -4.697880814296055710E-17, 1.000000000000000000, 0.000000000000000000 ) ) ;
#46 = APPLICATION_PROTOCOL_DEFINITION ( 'draft international standard', 'automotive_design', 1998, #247 ) ;
#47 = AXIS2_PLACEMENT_3D ( 'NONE', #136, #367, #163 ) ;
#48 = CARTESIAN_POINT ( 'NONE',  ( -4.999999999999992895, 63.00000000000000000, 0.000000000000000000 ) ) ;
#49 = CYLINDRICAL_SURFACE ( 'NONE', #228, 5.000000000000000000 ) ;
#50 = DIRECTION ( 'NONE',  ( -0.000000000000000000, -1.000000000000000000, -0.000000000000000000 ) ) ;
#51 = DIRECTION ( 'NONE',  ( 0.000000000000000000, 0.000000000000000000, -1.000000000000000000 ) ) ;
#52 = MECHANICAL_DESIGN_GEOMETRIC_PRESENTATION_REPRESENTATION (  '', ( #333 ), #138 ) ;
#53 = PRODUCT_DEFINITION_FORMATION_WITH_SPECIFIED_SOURCE ( 'ANY', '', #135, .NOT_KNOWN. ) ;
#54 = MANIFOLD_SOLID_BREP ( 'Revolve - Tool Body (Straight Shanked)', #245 ) ;
#55 = EDGE_LOOP ( 'NONE', ( #31, #234, #259, #281 ) ) ;
#56 = SURFACE_STYLE_FILL_AREA ( #224 ) ;
#57 = STYLED_ITEM ( 'NONE', ( #154 ), #23 ) ;
#58 = SURFACE_SIDE_STYLE ('',( #318 ) ) ;
#59 =( GEOMETRIC_REPRESENTATION_CONTEXT ( 3 ) GLOBAL_UNCERTAINTY_ASSIGNED_CONTEXT ( ( #339 ) ) GLOBAL_UNIT_ASSIGNED_CONTEXT ( ( #62, #356, #196 ) ) REPRESENTATION_CONTEXT ( 'NONE', 'WORKASPACE' ) );
#60 = DIRECTION ( 'NONE',  ( -4.697880814296055710E-17, 1.000000000000000000, -0.000000000000000000 ) ) ;
#61 =( LENGTH_UNIT ( ) NAMED_UNIT ( * ) SI_UNIT ( .MILLI., .METRE. ) );
#62 =( LENGTH_UNIT ( ) NAMED_UNIT ( * ) SI_UNIT ( .MILLI., .METRE. ) );
#63 =( NAMED_UNIT ( * ) PLANE_ANGLE_UNIT ( ) SI_UNIT ( $, .RADIAN. ) );
#64 = ORIENTED_EDGE ( 'NONE', *, *, #215, .T. ) ;
#65 = DIRECTION ( 'NONE',  ( 0.000000000000000000, 0.000000000000000000, -1.000000000000000000 ) ) ;
#66 = MANIFOLD_SOLID_BREP ( 'Revolve - Cutting Edge', #10 ) ;
#67 = DIRECTION ( 'NONE',  ( -1.000000000000000000, 0.000000000000000000, 0.000000000000000000 ) ) ;
#68 = CARTESIAN_POINT ( 'NONE',  ( -4.999999999999989342, 20.00000000000000355, 0.000000000000000000 ) ) ;
#69 = CARTESIAN_POINT ( 'NONE',  ( 0.000000000000000000, 20.00000000000000000, -5.000000000000000000 ) ) ;
#70 = FILL_AREA_STYLE_COLOUR ( '', #362 ) ;
#71 = COLOUR_RGB ( '',1.000000000000000000, 0.000000000000000000, 0.000000000000000000 ) ;
#72 = TOROIDAL_SURFACE ( 'NONE', #206, 4.000000000000000000, 1.000000000000000000 ) ;
#73 = ORIENTED_EDGE ( 'NONE', *, *, #76, .T. ) ;
#74 = EDGE_LOOP ( 'NONE', ( #298, #237, #334, #230 ) ) ;
#75 = STYLED_ITEM ( 'NONE', ( #309 ), #178 ) ;
#76 = EDGE_CURVE ( 'NONE', #324, #182, #307, .T. ) ;
#77 = DIRECTION ( 'NONE',  ( 0.000000000000000000, 0.000000000000000000, -1.000000000000000000 ) ) ;
#78 = DIRECTION ( 'NONE',  ( -0.000000000000000000, -1.000000000000000000, -0.000000000000000000 ) ) ;
#79 = SHAPE_DEFINITION_REPRESENTATION ( #148, #202 ) ;
#80 = MECHANICAL_DESIGN_GEOMETRIC_PRESENTATION_REPRESENTATION (  '', ( #30 ), #59 ) ;
#81 = SURFACE_SIDE_STYLE ('',( #301 ) ) ;
#82 = ADVANCED_FACE ( 'NONE', ( #185 ), #341, .F. ) ;
#83 = SURFACE_STYLE_FILL_AREA ( #143 ) ;
#84 = FILL_AREA_STYLE_COLOUR ( '', #275 ) ;
#85 = PRESENTATION_STYLE_ASSIGNMENT (( #18 ) ) ;
#86 = EDGE_CURVE ( 'NONE', #324, #354, #205, .T. ) ;
#87 = PRESENTATION_STYLE_ASSIGNMENT (( #164 ) ) ;
#88 = EDGE_CURVE ( 'NONE', #252, #182, #40, .T. ) ;
#89 = PRESENTATION_LAYER_ASSIGNMENT (  '', '', ( #57 ) ) ;
#90 = AXIS2_PLACEMENT_3D ( 'NONE', #112, #242, #216 ) ;
#91 =( NAMED_UNIT ( * ) SI_UNIT ( $, .STERADIAN. ) SOLID_ANGLE_UNIT ( ) );
#92 = CARTESIAN_POINT ( 'NONE',  ( 0.000000000000000000, 1.000000000000000000, 0.000000000000000000 ) ) ;
#93 =( NAMED_UNIT ( * ) SI_UNIT ( $, .STERADIAN. ) SOLID_ANGLE_UNIT ( ) );
#94 =( NAMED_UNIT ( * ) SI_UNIT ( $, .STERADIAN. ) SOLID_ANGLE_UNIT ( ) );
#95 = DIRECTION ( 'NONE',  ( 0.000000000000000000, 0.000000000000000000, -1.000000000000000000 ) ) ;
#96 = ORIENTED_EDGE ( 'NONE', *, *, #215, .F. ) ;
#97 = SURFACE_STYLE_FILL_AREA ( #158 ) ;
#98 = AXIS2_PLACEMENT_3D ( 'NONE', #147, #60, #248 ) ;
#99 = SURFACE_STYLE_USAGE ( .BOTH. , #277 ) ;
#100 = ORIENTED_EDGE ( 'NONE', *, *, #115, .T. ) ;
#101 = ORIENTED_EDGE ( 'NONE', *, *, #76, .F. ) ;
#102 = DIRECTION ( 'NONE',  ( 0.000000000000000000, 0.000000000000000000, -1.000000000000000000 ) ) ;
#103 = ORIENTED_EDGE ( 'NONE', *, *, #88, .F. ) ;
#104 = AXIS2_PLACEMENT_3D ( 'NONE', #160, #204, #218 ) ;
#105 = AXIS2_PLACEMENT_3D ( 'NONE', #121, #222, #32 ) ;
#106 = DIRECTION ( 'NONE',  ( -1.000000000000000000, 0.000000000000000000, 0.000000000000000000 ) ) ;
#107 = EDGE_CURVE ( 'NONE', #9, #226, #43, .T. ) ;
#108 = CIRCLE ( 'NONE', #104, 5.000000000000000000 ) ;
#109 = CARTESIAN_POINT ( 'NONE',  ( 6.123233995736766282E-16, 1.000000000000000000, 5.000000000000000000 ) ) ;
#110 = EDGE_CURVE ( 'NONE', #161, #122, #310, .T. ) ;
#111 = PRODUCT_CONTEXT ( 'NONE', #247, 'mechanical' ) ;
#112 = CARTESIAN_POINT ( 'NONE',  ( 3.184081677783117402E-15, 63.00000000000000000, 0.000000000000000000 ) ) ;
#113 = SURFACE_SIDE_STYLE ('',( #83 ) ) ;
#114 = FILL_AREA_STYLE_COLOUR ( '', #117 ) ;
#115 = EDGE_CURVE ( 'NONE', #122, #161, #3, .T. ) ;
#116 = UNCERTAINTY_MEASURE_WITH_UNIT (LENGTH_MEASURE( 1.000000000000000082E-05 ), #217, 'distance_accuracy_value', 'NONE');
#117 = COLOUR_RGB ( '',0.7921568627450980005, 0.8196078431372548767, 0.9333333333333333481 ) ;
#118 = AXIS2_PLACEMENT_3D ( 'NONE', #361, #126, #65 ) ;
#119 = DIRECTION ( 'NONE',  ( -0.000000000000000000, -1.000000000000000000, -0.000000000000000000 ) ) ;
#120 = ADVANCED_FACE ( 'NONE', ( #168 ), #145, .F. ) ;
#121 = CARTESIAN_POINT ( 'NONE',  ( 0.000000000000000000, 1.000000000000000000, 0.000000000000000000 ) ) ;
#122 = VERTEX_POINT ( 'NONE', #35 ) ;
#123 = CARTESIAN_POINT ( 'NONE',  ( 5.204170427930421283E-15, 20.00000000000000355, 0.000000000000000000 ) ) ;
#124 = DIRECTION ( 'NONE',  ( -4.697880814296055710E-17, 1.000000000000000000, -0.000000000000000000 ) ) ;
#125 =( NAMED_UNIT ( * ) SI_UNIT ( $, .STERADIAN. ) SOLID_ANGLE_UNIT ( ) );
#126 = DIRECTION ( 'NONE',  ( -0.000000000000000000, -1.000000000000000000, -0.000000000000000000 ) ) ;
#127 = COLOUR_RGB ( '',0.7921568627450980005, 0.8196078431372548767, 0.9333333333333333481 ) ;
#128 = DIRECTION ( 'NONE',  ( -1.224646799147353454E-16, 0.000000000000000000, -1.000000000000000000 ) ) ;
#129 =( NAMED_UNIT ( * ) PLANE_ANGLE_UNIT ( ) SI_UNIT ( $, .RADIAN. ) );
#130 = ORIENTED_EDGE ( 'NONE', *, *, #86, .T. ) ;
#131 = ADVANCED_FACE ( 'NONE', ( #2 ), #225, .T. ) ;
#132 = DIRECTION ( 'NONE',  ( 0.000000000000000000, -1.000000000000000000, -0.000000000000000000 ) ) ;
#133 = PRESENTATION_LAYER_ASSIGNMENT (  '', '', ( #75 ) ) ;
#134 = ORIENTED_EDGE ( 'NONE', *, *, #184, .F. ) ;
#135 = PRODUCT ( '59742', '59742', '', ( #111 ) ) ;
#136 = CARTESIAN_POINT ( 'NONE',  ( 5.204170427930421283E-15, 20.00000000000000355, 0.000000000000000000 ) ) ;
#137 = PRESENTATION_LAYER_ASSIGNMENT (  '', '', ( #332 ) ) ;
#138 =( GEOMETRIC_REPRESENTATION_CONTEXT ( 3 ) GLOBAL_UNCERTAINTY_ASSIGNED_CONTEXT ( ( #276 ) ) GLOBAL_UNIT_ASSIGNED_CONTEXT ( ( #312, #34, #352 ) ) REPRESENTATION_CONTEXT ( 'NONE', 'WORKASPACE' ) );
#139 = FACE_OUTER_BOUND ( 'NONE', #55, .T. ) ;
#140 = CARTESIAN_POINT ( 'NONE',  ( 0.000000000000000000, 20.00000000000000000, 0.000000000000000000 ) ) ;
#141 = DIRECTION ( 'NONE',  ( -0.000000000000000000, -1.000000000000000000, -0.000000000000000000 ) ) ;
#142 = FACE_OUTER_BOUND ( 'NONE', #192, .T. ) ;
#143 = FILL_AREA_STYLE ('',( #114 ) ) ;
#144 = CIRCLE ( 'NONE', #321, 4.999999999999996447 ) ;
#145 = PLANE ( 'NONE',  #24 ) ;
#146 = EDGE_CURVE ( 'NONE', #226, #288, #314, .T. ) ;
#147 = CARTESIAN_POINT ( 'NONE',  ( 3.184081677783117402E-15, 63.00000000000000000, 0.000000000000000000 ) ) ;
#148 = PRODUCT_DEFINITION_SHAPE ( 'NONE', 'NONE',  #17 ) ;
#149 = SURFACE_STYLE_USAGE ( .BOTH. , #14 ) ;
#150 = EDGE_LOOP ( 'NONE', ( #200, #73, #103, #134 ) ) ;
#151 = AXIS2_PLACEMENT_3D ( 'NONE', #11, #201, #128 ) ;
#152 = CARTESIAN_POINT ( 'NONE',  ( 6.123233995736766282E-16, 0.000000000000000000, 5.000000000000000000 ) ) ;
#153 =( NAMED_UNIT ( * ) PLANE_ANGLE_UNIT ( ) SI_UNIT ( $, .RADIAN. ) );
#154 = PRESENTATION_STYLE_ASSIGNMENT (( #149 ) ) ;
#155 =( LENGTH_UNIT ( ) NAMED_UNIT ( * ) SI_UNIT ( .MILLI., .METRE. ) );
#156 = ORIENTED_EDGE ( 'NONE', *, *, #107, .F. ) ;
#157 = DIRECTION ( 'NONE',  ( -0.000000000000000000, -1.000000000000000000, -0.000000000000000000 ) ) ;
#158 = FILL_AREA_STYLE ('',( #344 ) ) ;
#159 = DIRECTION ( 'NONE',  ( -4.697880814296055710E-17, 1.000000000000000000, -0.000000000000000000 ) ) ;
#160 = CARTESIAN_POINT ( 'NONE',  ( 0.000000000000000000, 1.000000000000000000, 0.000000000000000000 ) ) ;
#161 = VERTEX_POINT ( 'NONE', #358 ) ;
#162 = MECHANICAL_DESIGN_GEOMETRIC_PRESENTATION_REPRESENTATION (  '', ( #186 ), #220 ) ;
#163 = DIRECTION ( 'NONE',  ( -1.000000000000000000, 0.000000000000000000, 0.000000000000000000 ) ) ;
#164 = SURFACE_STYLE_USAGE ( .BOTH. , #343 ) ;
#165 = CIRCLE ( 'NONE', #151, 1.000000000000000000 ) ;
#166 = CARTESIAN_POINT ( 'NONE',  ( 0.000000000000000000, 0.000000000000000000, 0.000000000000000000 ) ) ;
#167 = DIRECTION ( 'NONE',  ( 0.000000000000000000, 0.000000000000000000, -1.000000000000000000 ) ) ;
#168 = FACE_OUTER_BOUND ( 'NONE', #319, .T. ) ;
#169 =( NAMED_UNIT ( * ) PLANE_ANGLE_UNIT ( ) SI_UNIT ( $, .RADIAN. ) );
#170 =( LENGTH_UNIT ( ) NAMED_UNIT ( * ) SI_UNIT ( .MILLI., .METRE. ) );
#171 = FILL_AREA_STYLE ('',( #253 ) ) ;
#172 = FILL_AREA_STYLE ('',( #84 ) ) ;
#173 = DIRECTION ( 'NONE',  ( -0.000000000000000000, -1.000000000000000000, -0.000000000000000000 ) ) ;
#174 = ORIENTED_EDGE ( 'NONE', *, *, #184, .T. ) ;
#175 = SURFACE_STYLE_USAGE ( .BOTH. , #58 ) ;
#176 = CARTESIAN_POINT ( 'NONE',  ( 5.000000000000000000, 63.00000000000000000, 6.123233995736762338E-16 ) ) ;
#177 = ORIENTED_EDGE ( 'NONE', *, *, #115, .F. ) ;
#178 = ADVANCED_FACE ( 'NONE', ( #194 ), #296, .T. ) ;
#179 = CYLINDRICAL_SURFACE ( 'NONE', #188, 4.999999999999995559 ) ;
#180 = VECTOR ( 'NONE', #173, 1000.000000000000000 ) ;
#181 = SURFACE_SIDE_STYLE ('',( #56 ) ) ;
#182 = VERTEX_POINT ( 'NONE', #176 ) ;
#183 = VECTOR ( 'NONE', #4, 1000.000000000000000 ) ;
#184 = EDGE_CURVE ( 'NONE', #354, #252, #29, .T. ) ;
#185 = FACE_OUTER_BOUND ( 'NONE', #198, .T. ) ;
#186 = STYLED_ITEM ( 'NONE', ( #244 ), #256 ) ;
#187 = AXIS2_PLACEMENT_3D ( 'NONE', #15, #132, #102 ) ;
#188 = AXIS2_PLACEMENT_3D ( 'NONE', #292, #159, #260 ) ;
#189 = CARTESIAN_POINT ( 'NONE',  ( 0.000000000000000000, 0.000000000000000000, -5.000000000000000000 ) ) ;
#190 = CARTESIAN_POINT ( 'NONE',  ( 0.000000000000000000, 20.00000000000000000, 0.000000000000000000 ) ) ;
#191 = DIRECTION ( 'NONE',  ( 0.000000000000000000, 0.000000000000000000, -1.000000000000000000 ) ) ;
#192 = EDGE_LOOP ( 'NONE', ( #261, #100 ) ) ;
#193 = AXIS2_PLACEMENT_3D ( 'NONE', #22, #273, #51 ) ;
#194 = FACE_OUTER_BOUND ( 'NONE', #315, .T. ) ;
#195 = EDGE_LOOP ( 'NONE', ( #232, #255, #223, #291 ) ) ;
#196 =( NAMED_UNIT ( * ) SI_UNIT ( $, .STERADIAN. ) SOLID_ANGLE_UNIT ( ) );
#197 = EDGE_CURVE ( 'NONE', #288, #250, #294, .T. ) ;
#198 = EDGE_LOOP ( 'NONE', ( #36, #5 ) ) ;
#199 = CARTESIAN_POINT ( 'NONE',  ( 0.000000000000000000, 1.000000000000000000, 0.000000000000000000 ) ) ;
#200 = ORIENTED_EDGE ( 'NONE', *, *, #265, .T. ) ;
#201 = DIRECTION ( 'NONE',  ( 1.000000000000000000, 0.000000000000000000, -1.224646799147353207E-16 ) ) ;
#202 = ADVANCED_BREP_SHAPE_REPRESENTATION ( '59742', ( #66, #54, #263 ), #41 ) ;
#203 = AXIS2_PLACEMENT_3D ( 'NONE', #190, #280, #8 ) ;
#204 = DIRECTION ( 'NONE',  ( -0.000000000000000000, -1.000000000000000000, -0.000000000000000000 ) ) ;
#205 = CIRCLE ( 'NONE', #47, 4.999999999999994671 ) ;
#206 = AXIS2_PLACEMENT_3D ( 'NONE', #199, #157, #39 ) ;
#207 = FILL_AREA_STYLE_COLOUR ( '', #71 ) ;
#208 = CARTESIAN_POINT ( 'NONE',  ( 4.999999999999999112, 63.00000000000000000, 6.123233995736761352E-16 ) ) ;
#209 = PRESENTATION_STYLE_ASSIGNMENT (( #295 ) ) ;
#210 = APPLICATION_PROTOCOL_DEFINITION ( 'draft international standard', 'automotive_design', 1998, #289 ) ;
#211 = STYLED_ITEM ( 'NONE', ( #85 ), #66 ) ;
#212 = CARTESIAN_POINT ( 'NONE',  ( 0.000000000000000000, 0.000000000000000000, 0.000000000000000000 ) ) ;
#213 = FILL_AREA_STYLE_COLOUR ( '', #284 ) ;
#214 = CIRCLE ( 'NONE', #283, 4.999999999999994671 ) ;
#215 = EDGE_CURVE ( 'NONE', #182, #252, #144, .T. ) ;
#216 = DIRECTION ( 'NONE',  ( -1.000000000000000000, 0.000000000000000000, 0.000000000000000000 ) ) ;
#217 =( LENGTH_UNIT ( ) NAMED_UNIT ( * ) SI_UNIT ( .MILLI., .METRE. ) );
#218 = DIRECTION ( 'NONE',  ( 0.000000000000000000, 0.000000000000000000, -1.000000000000000000 ) ) ;
#219 = MECHANICAL_DESIGN_GEOMETRIC_PRESENTATION_REPRESENTATION (  '', ( #332 ), #266 ) ;
#220 =( GEOMETRIC_REPRESENTATION_CONTEXT ( 3 ) GLOBAL_UNCERTAINTY_ASSIGNED_CONTEXT ( ( #347 ) ) GLOBAL_UNIT_ASSIGNED_CONTEXT ( ( #299, #368, #337 ) ) REPRESENTATION_CONTEXT ( 'NONE', 'WORKASPACE' ) );
#221 = PLANE ( 'NONE',  #203 ) ;
#222 = DIRECTION ( 'NONE',  ( -0.000000000000000000, -1.000000000000000000, -0.000000000000000000 ) ) ;
#223 = ORIENTED_EDGE ( 'NONE', *, *, #197, .F. ) ;
#224 = FILL_AREA_STYLE ('',( #70 ) ) ;
#225 = CYLINDRICAL_SURFACE ( 'NONE', #98, 4.999999999999995559 ) ;
#226 = VERTEX_POINT ( 'NONE', #69 ) ;
#227 = PRESENTATION_STYLE_ASSIGNMENT (( #325 ) ) ;
#228 = AXIS2_PLACEMENT_3D ( 'NONE', #28, #348, #95 ) ;
#229 = AXIS2_PLACEMENT_3D ( 'NONE', #330, #106, #239 ) ;
#230 = ORIENTED_EDGE ( 'NONE', *, *, #238, .F. ) ;
#231 = FACE_OUTER_BOUND ( 'NONE', #326, .T. ) ;
#232 = ORIENTED_EDGE ( 'NONE', *, *, #287, .T. ) ;
#233 = DIRECTION ( 'NONE',  ( -4.697880814296055710E-17, 1.000000000000000000, -0.000000000000000000 ) ) ;
#234 = ORIENTED_EDGE ( 'NONE', *, *, #107, .T. ) ;
#235 =( GEOMETRIC_REPRESENTATION_CONTEXT ( 3 ) GLOBAL_UNCERTAINTY_ASSIGNED_CONTEXT ( ( #116 ) ) GLOBAL_UNIT_ASSIGNED_CONTEXT ( ( #217, #243, #336 ) ) REPRESENTATION_CONTEXT ( 'NONE', 'WORKASPACE' ) );
#236 = PRESENTATION_LAYER_ASSIGNMENT (  '', '', ( #30 ) ) ;
#237 = ORIENTED_EDGE ( 'NONE', *, *, #297, .T. ) ;
#238 = EDGE_CURVE ( 'NONE', #288, #161, #357, .T. ) ;
#239 = DIRECTION ( 'NONE',  ( 0.000000000000000000, 0.000000000000000000, 1.000000000000000000 ) ) ;
#240 = COLOUR_RGB ( '',1.000000000000000000, 0.000000000000000000, 0.000000000000000000 ) ;
#241 = CIRCLE ( 'NONE', #118, 5.000000000000000000 ) ;
#242 = DIRECTION ( 'NONE',  ( -4.697880814296055710E-17, 1.000000000000000000, -0.000000000000000000 ) ) ;
#243 =( NAMED_UNIT ( * ) PLANE_ANGLE_UNIT ( ) SI_UNIT ( $, .RADIAN. ) );
#244 = PRESENTATION_STYLE_ASSIGNMENT (( #335 ) ) ;
#245 = CLOSED_SHELL ( 'NONE', ( #131, #82, #360, #120 ) ) ;
#246 = UNCERTAINTY_MEASURE_WITH_UNIT (LENGTH_MEASURE( 1.000000000000000082E-05 ), #353, 'distance_accuracy_value', 'NONE');
#247 = APPLICATION_CONTEXT ( 'automotive_design' ) ;
#248 = DIRECTION ( 'NONE',  ( -1.000000000000000000, 0.000000000000000000, 0.000000000000000000 ) ) ;
#249 = DIRECTION ( 'NONE',  ( 4.697880814296055710E-17, -1.000000000000000000, 0.000000000000000000 ) ) ;
#250 = VERTEX_POINT ( 'NONE', #109 ) ;
#251 = CARTESIAN_POINT ( 'NONE',  ( -4.999999999999992006, 63.00000000000000000, 0.000000000000000000 ) ) ;
#252 = VERTEX_POINT ( 'NONE', #48 ) ;
#253 = FILL_AREA_STYLE_COLOUR ( '', #127 ) ;
#254 = SURFACE_STYLE_FILL_AREA ( #349 ) ;
#255 = ORIENTED_EDGE ( 'NONE', *, *, #370, .T. ) ;
#256 = ADVANCED_FACE ( 'NONE', ( #139 ), #364, .T. ) ;
#257 = PLANE ( 'NONE',  #187 ) ;
#258 = VECTOR ( 'NONE', #350, 1000.000000000000000 ) ;
#259 = ORIENTED_EDGE ( 'NONE', *, *, #146, .T. ) ;
#260 = DIRECTION ( 'NONE',  ( -1.000000000000000000, 0.000000000000000000, 0.000000000000000000 ) ) ;
#261 = ORIENTED_EDGE ( 'NONE', *, *, #110, .T. ) ;
#262 = MECHANICAL_DESIGN_GEOMETRIC_PRESENTATION_REPRESENTATION (  '', ( #75 ), #365 ) ;
#263 = AXIS2_PLACEMENT_3D ( 'NONE', #166, #366, #331 ) ;
#264 = ADVANCED_FACE ( 'NONE', ( #142 ), #257, .T. ) ;
#265 = EDGE_CURVE ( 'NONE', #354, #324, #214, .T. ) ;
#266 =( GEOMETRIC_REPRESENTATION_CONTEXT ( 3 ) GLOBAL_UNCERTAINTY_ASSIGNED_CONTEXT ( ( #246 ) ) GLOBAL_UNIT_ASSIGNED_CONTEXT ( ( #353, #63, #313 ) ) REPRESENTATION_CONTEXT ( 'NONE', 'WORKASPACE' ) );
#267 = AXIS2_PLACEMENT_3D ( 'NONE', #21, #141, #77 ) ;
#268 = PRESENTATION_LAYER_ASSIGNMENT (  '', '', ( #25 ) ) ;
#269 = UNCERTAINTY_MEASURE_WITH_UNIT (LENGTH_MEASURE( 1.000000000000000082E-05 ), #170, 'distance_accuracy_value', 'NONE');
#270 = PRODUCT_DEFINITION_CONTEXT ( 'detailed design', #289, 'design' ) ;
#271 = FILL_AREA_STYLE ('',( #207 ) ) ;
#272 = FACE_OUTER_BOUND ( 'NONE', #195, .T. ) ;
#273 = DIRECTION ( 'NONE',  ( -0.000000000000000000, -1.000000000000000000, -0.000000000000000000 ) ) ;
#274 = SURFACE_STYLE_FILL_AREA ( #308 ) ;
#275 = COLOUR_RGB ( '',1.000000000000000000, 0.000000000000000000, 0.000000000000000000 ) ;
#276 = UNCERTAINTY_MEASURE_WITH_UNIT (LENGTH_MEASURE( 1.000000000000000082E-05 ), #312, 'distance_accuracy_value', 'NONE');
#277 = SURFACE_SIDE_STYLE ('',( #254 ) ) ;
#278 = DIRECTION ( 'NONE',  ( 1.000000000000000000, 4.697880814296055710E-17, 0.000000000000000000 ) ) ;
#279 = UNCERTAINTY_MEASURE_WITH_UNIT (LENGTH_MEASURE( 1.000000000000000082E-05 ), #155, 'distance_accuracy_value', 'NONE');
#280 = DIRECTION ( 'NONE',  ( 0.000000000000000000, 1.000000000000000000, 0.000000000000000000 ) ) ;
#281 = ORIENTED_EDGE ( 'NONE', *, *, #12, .F. ) ;
#282 = VECTOR ( 'NONE', #305, 1000.000000000000000 ) ;
#283 = AXIS2_PLACEMENT_3D ( 'NONE', #123, #233, #27 ) ;
#284 = COLOUR_RGB ( '',1.000000000000000000, 0.000000000000000000, 0.000000000000000000 ) ;
#285 = FILL_AREA_STYLE_COLOUR ( '', #329 ) ;
#286 = ORIENTED_EDGE ( 'NONE', *, *, #238, .T. ) ;
#287 = EDGE_CURVE ( 'NONE', #226, #9, #241, .T. ) ;
#288 = VERTEX_POINT ( 'NONE', #320 ) ;
#289 = APPLICATION_CONTEXT ( 'automotive_design' ) ;
#290 = SURFACE_SIDE_STYLE ('',( #16 ) ) ;
#291 = ORIENTED_EDGE ( 'NONE', *, *, #146, .F. ) ;
#292 = CARTESIAN_POINT ( 'NONE',  ( 3.184081677783117402E-15, 63.00000000000000000, 0.000000000000000000 ) ) ;
#293 = MECHANICAL_DESIGN_GEOMETRIC_PRESENTATION_REPRESENTATION (  '', ( #57 ), #355 ) ;
#294 = CIRCLE ( 'NONE', #105, 5.000000000000000000 ) ;
#295 = SURFACE_STYLE_USAGE ( .BOTH. , #290 ) ;
#296 = TOROIDAL_SURFACE ( 'NONE', #19, 4.000000000000000000, 1.000000000000000000 ) ;
#297 = EDGE_CURVE ( 'NONE', #250, #122, #165, .T. ) ;
#298 = ORIENTED_EDGE ( 'NONE', *, *, #197, .T. ) ;
#299 =( LENGTH_UNIT ( ) NAMED_UNIT ( * ) SI_UNIT ( .MILLI., .METRE. ) );
#300 = EDGE_LOOP ( 'NONE', ( #26, #156 ) ) ;
#301 = SURFACE_STYLE_FILL_AREA ( #271 ) ;
#302 = CARTESIAN_POINT ( 'NONE',  ( 5.204170427930421283E-15, 20.00000000000000000, 0.000000000000000000 ) ) ;
#303 = AXIS2_PLACEMENT_3D ( 'NONE', #140, #78, #304 ) ;
#304 = DIRECTION ( 'NONE',  ( 0.000000000000000000, 0.000000000000000000, -1.000000000000000000 ) ) ;
#305 = DIRECTION ( 'NONE',  ( -4.697880814296055710E-17, 1.000000000000000000, -0.000000000000000000 ) ) ;
#306 = UNCERTAINTY_MEASURE_WITH_UNIT (LENGTH_MEASURE( 1.000000000000000082E-05 ), #61, 'distance_accuracy_value', 'NONE');
#307 = LINE ( 'NONE', #208, #282 ) ;
#308 = FILL_AREA_STYLE ('',( #213 ) ) ;
#309 = PRESENTATION_STYLE_ASSIGNMENT (( #99 ) ) ;
#310 = CIRCLE ( 'NONE', #369, 4.000000000000000000 ) ;
#311 = UNCERTAINTY_MEASURE_WITH_UNIT (LENGTH_MEASURE( 1.000000000000000082E-05 ), #322, 'distance_accuracy_value', 'NONE');
#312 =( LENGTH_UNIT ( ) NAMED_UNIT ( * ) SI_UNIT ( .MILLI., .METRE. ) );
#313 =( NAMED_UNIT ( * ) SI_UNIT ( $, .STERADIAN. ) SOLID_ANGLE_UNIT ( ) );
#314 = LINE ( 'NONE', #189, #180 ) ;
#315 = EDGE_LOOP ( 'NONE', ( #351, #359, #286, #177 ) ) ;
#316 = FACE_OUTER_BOUND ( 'NONE', #74, .T. ) ;
#317 = ADVANCED_FACE ( 'NONE', ( #316 ), #72, .T. ) ;
#318 = SURFACE_STYLE_FILL_AREA ( #171 ) ;
#319 = EDGE_LOOP ( 'NONE', ( #33, #64 ) ) ;
#320 = CARTESIAN_POINT ( 'NONE',  ( 0.000000000000000000, 1.000000000000000000, -5.000000000000000000 ) ) ;
#321 = AXIS2_PLACEMENT_3D ( 'NONE', #7, #124, #67 ) ;
#322 =( LENGTH_UNIT ( ) NAMED_UNIT ( * ) SI_UNIT ( .MILLI., .METRE. ) );
#323 = CARTESIAN_POINT ( 'NONE',  ( 5.000000000000000000, 63.00000000000000000, 0.000000000000000000 ) ) ;
#324 = VERTEX_POINT ( 'NONE', #37 ) ;
#325 = SURFACE_STYLE_USAGE ( .BOTH. , #181 ) ;
#326 = EDGE_LOOP ( 'NONE', ( #101, #130, #174, #96 ) ) ;
#327 = FACE_OUTER_BOUND ( 'NONE', #300, .T. ) ;
#328 = PRESENTATION_LAYER_ASSIGNMENT (  '', '', ( #211 ) ) ;
#329 = COLOUR_RGB ( '',1.000000000000000000, 0.000000000000000000, 0.000000000000000000 ) ;
#330 = CARTESIAN_POINT ( 'NONE',  ( 0.000000000000000000, 1.000000000000000000, -4.000000000000000000 ) ) ;
#331 = DIRECTION ( 'NONE',  ( 1.000000000000000000, 0.000000000000000000, 0.000000000000000000 ) ) ;
#332 = STYLED_ITEM ( 'NONE', ( #6 ), #54 ) ;
#333 = STYLED_ITEM ( 'NONE', ( #209 ), #264 ) ;
#334 = ORIENTED_EDGE ( 'NONE', *, *, #110, .F. ) ;
#335 = SURFACE_STYLE_USAGE ( .BOTH. , #81 ) ;
#336 =( NAMED_UNIT ( * ) SI_UNIT ( $, .STERADIAN. ) SOLID_ANGLE_UNIT ( ) );
#337 =( NAMED_UNIT ( * ) SI_UNIT ( $, .STERADIAN. ) SOLID_ANGLE_UNIT ( ) );
#338 = AXIS2_PLACEMENT_3D ( 'NONE', #302, #45, #20 ) ;
#339 = UNCERTAINTY_MEASURE_WITH_UNIT (LENGTH_MEASURE( 1.000000000000000082E-05 ), #62, 'distance_accuracy_value', 'NONE');
#340 = PRESENTATION_LAYER_ASSIGNMENT (  '', '', ( #186 ) ) ;
#341 = PLANE ( 'NONE',  #338 ) ;
#342 = MECHANICAL_DESIGN_GEOMETRIC_PRESENTATION_REPRESENTATION (  '', ( #25 ), #13 ) ;
#343 = SURFACE_SIDE_STYLE ('',( #274 ) ) ;
#344 = FILL_AREA_STYLE_COLOUR ( '', #240 ) ;
#345 =( NAMED_UNIT ( * ) PLANE_ANGLE_UNIT ( ) SI_UNIT ( $, .RADIAN. ) );
#346 = PRESENTATION_LAYER_ASSIGNMENT (  '', '', ( #333 ) ) ;
#347 = UNCERTAINTY_MEASURE_WITH_UNIT (LENGTH_MEASURE( 1.000000000000000082E-05 ), #299, 'distance_accuracy_value', 'NONE');
#348 = DIRECTION ( 'NONE',  ( -0.000000000000000000, -1.000000000000000000, -0.000000000000000000 ) ) ;
#349 = FILL_AREA_STYLE ('',( #285 ) ) ;
#350 = DIRECTION ( 'NONE',  ( -0.000000000000000000, -1.000000000000000000, -0.000000000000000000 ) ) ;
#351 = ORIENTED_EDGE ( 'NONE', *, *, #297, .F. ) ;
#352 =( NAMED_UNIT ( * ) SI_UNIT ( $, .STERADIAN. ) SOLID_ANGLE_UNIT ( ) );
#353 =( LENGTH_UNIT ( ) NAMED_UNIT ( * ) SI_UNIT ( .MILLI., .METRE. ) );
#354 = VERTEX_POINT ( 'NONE', #68 ) ;
#355 =( GEOMETRIC_REPRESENTATION_CONTEXT ( 3 ) GLOBAL_UNCERTAINTY_ASSIGNED_CONTEXT ( ( #311 ) ) GLOBAL_UNIT_ASSIGNED_CONTEXT ( ( #322, #129, #91 ) ) REPRESENTATION_CONTEXT ( 'NONE', 'WORKASPACE' ) );
#356 =( NAMED_UNIT ( * ) PLANE_ANGLE_UNIT ( ) SI_UNIT ( $, .RADIAN. ) );
#357 = CIRCLE ( 'NONE', #229, 1.000000000000000000 ) ;
#358 = CARTESIAN_POINT ( 'NONE',  ( 0.000000000000000000, 0.000000000000000000, -4.000000000000000000 ) ) ;
#359 = ORIENTED_EDGE ( 'NONE', *, *, #12, .T. ) ;
#360 = ADVANCED_FACE ( 'NONE', ( #231 ), #179, .T. ) ;
#361 = CARTESIAN_POINT ( 'NONE',  ( 0.000000000000000000, 20.00000000000000000, 0.000000000000000000 ) ) ;
#362 = COLOUR_RGB ( '',1.000000000000000000, 0.000000000000000000, 0.000000000000000000 ) ;
#363 = ADVANCED_FACE ( 'NONE', ( #327 ), #221, .T. ) ;
#364 = CYLINDRICAL_SURFACE ( 'NONE', #267, 5.000000000000000000 ) ;
#365 =( GEOMETRIC_REPRESENTATION_CONTEXT ( 3 ) GLOBAL_UNCERTAINTY_ASSIGNED_CONTEXT ( ( #279 ) ) GLOBAL_UNIT_ASSIGNED_CONTEXT ( ( #155, #169, #94 ) ) REPRESENTATION_CONTEXT ( 'NONE', 'WORKASPACE' ) );
#366 = DIRECTION ( 'NONE',  ( 0.000000000000000000, 0.000000000000000000, 1.000000000000000000 ) ) ;
#367 = DIRECTION ( 'NONE',  ( -4.697880814296055710E-17, 1.000000000000000000, -0.000000000000000000 ) ) ;
#368 =( NAMED_UNIT ( * ) PLANE_ANGLE_UNIT ( ) SI_UNIT ( $, .RADIAN. ) );
#369 = AXIS2_PLACEMENT_3D ( 'NONE', #212, #50, #167 ) ;
#370 = EDGE_CURVE ( 'NONE', #9, #250, #38, .T. ) ;
ENDSEC;
END-ISO-10303-21;
