ISO-10303-21;
HEADER;
FILE_DESCRIPTION (( 'STEP AP214' ),
    '1' );
FILE_NAME ('81325.STEP',
    '2023-06-30T22:25:04',
    ( '' ),
    ( '' ),
    'SwSTEP 2.0',
    'SolidWorks 2023',
    '' );
FILE_SCHEMA (( 'AUTOMOTIVE_DESIGN' ));
ENDSEC;

DATA;
#1 = AXIS2_PLACEMENT_3D ( 'NONE', #305, #146, #22 ) ;
#2 = APPLICATION_PROTOCOL_DEFINITION ( 'draft international standard', 'automotive_design', 1998, #332 ) ;
#3 = UNCERTAINTY_MEASURE_WITH_UNIT (LENGTH_MEASURE( 1.000000000000000082E-05 ), #262, 'distance_accuracy_value', 'NONE');
#4 =( NAMED_UNIT ( * ) SI_UNIT ( $, .STERADIAN. ) SOLID_ANGLE_UNIT ( ) );
#5 = AXIS2_PLACEMENT_3D ( 'NONE', #297, #41, #149 ) ;
#6 = MECHANICAL_DESIGN_GEOMETRIC_PRESENTATION_REPRESENTATION (  '', ( #80 ), #91 ) ;
#7 =( NAMED_UNIT ( * ) PLANE_ANGLE_UNIT ( ) SI_UNIT ( $, .RADIAN. ) );
#8 = SURFACE_STYLE_USAGE ( .BOTH. , #263 ) ;
#9 = CARTESIAN_POINT ( 'NONE',  ( 0.000000000000000000, 1.000000000000000000, -0.2499999999999998890 ) ) ;
#10 = MECHANICAL_DESIGN_GEOMETRIC_PRESENTATION_REPRESENTATION (  '', ( #52 ), #251 ) ;
#11 = ADVANCED_FACE ( 'NONE', ( #61 ), #229, .T. ) ;
#12 = MECHANICAL_DESIGN_GEOMETRIC_PRESENTATION_REPRESENTATION (  '', ( #282 ), #220 ) ;
#13 = DIRECTION ( 'NONE',  ( -0.000000000000000000, -1.000000000000000000, -0.000000000000000000 ) ) ;
#14 = CARTESIAN_POINT ( 'NONE',  ( 3.061616997868381785E-17, 1.000000000000000000, 0.2499999999999998890 ) ) ;
#15 = VERTEX_POINT ( 'NONE', #289 ) ;
#16 =( GEOMETRIC_REPRESENTATION_CONTEXT ( 3 ) GLOBAL_UNCERTAINTY_ASSIGNED_CONTEXT ( ( #57 ) ) GLOBAL_UNIT_ASSIGNED_CONTEXT ( ( #89, #7, #144 ) ) REPRESENTATION_CONTEXT ( 'NONE', 'WORKASPACE' ) );
#17 = EDGE_LOOP ( 'NONE', ( #329, #192, #174, #281 ) ) ;
#18 = FILL_AREA_STYLE_COLOUR ( '', #315 ) ;
#19 = CARTESIAN_POINT ( 'NONE',  ( -0.2499999999999996669, 3.000000000000000444, 0.000000000000000000 ) ) ;
#20 = DIMENSIONAL_EXPONENTS ( 1.000000000000000000, 0.000000000000000000, 0.000000000000000000, 0.000000000000000000, 0.000000000000000000, 0.000000000000000000, 0.000000000000000000 ) ;
#21 = SURFACE_STYLE_FILL_AREA ( #190 ) ;
#22 = DIRECTION ( 'NONE',  ( 1.000000000000000000, 1.213598060927639232E-16, 0.000000000000000000 ) ) ;
#23 = ORIENTED_EDGE ( 'NONE', *, *, #167, .T. ) ;
#24 = UNCERTAINTY_MEASURE_WITH_UNIT (LENGTH_MEASURE( 1.000000000000000082E-05 ), #246, 'distance_accuracy_value', 'NONE');
#25 = VERTEX_POINT ( 'NONE', #259 ) ;
#26 = EDGE_LOOP ( 'NONE', ( #123, #256, #260, #338 ) ) ;
#27 =( GEOMETRIC_REPRESENTATION_CONTEXT ( 3 ) GLOBAL_UNCERTAINTY_ASSIGNED_CONTEXT ( ( #216 ) ) GLOBAL_UNIT_ASSIGNED_CONTEXT ( ( #230, #349, #233 ) ) REPRESENTATION_CONTEXT ( 'NONE', 'WORKASPACE' ) );
#28 = ADVANCED_FACE ( 'NONE', ( #199 ), #175, .T. ) ;
#29 = PRESENTATION_LAYER_ASSIGNMENT (  '', '', ( #335 ) ) ;
#30 = ORIENTED_EDGE ( 'NONE', *, *, #243, .T. ) ;
#31 = UNCERTAINTY_MEASURE_WITH_UNIT (LENGTH_MEASURE( 1.000000000000000082E-05 ), #339, 'distance_accuracy_value', 'NONE');
#32 = DIRECTION ( 'NONE',  ( -1.000000000000000000, 0.000000000000000000, 0.000000000000000000 ) ) ;
#33 =( LENGTH_UNIT ( ) NAMED_UNIT ( * ) SI_UNIT ( $, .METRE. ) );
#34 = ADVANCED_FACE ( 'NONE', ( #62 ), #314, .T. ) ;
#35 = CARTESIAN_POINT ( 'NONE',  ( 6.123233995736759873E-17, 3.000000000000000444, 0.000000000000000000 ) ) ;
#36 = SURFACE_STYLE_USAGE ( .BOTH. , #316 ) ;
#37 = EDGE_CURVE ( 'NONE', #76, #273, #111, .T. ) ;
#38 = FACE_OUTER_BOUND ( 'NONE', #166, .T. ) ;
#39 = CARTESIAN_POINT ( 'NONE',  ( 0.000000000000000000, 1.000000000000000000, 0.000000000000000000 ) ) ;
#40 = PRESENTATION_LAYER_ASSIGNMENT (  '', '', ( #178 ) ) ;
#41 = DIRECTION ( 'NONE',  ( -0.000000000000000000, -1.000000000000000000, -0.000000000000000000 ) ) ;
#42 = ORIENTED_EDGE ( 'NONE', *, *, #155, .F. ) ;
#43 = CYLINDRICAL_SURFACE ( 'NONE', #344, 0.2499999999999997224 ) ;
#44 = SURFACE_SIDE_STYLE ('',( #21 ) ) ;
#45 =( LENGTH_UNIT ( ) NAMED_UNIT ( * ) SI_UNIT ( $, .METRE. ) );
#46 = PRESENTATION_LAYER_ASSIGNMENT (  '', '', ( #227 ) ) ;
#47 = PRESENTATION_STYLE_ASSIGNMENT (( #70 ) ) ;
#48 = LINE ( 'NONE', #331, #272 ) ;
#49 = CARTESIAN_POINT ( 'NONE',  ( 0.000000000000000000, 1.000000000000000000, 0.000000000000000000 ) ) ;
#50 =( NAMED_UNIT ( * ) SI_UNIT ( $, .STERADIAN. ) SOLID_ANGLE_UNIT ( ) );
#51 = CLOSED_SHELL ( 'NONE', ( #28, #34, #275, #320, #250 ) ) ;
#52 = STYLED_ITEM ( 'NONE', ( #180 ), #28 ) ;
#53 = ORIENTED_EDGE ( 'NONE', *, *, #148, .T. ) ;
#54 = VECTOR ( 'NONE', #372, 39.37007874015748143 ) ;
#55 = SURFACE_SIDE_STYLE ('',( #79 ) ) ;
#56 = ORIENTED_EDGE ( 'NONE', *, *, #326, .T. ) ;
#57 = UNCERTAINTY_MEASURE_WITH_UNIT (LENGTH_MEASURE( 1.000000000000000082E-05 ), #89, 'distance_accuracy_value', 'NONE');
#58 = DIRECTION ( 'NONE',  ( -1.213598060927639232E-16, 1.000000000000000000, -0.000000000000000000 ) ) ;
#59 = ORIENTED_EDGE ( 'NONE', *, *, #37, .T. ) ;
#60 = PRESENTATION_LAYER_ASSIGNMENT (  '', '', ( #282 ) ) ;
#61 = FACE_OUTER_BOUND ( 'NONE', #153, .T. ) ;
#62 = FACE_OUTER_BOUND ( 'NONE', #360, .T. ) ;
#63 = ADVANCED_FACE ( 'NONE', ( #66 ), #182, .F. ) ;
#64 = CARTESIAN_POINT ( 'NONE',  ( 0.2499999999999999167, 1.000000000000000000, 3.061616997868380553E-17 ) ) ;
#65 = SURFACE_STYLE_USAGE ( .BOTH. , #324 ) ;
#66 = FACE_OUTER_BOUND ( 'NONE', #254, .T. ) ;
#67 = SURFACE_STYLE_USAGE ( .BOTH. , #44 ) ;
#68 = VECTOR ( 'NONE', #120, 39.37007874015748143 ) ;
#69 = DIRECTION ( 'NONE',  ( -1.213598060927639232E-16, 1.000000000000000000, -0.000000000000000000 ) ) ;
#70 = SURFACE_STYLE_USAGE ( .BOTH. , #333 ) ;
#71 = CIRCLE ( 'NONE', #328, 0.2499999999999995837 ) ;
#72 = ORIENTED_EDGE ( 'NONE', *, *, #148, .F. ) ;
#73 = EDGE_CURVE ( 'NONE', #286, #285, #181, .T. ) ;
#74 = ORIENTED_EDGE ( 'NONE', *, *, #343, .F. ) ;
#75 = FILL_AREA_STYLE_COLOUR ( '', #163 ) ;
#76 = VERTEX_POINT ( 'NONE', #9 ) ;
#77 = CARTESIAN_POINT ( 'NONE',  ( 0.000000000000000000, 0.2500000000000000555, -0.2499999999999999722 ) ) ;
#78 = VERTEX_POINT ( 'NONE', #77 ) ;
#79 = SURFACE_STYLE_FILL_AREA ( #85 ) ;
#80 = STYLED_ITEM ( 'NONE', ( #366 ), #350 ) ;
#81 = LENGTH_MEASURE_WITH_UNIT ( LENGTH_MEASURE( 0.02539999999999999897 ), #283 );
#82 = PRODUCT_DEFINITION_CONTEXT ( 'detailed design', #341, 'design' ) ;
#83 = SHAPE_DEFINITION_REPRESENTATION ( #205, #317 ) ;
#84 = PRODUCT ( '81325', '81325', '', ( #114 ) ) ;
#85 = FILL_AREA_STYLE ('',( #115 ) ) ;
#86 = AXIS2_PLACEMENT_3D ( 'NONE', #119, #321, #117 ) ;
#87 = PRODUCT_DEFINITION ( 'UNKNOWN', '', #203, #82 ) ;
#88 = CIRCLE ( 'NONE', #5, 0.2499999999999999722 ) ;
#89 =( CONVERSION_BASED_UNIT ( 'INCH', #348 ) LENGTH_UNIT ( ) NAMED_UNIT ( #226 ) );
#90 = CARTESIAN_POINT ( 'NONE',  ( 0.000000000000000000, 1.000000000000000000, 0.000000000000000000 ) ) ;
#91 =( GEOMETRIC_REPRESENTATION_CONTEXT ( 3 ) GLOBAL_UNCERTAINTY_ASSIGNED_CONTEXT ( ( #24 ) ) GLOBAL_UNIT_ASSIGNED_CONTEXT ( ( #246, #288, #50 ) ) REPRESENTATION_CONTEXT ( 'NONE', 'WORKASPACE' ) );
#92 = CARTESIAN_POINT ( 'NONE',  ( 3.039519521428954697E-16, 1.000000000000000000, 0.000000000000000000 ) ) ;
#93 = ORIENTED_EDGE ( 'NONE', *, *, #312, .F. ) ;
#94 = DIRECTION ( 'NONE',  ( 0.000000000000000000, 1.000000000000000000, 0.000000000000000000 ) ) ;
#95 = CARTESIAN_POINT ( 'NONE',  ( 3.061616997868383018E-17, 0.2500000000000000555, 0.2500000000000000000 ) ) ;
#96 = DIRECTION ( 'NONE',  ( -0.000000000000000000, -1.000000000000000000, -0.000000000000000000 ) ) ;
#97 = EDGE_CURVE ( 'NONE', #303, #168, #287, .T. ) ;
#98 = AXIS2_PLACEMENT_3D ( 'NONE', #239, #208, #357 ) ;
#99 = CIRCLE ( 'NONE', #121, 0.2499999999999995837 ) ;
#100 = SURFACE_SIDE_STYLE ('',( #187 ) ) ;
#101 = UNCERTAINTY_MEASURE_WITH_UNIT (LENGTH_MEASURE( 1.000000000000000082E-05 ), #371, 'distance_accuracy_value', 'NONE');
#102 = EDGE_CURVE ( 'NONE', #303, #135, #127, .T. ) ;
#103 =( NAMED_UNIT ( * ) PLANE_ANGLE_UNIT ( ) SI_UNIT ( $, .RADIAN. ) );
#104 =( LENGTH_UNIT ( ) NAMED_UNIT ( * ) SI_UNIT ( $, .METRE. ) );
#105 = COLOUR_RGB ( '',1.000000000000000000, 0.000000000000000000, 0.000000000000000000 ) ;
#106 = MECHANICAL_DESIGN_GEOMETRIC_PRESENTATION_REPRESENTATION (  '', ( #335 ), #292 ) ;
#107 = CARTESIAN_POINT ( 'NONE',  ( 3.061616997868382402E-17, 0.000000000000000000, 0.2499999999999999167 ) ) ;
#108 =( LENGTH_UNIT ( ) NAMED_UNIT ( * ) SI_UNIT ( $, .METRE. ) );
#109 = EDGE_CURVE ( 'NONE', #285, #25, #238, .T. ) ;
#110 = CLOSED_SHELL ( 'NONE', ( #298, #129, #11, #63 ) ) ;
#111 = CIRCLE ( 'NONE', #252, 0.2499999999999998890 ) ;
#112 = ORIENTED_EDGE ( 'NONE', *, *, #343, .T. ) ;
#113 = AXIS2_PLACEMENT_3D ( 'NONE', #200, #222, #193 ) ;
#114 = PRODUCT_CONTEXT ( 'NONE', #332, 'mechanical' ) ;
#115 = FILL_AREA_STYLE_COLOUR ( '', #179 ) ;
#116 = LENGTH_MEASURE_WITH_UNIT ( LENGTH_MEASURE( 0.02539999999999999897 ), #138 );
#117 = DIRECTION ( 'NONE',  ( 1.000000000000000000, 0.000000000000000000, 0.000000000000000000 ) ) ;
#118 =( NAMED_UNIT ( * ) SI_UNIT ( $, .STERADIAN. ) SOLID_ANGLE_UNIT ( ) );
#119 = CARTESIAN_POINT ( 'NONE',  ( -3.061616997868383018E-17, 0.2500000000000000000, 0.000000000000000000 ) ) ;
#120 = DIRECTION ( 'NONE',  ( -1.213598060927639232E-16, 1.000000000000000000, -0.000000000000000000 ) ) ;
#121 = AXIS2_PLACEMENT_3D ( 'NONE', #223, #340, #191 ) ;
#122 = DIRECTION ( 'NONE',  ( -0.000000000000000000, -1.000000000000000000, -0.000000000000000000 ) ) ;
#123 = ORIENTED_EDGE ( 'NONE', *, *, #155, .T. ) ;
#124 = CARTESIAN_POINT ( 'NONE',  ( -3.061616997868383018E-17, 0.2500000000000000000, 0.000000000000000000 ) ) ;
#125 = FILL_AREA_STYLE_COLOUR ( '', #310 ) ;
#126 = CARTESIAN_POINT ( 'NONE',  ( 6.123233995736759873E-17, 3.000000000000000444, 0.000000000000000000 ) ) ;
#127 = CIRCLE ( 'NONE', #147, 0.2499999999999999722 ) ;
#128 = LENGTH_MEASURE_WITH_UNIT ( LENGTH_MEASURE( 0.02539999999999999897 ), #330 );
#129 = ADVANCED_FACE ( 'NONE', ( #249 ), #280, .F. ) ;
#130 = DIRECTION ( 'NONE',  ( 0.000000000000000000, 0.000000000000000000, -1.000000000000000000 ) ) ;
#131 = CARTESIAN_POINT ( 'NONE',  ( 6.123233995736759873E-17, 3.000000000000000444, 0.000000000000000000 ) ) ;
#132 = CARTESIAN_POINT ( 'NONE',  ( 3.039519521428954204E-16, 1.000000000000000000, 0.000000000000000000 ) ) ;
#133 = PRESENTATION_LAYER_ASSIGNMENT (  '', '', ( #196 ) ) ;
#134 = EDGE_LOOP ( 'NONE', ( #56, #261, #369, #158 ) ) ;
#135 = VERTEX_POINT ( 'NONE', #95 ) ;
#136 = PRESENTATION_STYLE_ASSIGNMENT (( #373 ) ) ;
#137 = CIRCLE ( 'NONE', #211, 0.2499999999999999722 ) ;
#138 =( LENGTH_UNIT ( ) NAMED_UNIT ( * ) SI_UNIT ( $, .METRE. ) );
#139 = FILL_AREA_STYLE ('',( #204 ) ) ;
#140 = LENGTH_MEASURE_WITH_UNIT ( LENGTH_MEASURE( 0.02539999999999999897 ), #33 );
#141 = LENGTH_MEASURE_WITH_UNIT ( LENGTH_MEASURE( 0.02539999999999999897 ), #266 );
#142 = PLANE ( 'NONE',  #201 ) ;
#143 = DIRECTION ( 'NONE',  ( 0.000000000000000000, 0.000000000000000000, -1.000000000000000000 ) ) ;
#144 =( NAMED_UNIT ( * ) SI_UNIT ( $, .STERADIAN. ) SOLID_ANGLE_UNIT ( ) );
#145 = DIRECTION ( 'NONE',  ( 0.000000000000000000, 0.000000000000000000, -1.000000000000000000 ) ) ;
#146 = DIRECTION ( 'NONE',  ( 1.213598060927639232E-16, -1.000000000000000000, 0.000000000000000000 ) ) ;
#147 = AXIS2_PLACEMENT_3D ( 'NONE', #237, #122, #274 ) ;
#148 = EDGE_CURVE ( 'NONE', #76, #78, #271, .T. ) ;
#149 = DIRECTION ( 'NONE',  ( 0.000000000000000000, 0.000000000000000000, -1.000000000000000000 ) ) ;
#150 =( NAMED_UNIT ( * ) SI_UNIT ( $, .STERADIAN. ) SOLID_ANGLE_UNIT ( ) );
#151 = SURFACE_STYLE_USAGE ( .BOTH. , #100 ) ;
#152 = DIMENSIONAL_EXPONENTS ( 1.000000000000000000, 0.000000000000000000, 0.000000000000000000, 0.000000000000000000, 0.000000000000000000, 0.000000000000000000, 0.000000000000000000 ) ;
#153 = EDGE_LOOP ( 'NONE', ( #93, #30, #156, #74 ) ) ;
#154 = AXIS2_PLACEMENT_3D ( 'NONE', #277, #219, #336 ) ;
#155 = EDGE_CURVE ( 'NONE', #286, #224, #71, .T. ) ;
#156 = ORIENTED_EDGE ( 'NONE', *, *, #73, .T. ) ;
#157 = DIRECTION ( 'NONE',  ( -1.213598060927639232E-16, 1.000000000000000000, -0.000000000000000000 ) ) ;
#158 = ORIENTED_EDGE ( 'NONE', *, *, #102, .T. ) ;
#159 = CYLINDRICAL_SURFACE ( 'NONE', #154, 0.2499999999999999167 ) ;
#160 = FACE_OUTER_BOUND ( 'NONE', #17, .T. ) ;
#161 = EDGE_LOOP ( 'NONE', ( #42, #291 ) ) ;
#162 = AXIS2_PLACEMENT_3D ( 'NONE', #318, #177, #143 ) ;
#163 = COLOUR_RGB ( '',0.7921568627450980005, 0.8196078431372548767, 0.9333333333333333481 ) ;
#164 = ORIENTED_EDGE ( 'NONE', *, *, #236, .F. ) ;
#165 =( NAMED_UNIT ( * ) PLANE_ANGLE_UNIT ( ) SI_UNIT ( $, .RADIAN. ) );
#166 = EDGE_LOOP ( 'NONE', ( #217, #306 ) ) ;
#167 = EDGE_CURVE ( 'NONE', #273, #76, #301, .T. ) ;
#168 = VERTEX_POINT ( 'NONE', #302 ) ;
#169 = AXIS2_PLACEMENT_3D ( 'NONE', #124, #235, #294 ) ;
#170 = FILL_AREA_STYLE ('',( #355 ) ) ;
#171 = AXIS2_PLACEMENT_3D ( 'NONE', #185, #304, #184 ) ;
#172 =( NAMED_UNIT ( * ) PLANE_ANGLE_UNIT ( ) SI_UNIT ( $, .RADIAN. ) );
#173 = SURFACE_STYLE_FILL_AREA ( #170 ) ;
#174 = ORIENTED_EDGE ( 'NONE', *, *, #221, .T. ) ;
#175 = SPHERICAL_SURFACE ( 'NONE', #86, 0.2500000000000000000 ) ;
#176 = EDGE_CURVE ( 'NONE', #273, #135, #359, .T. ) ;
#177 = DIRECTION ( 'NONE',  ( -0.000000000000000000, -1.000000000000000000, -0.000000000000000000 ) ) ;
#178 = STYLED_ITEM ( 'NONE', ( #247 ), #320 ) ;
#179 = COLOUR_RGB ( '',0.7921568627450980005, 0.8196078431372548767, 0.9333333333333333481 ) ;
#180 = PRESENTATION_STYLE_ASSIGNMENT (( #8 ) ) ;
#181 = LINE ( 'NONE', #19, #68 ) ;
#182 = PLANE ( 'NONE',  #1 ) ;
#183 = COLOUR_RGB ( '',1.000000000000000000, 0.000000000000000000, 0.000000000000000000 ) ;
#184 = DIRECTION ( 'NONE',  ( 0.000000000000000000, 0.000000000000000000, -1.000000000000000000 ) ) ;
#185 = CARTESIAN_POINT ( 'NONE',  ( 0.000000000000000000, 0.2500000000000000555, 0.000000000000000000 ) ) ;
#186 = PRESENTATION_LAYER_ASSIGNMENT (  '', '', ( #52 ) ) ;
#187 = SURFACE_STYLE_FILL_AREA ( #300 ) ;
#188 = AXIS2_PLACEMENT_3D ( 'NONE', #269, #130, #295 ) ;
#189 = CARTESIAN_POINT ( 'NONE',  ( 0.000000000000000000, 0.000000000000000000, -0.2499999999999999167 ) ) ;
#190 = FILL_AREA_STYLE ('',( #75 ) ) ;
#191 = DIRECTION ( 'NONE',  ( -1.000000000000000000, 0.000000000000000000, 0.000000000000000000 ) ) ;
#192 = ORIENTED_EDGE ( 'NONE', *, *, #236, .T. ) ;
#193 = DIRECTION ( 'NONE',  ( 1.000000000000000000, 0.000000000000000000, -1.224646799147353207E-16 ) ) ;
#194 = DIRECTION ( 'NONE',  ( -1.213598060927639232E-16, 1.000000000000000000, 0.000000000000000000 ) ) ;
#195 = LENGTH_MEASURE_WITH_UNIT ( LENGTH_MEASURE( 0.02539999999999999897 ), #108 );
#196 = STYLED_ITEM ( 'NONE', ( #47 ), #250 ) ;
#197 = CIRCLE ( 'NONE', #113, 0.2500000000000000000 ) ;
#198 = DIRECTION ( 'NONE',  ( 0.000000000000000000, 0.000000000000000000, 1.000000000000000000 ) ) ;
#199 = FACE_OUTER_BOUND ( 'NONE', #134, .T. ) ;
#200 = CARTESIAN_POINT ( 'NONE',  ( -3.061616997868383018E-17, 0.2500000000000000000, 0.000000000000000000 ) ) ;
#201 = AXIS2_PLACEMENT_3D ( 'NONE', #90, #94, #356 ) ;
#202 =( CONVERSION_BASED_UNIT ( 'INCH', #141 ) LENGTH_UNIT ( ) NAMED_UNIT ( #218 ) );
#203 = PRODUCT_DEFINITION_FORMATION_WITH_SPECIFIED_SOURCE ( 'ANY', '', #84, .NOT_KNOWN. ) ;
#204 = FILL_AREA_STYLE_COLOUR ( '', #183 ) ;
#205 = PRODUCT_DEFINITION_SHAPE ( 'NONE', 'NONE',  #87 ) ;
#206 = AXIS2_PLACEMENT_3D ( 'NONE', #49, #13, #253 ) ;
#207 = CARTESIAN_POINT ( 'NONE',  ( -0.2499999999999997502, 3.000000000000000444, 0.000000000000000000 ) ) ;
#208 = DIRECTION ( 'NONE',  ( -1.213598060927639232E-16, 1.000000000000000000, -0.000000000000000000 ) ) ;
#209 = CARTESIAN_POINT ( 'NONE',  ( 0.000000000000000000, 0.2500000000000000555, 0.000000000000000000 ) ) ;
#210 = ORIENTED_EDGE ( 'NONE', *, *, #176, .T. ) ;
#211 = AXIS2_PLACEMENT_3D ( 'NONE', #209, #323, #325 ) ;
#212 = DIMENSIONAL_EXPONENTS ( 1.000000000000000000, 0.000000000000000000, 0.000000000000000000, 0.000000000000000000, 0.000000000000000000, 0.000000000000000000, 0.000000000000000000 ) ;
#213 = ORIENTED_EDGE ( 'NONE', *, *, #176, .F. ) ;
#214 = ORIENTED_EDGE ( 'NONE', *, *, #221, .F. ) ;
#215 = DIRECTION ( 'NONE',  ( -1.213598060927639232E-16, 1.000000000000000000, -0.000000000000000000 ) ) ;
#216 = UNCERTAINTY_MEASURE_WITH_UNIT (LENGTH_MEASURE( 1.000000000000000082E-05 ), #230, 'distance_accuracy_value', 'NONE');
#217 = ORIENTED_EDGE ( 'NONE', *, *, #37, .F. ) ;
#218 = DIMENSIONAL_EXPONENTS ( 1.000000000000000000, 0.000000000000000000, 0.000000000000000000, 0.000000000000000000, 0.000000000000000000, 0.000000000000000000, 0.000000000000000000 ) ;
#219 = DIRECTION ( 'NONE',  ( -0.000000000000000000, -1.000000000000000000, -0.000000000000000000 ) ) ;
#220 =( GEOMETRIC_REPRESENTATION_CONTEXT ( 3 ) GLOBAL_UNCERTAINTY_ASSIGNED_CONTEXT ( ( #308 ) ) GLOBAL_UNIT_ASSIGNED_CONTEXT ( ( #353, #264, #118 ) ) REPRESENTATION_CONTEXT ( 'NONE', 'WORKASPACE' ) );
#221 = EDGE_CURVE ( 'NONE', #78, #303, #137, .T. ) ;
#222 = DIRECTION ( 'NONE',  ( 1.224646799147353207E-16, -0.000000000000000000, 1.000000000000000000 ) ) ;
#223 = CARTESIAN_POINT ( 'NONE',  ( 3.039519521428954697E-16, 1.000000000000000000, 0.000000000000000000 ) ) ;
#224 = VERTEX_POINT ( 'NONE', #64 ) ;
#225 =( NAMED_UNIT ( * ) SI_UNIT ( $, .STERADIAN. ) SOLID_ANGLE_UNIT ( ) );
#226 = DIMENSIONAL_EXPONENTS ( 1.000000000000000000, 0.000000000000000000, 0.000000000000000000, 0.000000000000000000, 0.000000000000000000, 0.000000000000000000, 0.000000000000000000 ) ;
#227 = STYLED_ITEM ( 'NONE', ( #293 ), #34 ) ;
#228 =( GEOMETRIC_REPRESENTATION_CONTEXT ( 3 ) GLOBAL_UNCERTAINTY_ASSIGNED_CONTEXT ( ( #31 ) ) GLOBAL_UNIT_ASSIGNED_CONTEXT ( ( #339, #172, #255 ) ) REPRESENTATION_CONTEXT ( 'NONE', 'WORKASPACE' ) );
#229 = CYLINDRICAL_SURFACE ( 'NONE', #363, 0.2499999999999997224 ) ;
#230 =( CONVERSION_BASED_UNIT ( 'INCH', #116 ) LENGTH_UNIT ( ) NAMED_UNIT ( #212 ) );
#231 = MECHANICAL_DESIGN_GEOMETRIC_PRESENTATION_REPRESENTATION (  '', ( #178 ), #278 ) ;
#232 = SURFACE_STYLE_FILL_AREA ( #139 ) ;
#233 =( NAMED_UNIT ( * ) SI_UNIT ( $, .STERADIAN. ) SOLID_ANGLE_UNIT ( ) );
#234 = ORIENTED_EDGE ( 'NONE', *, *, #102, .F. ) ;
#235 = DIRECTION ( 'NONE',  ( 0.000000000000000000, 0.000000000000000000, 1.000000000000000000 ) ) ;
#236 = EDGE_CURVE ( 'NONE', #15, #78, #88, .T. ) ;
#237 = CARTESIAN_POINT ( 'NONE',  ( 0.000000000000000000, 0.2500000000000000555, 0.000000000000000000 ) ) ;
#238 = CIRCLE ( 'NONE', #98, 0.2499999999999998335 ) ;
#239 = CARTESIAN_POINT ( 'NONE',  ( 6.123233995736759873E-17, 3.000000000000000444, 0.000000000000000000 ) ) ;
#240 = FACE_OUTER_BOUND ( 'NONE', #26, .T. ) ;
#241 = FILL_AREA_STYLE ('',( #125 ) ) ;
#242 = ORIENTED_EDGE ( 'NONE', *, *, #326, .F. ) ;
#243 = EDGE_CURVE ( 'NONE', #224, #286, #99, .T. ) ;
#244 = AXIS2_PLACEMENT_3D ( 'NONE', #126, #69, #299 ) ;
#245 = DIMENSIONAL_EXPONENTS ( 1.000000000000000000, 0.000000000000000000, 0.000000000000000000, 0.000000000000000000, 0.000000000000000000, 0.000000000000000000, 0.000000000000000000 ) ;
#246 =( CONVERSION_BASED_UNIT ( 'INCH', #128 ) LENGTH_UNIT ( ) NAMED_UNIT ( #245 ) );
#247 = PRESENTATION_STYLE_ASSIGNMENT (( #151 ) ) ;
#248 = DIMENSIONAL_EXPONENTS ( 1.000000000000000000, 0.000000000000000000, 0.000000000000000000, 0.000000000000000000, 0.000000000000000000, 0.000000000000000000, 0.000000000000000000 ) ;
#249 = FACE_OUTER_BOUND ( 'NONE', #161, .T. ) ;
#250 = ADVANCED_FACE ( 'NONE', ( #160 ), #358, .T. ) ;
#251 =( GEOMETRIC_REPRESENTATION_CONTEXT ( 3 ) GLOBAL_UNCERTAINTY_ASSIGNED_CONTEXT ( ( #313 ) ) GLOBAL_UNIT_ASSIGNED_CONTEXT ( ( #202, #268, #4 ) ) REPRESENTATION_CONTEXT ( 'NONE', 'WORKASPACE' ) );
#252 = AXIS2_PLACEMENT_3D ( 'NONE', #39, #361, #145 ) ;
#253 = DIRECTION ( 'NONE',  ( 0.000000000000000000, 0.000000000000000000, -1.000000000000000000 ) ) ;
#254 = EDGE_LOOP ( 'NONE', ( #309, #112 ) ) ;
#255 =( NAMED_UNIT ( * ) SI_UNIT ( $, .STERADIAN. ) SOLID_ANGLE_UNIT ( ) );
#256 = ORIENTED_EDGE ( 'NONE', *, *, #312, .T. ) ;
#257 = PRODUCT_RELATED_PRODUCT_CATEGORY ( 'part', '', ( #84 ) ) ;
#258 = MECHANICAL_DESIGN_GEOMETRIC_PRESENTATION_REPRESENTATION (  '', ( #227 ), #27 ) ;
#259 = CARTESIAN_POINT ( 'NONE',  ( 0.2499999999999999167, 3.000000000000000444, 3.061616997868380553E-17 ) ) ;
#260 = ORIENTED_EDGE ( 'NONE', *, *, #109, .F. ) ;
#261 = ORIENTED_EDGE ( 'NONE', *, *, #354, .T. ) ;
#262 =( CONVERSION_BASED_UNIT ( 'INCH', #195 ) LENGTH_UNIT ( ) NAMED_UNIT ( #276 ) );
#263 = SURFACE_SIDE_STYLE ('',( #173 ) ) ;
#264 =( NAMED_UNIT ( * ) PLANE_ANGLE_UNIT ( ) SI_UNIT ( $, .RADIAN. ) );
#265 = AXIS2_PLACEMENT_3D ( 'NONE', #132, #194, #368 ) ;
#266 =( LENGTH_UNIT ( ) NAMED_UNIT ( * ) SI_UNIT ( $, .METRE. ) );
#267 = FILL_AREA_STYLE_COLOUR ( '', #105 ) ;
#268 =( NAMED_UNIT ( * ) PLANE_ANGLE_UNIT ( ) SI_UNIT ( $, .RADIAN. ) );
#269 = CARTESIAN_POINT ( 'NONE',  ( -3.061616997868383018E-17, 0.2500000000000000000, 0.000000000000000000 ) ) ;
#270 = SURFACE_STYLE_FILL_AREA ( #352 ) ;
#271 = LINE ( 'NONE', #189, #311 ) ;
#272 = VECTOR ( 'NONE', #157, 39.37007874015748143 ) ;
#273 = VERTEX_POINT ( 'NONE', #14 ) ;
#274 = DIRECTION ( 'NONE',  ( 0.000000000000000000, 0.000000000000000000, -1.000000000000000000 ) ) ;
#275 = ADVANCED_FACE ( 'NONE', ( #38 ), #142, .T. ) ;
#276 = DIMENSIONAL_EXPONENTS ( 1.000000000000000000, 0.000000000000000000, 0.000000000000000000, 0.000000000000000000, 0.000000000000000000, 0.000000000000000000, 0.000000000000000000 ) ;
#277 = CARTESIAN_POINT ( 'NONE',  ( 0.000000000000000000, 0.000000000000000000, 0.000000000000000000 ) ) ;
#278 =( GEOMETRIC_REPRESENTATION_CONTEXT ( 3 ) GLOBAL_UNCERTAINTY_ASSIGNED_CONTEXT ( ( #101 ) ) GLOBAL_UNIT_ASSIGNED_CONTEXT ( ( #371, #103, #150 ) ) REPRESENTATION_CONTEXT ( 'NONE', 'WORKASPACE' ) );
#279 = FACE_OUTER_BOUND ( 'NONE', #342, .T. ) ;
#280 = PLANE ( 'NONE',  #265 ) ;
#281 = ORIENTED_EDGE ( 'NONE', *, *, #97, .T. ) ;
#282 = STYLED_ITEM ( 'NONE', ( #290 ), #275 ) ;
#283 =( LENGTH_UNIT ( ) NAMED_UNIT ( * ) SI_UNIT ( $, .METRE. ) );
#284 = DIRECTION ( 'NONE',  ( 1.000000000000000000, 0.000000000000000000, 0.000000000000000000 ) ) ;
#285 = VERTEX_POINT ( 'NONE', #207 ) ;
#286 = VERTEX_POINT ( 'NONE', #322 ) ;
#287 = CIRCLE ( 'NONE', #188, 0.2500000000000000000 ) ;
#288 =( NAMED_UNIT ( * ) PLANE_ANGLE_UNIT ( ) SI_UNIT ( $, .RADIAN. ) );
#289 = CARTESIAN_POINT ( 'NONE',  ( -0.2500000000000000000, 0.2500000000000000555, 3.061616997868382402E-17 ) ) ;
#290 = PRESENTATION_STYLE_ASSIGNMENT (( #65 ) ) ;
#291 = ORIENTED_EDGE ( 'NONE', *, *, #243, .F. ) ;
#292 =( GEOMETRIC_REPRESENTATION_CONTEXT ( 3 ) GLOBAL_UNCERTAINTY_ASSIGNED_CONTEXT ( ( #3 ) ) GLOBAL_UNIT_ASSIGNED_CONTEXT ( ( #262, #165, #225 ) ) REPRESENTATION_CONTEXT ( 'NONE', 'WORKASPACE' ) );
#293 = PRESENTATION_STYLE_ASSIGNMENT (( #36 ) ) ;
#294 = DIRECTION ( 'NONE',  ( 1.000000000000000000, 0.000000000000000000, 0.000000000000000000 ) ) ;
#295 = DIRECTION ( 'NONE',  ( -1.000000000000000000, 0.000000000000000000, 0.000000000000000000 ) ) ;
#296 = COLOUR_RGB ( '',1.000000000000000000, 0.000000000000000000, 0.000000000000000000 ) ;
#297 = CARTESIAN_POINT ( 'NONE',  ( 0.000000000000000000, 0.2500000000000000555, 0.000000000000000000 ) ) ;
#298 = ADVANCED_FACE ( 'NONE', ( #240 ), #43, .T. ) ;
#299 = DIRECTION ( 'NONE',  ( -1.000000000000000000, 0.000000000000000000, 0.000000000000000000 ) ) ;
#300 = FILL_AREA_STYLE ('',( #18 ) ) ;
#301 = CIRCLE ( 'NONE', #206, 0.2499999999999998890 ) ;
#302 = CARTESIAN_POINT ( 'NONE',  ( -1.530808498934191509E-17, 0.000000000000000000, 0.000000000000000000 ) ) ;
#303 = VERTEX_POINT ( 'NONE', #362 ) ;
#304 = DIRECTION ( 'NONE',  ( -0.000000000000000000, -1.000000000000000000, -0.000000000000000000 ) ) ;
#305 = CARTESIAN_POINT ( 'NONE',  ( 0.2499999999999998890, 3.000000000000000444, 0.000000000000000000 ) ) ;
#306 = ORIENTED_EDGE ( 'NONE', *, *, #167, .F. ) ;
#307 = DIRECTION ( 'NONE',  ( -1.000000000000000000, 0.000000000000000000, 0.000000000000000000 ) ) ;
#308 = UNCERTAINTY_MEASURE_WITH_UNIT (LENGTH_MEASURE( 1.000000000000000082E-05 ), #353, 'distance_accuracy_value', 'NONE');
#309 = ORIENTED_EDGE ( 'NONE', *, *, #109, .T. ) ;
#310 = COLOUR_RGB ( '',1.000000000000000000, 0.000000000000000000, 0.000000000000000000 ) ;
#311 = VECTOR ( 'NONE', #96, 39.37007874015748143 ) ;
#312 = EDGE_CURVE ( 'NONE', #224, #25, #48, .T. ) ;
#313 = UNCERTAINTY_MEASURE_WITH_UNIT (LENGTH_MEASURE( 1.000000000000000082E-05 ), #202, 'distance_accuracy_value', 'NONE');
#314 = CYLINDRICAL_SURFACE ( 'NONE', #162, 0.2499999999999999167 ) ;
#315 = COLOUR_RGB ( '',1.000000000000000000, 0.000000000000000000, 0.000000000000000000 ) ;
#316 = SURFACE_SIDE_STYLE ('',( #232 ) ) ;
#317 = ADVANCED_BREP_SHAPE_REPRESENTATION ( '81325', ( #351, #350, #370 ), #228 ) ;
#318 = CARTESIAN_POINT ( 'NONE',  ( 0.000000000000000000, 0.000000000000000000, 0.000000000000000000 ) ) ;
#319 = CIRCLE ( 'NONE', #171, 0.2499999999999999722 ) ;
#320 = ADVANCED_FACE ( 'NONE', ( #279 ), #159, .T. ) ;
#321 = DIRECTION ( 'NONE',  ( 0.000000000000000000, 0.000000000000000000, 1.000000000000000000 ) ) ;
#322 = CARTESIAN_POINT ( 'NONE',  ( -0.2499999999999992784, 1.000000000000000000, 0.000000000000000000 ) ) ;
#323 = DIRECTION ( 'NONE',  ( -0.000000000000000000, -1.000000000000000000, -0.000000000000000000 ) ) ;
#324 = SURFACE_SIDE_STYLE ('',( #270 ) ) ;
#325 = DIRECTION ( 'NONE',  ( 0.000000000000000000, 0.000000000000000000, -1.000000000000000000 ) ) ;
#326 = EDGE_CURVE ( 'NONE', #135, #15, #319, .T. ) ;
#327 = DIRECTION ( 'NONE',  ( -1.213598060927639232E-16, 1.000000000000000000, -0.000000000000000000 ) ) ;
#328 = AXIS2_PLACEMENT_3D ( 'NONE', #92, #215, #307 ) ;
#329 = ORIENTED_EDGE ( 'NONE', *, *, #354, .F. ) ;
#330 =( LENGTH_UNIT ( ) NAMED_UNIT ( * ) SI_UNIT ( $, .METRE. ) );
#331 = CARTESIAN_POINT ( 'NONE',  ( 0.2499999999999998057, 3.000000000000000444, 3.061616997868379320E-17 ) ) ;
#332 = APPLICATION_CONTEXT ( 'automotive_design' ) ;
#333 = SURFACE_SIDE_STYLE ('',( #337 ) ) ;
#334 = MECHANICAL_DESIGN_GEOMETRIC_PRESENTATION_REPRESENTATION (  '', ( #196 ), #16 ) ;
#335 = STYLED_ITEM ( 'NONE', ( #136 ), #351 ) ;
#336 = DIRECTION ( 'NONE',  ( 0.000000000000000000, 0.000000000000000000, -1.000000000000000000 ) ) ;
#337 = SURFACE_STYLE_FILL_AREA ( #241 ) ;
#338 = ORIENTED_EDGE ( 'NONE', *, *, #73, .F. ) ;
#339 =( CONVERSION_BASED_UNIT ( 'INCH', #81 ) LENGTH_UNIT ( ) NAMED_UNIT ( #152 ) );
#340 = DIRECTION ( 'NONE',  ( -1.213598060927639232E-16, 1.000000000000000000, -0.000000000000000000 ) ) ;
#341 = APPLICATION_CONTEXT ( 'automotive_design' ) ;
#342 = EDGE_LOOP ( 'NONE', ( #213, #23, #53, #164, #242 ) ) ;
#343 = EDGE_CURVE ( 'NONE', #25, #285, #364, .T. ) ;
#344 = AXIS2_PLACEMENT_3D ( 'NONE', #131, #327, #365 ) ;
#345 = CARTESIAN_POINT ( 'NONE',  ( 0.000000000000000000, 0.000000000000000000, 0.000000000000000000 ) ) ;
#346 = PRESENTATION_LAYER_ASSIGNMENT (  '', '', ( #80 ) ) ;
#347 = APPLICATION_PROTOCOL_DEFINITION ( 'draft international standard', 'automotive_design', 1998, #341 ) ;
#348 = LENGTH_MEASURE_WITH_UNIT ( LENGTH_MEASURE( 0.02539999999999999897 ), #104 );
#349 =( NAMED_UNIT ( * ) PLANE_ANGLE_UNIT ( ) SI_UNIT ( $, .RADIAN. ) );
#350 = MANIFOLD_SOLID_BREP ( 'Revolve - Tool Body (Straight Shanked)', #110 ) ;
#351 = MANIFOLD_SOLID_BREP ( 'Revolve - Cutting Edge', #51 ) ;
#352 = FILL_AREA_STYLE ('',( #267 ) ) ;
#353 =( CONVERSION_BASED_UNIT ( 'INCH', #140 ) LENGTH_UNIT ( ) NAMED_UNIT ( #20 ) );
#354 = EDGE_CURVE ( 'NONE', #15, #168, #197, .T. ) ;
#355 = FILL_AREA_STYLE_COLOUR ( '', #296 ) ;
#356 = DIRECTION ( 'NONE',  ( 0.000000000000000000, -0.000000000000000000, 1.000000000000000000 ) ) ;
#357 = DIRECTION ( 'NONE',  ( -1.000000000000000000, 0.000000000000000000, 0.000000000000000000 ) ) ;
#358 = SPHERICAL_SURFACE ( 'NONE', #169, 0.2500000000000000000 ) ;
#359 = LINE ( 'NONE', #107, #54 ) ;
#360 = EDGE_LOOP ( 'NONE', ( #59, #210, #234, #214, #72 ) ) ;
#361 = DIRECTION ( 'NONE',  ( -0.000000000000000000, -1.000000000000000000, -0.000000000000000000 ) ) ;
#362 = CARTESIAN_POINT ( 'NONE',  ( 0.2499999999999999722, 0.2500000000000000555, 0.000000000000000000 ) ) ;
#363 = AXIS2_PLACEMENT_3D ( 'NONE', #35, #58, #32 ) ;
#364 = CIRCLE ( 'NONE', #244, 0.2499999999999998335 ) ;
#365 = DIRECTION ( 'NONE',  ( -1.000000000000000000, 0.000000000000000000, 0.000000000000000000 ) ) ;
#366 = PRESENTATION_STYLE_ASSIGNMENT (( #67 ) ) ;
#367 = LENGTH_MEASURE_WITH_UNIT ( LENGTH_MEASURE( 0.02539999999999999897 ), #45 );
#368 = DIRECTION ( 'NONE',  ( -1.000000000000000000, -1.213598060927639232E-16, 0.000000000000000000 ) ) ;
#369 = ORIENTED_EDGE ( 'NONE', *, *, #97, .F. ) ;
#370 = AXIS2_PLACEMENT_3D ( 'NONE', #345, #198, #284 ) ;
#371 =( CONVERSION_BASED_UNIT ( 'INCH', #367 ) LENGTH_UNIT ( ) NAMED_UNIT ( #248 ) );
#372 = DIRECTION ( 'NONE',  ( -0.000000000000000000, -1.000000000000000000, -0.000000000000000000 ) ) ;
#373 = SURFACE_STYLE_USAGE ( .BOTH. , #55 ) ;
ENDSEC;
END-ISO-10303-21;
