ISO-10303-21;
HEADER;
FILE_DESCRIPTION (( 'STEP AP214' ),
    '1' );
FILE_NAME ('Micro_EMS-500-2X.STEP',
    '2021-09-01T17:59:39',
    ( '' ),
    ( '' ),
    'SwSTEP 2.0',
    'SolidWorks 2020',
    '' );
FILE_SCHEMA (( 'AUTOMOTIVE_DESIGN' ));
ENDSEC;

DATA;
#1 = DIRECTION ( 'NONE',  ( 0.0000000000000000000, 0.0000000000000000000, 1.000000000000000000 ) ) ;
#2 = PRESENTATION_STYLE_ASSIGNMENT (( #280 ) ) ;
#3 = ORIENTED_EDGE ( 'NONE', *, *, #102, .T. ) ;
#4 = EDGE_LOOP ( 'NONE', ( #262, #143, #105, #232 ) ) ;
#5 =( NAMED_UNIT ( * ) SI_UNIT ( $, .STERADIAN. ) SOLID_ANGLE_UNIT ( ) );
#6 = EDGE_CURVE ( 'NONE', #157, #186, #166, .T. ) ;
#7 = ORIENTED_EDGE ( 'NONE', *, *, #192, .F. ) ;
#8 = AXIS2_PLACEMENT_3D ( 'NONE', #13, #231, #289 ) ;
#9 = ORIENTED_EDGE ( 'NONE', *, *, #197, .F. ) ;
#10 = UNCERTAINTY_MEASURE_WITH_UNIT (LENGTH_MEASURE( 1.000000000000000082E-05 ), #11, 'distance_accuracy_value', 'NONE');
#11 =( CONVERSION_BASED_UNIT ( 'INCH', #233 ) LENGTH_UNIT ( ) NAMED_UNIT ( #107 ) );
#12 = DIRECTION ( 'NONE',  ( -1.000000000000000000, 0.0000000000000000000, 0.0000000000000000000 ) ) ;
#13 = CARTESIAN_POINT ( 'NONE',  ( 0.0000000000000000000, 0.0000000000000000000, 3.000000000000000444 ) ) ;
#14 = PRESENTATION_LAYER_ASSIGNMENT (  '', '', ( #46 ) ) ;
#15 = SURFACE_STYLE_FILL_AREA ( #38 ) ;
#16 = DIRECTION ( 'NONE',  ( -1.224646799147353454E-16, -0.0000000000000000000, -1.000000000000000000 ) ) ;
#17 = VECTOR ( 'NONE', #145, 39.37007874015748143 ) ;
#18 = CARTESIAN_POINT ( 'NONE',  ( 0.0000000000000000000, 0.0000000000000000000, 3.000000000000000444 ) ) ;
#19 = DIMENSIONAL_EXPONENTS ( 1.000000000000000000, 0.0000000000000000000, 0.0000000000000000000, 0.0000000000000000000, 0.0000000000000000000, 0.0000000000000000000, 0.0000000000000000000 ) ;
#20 = CARTESIAN_POINT ( 'NONE',  ( 3.745650057197990990E-33, 0.0000000000000000000, 3.058555380870515566E-17 ) ) ;
#21 = AXIS2_PLACEMENT_3D ( 'NONE', #239, #36, #122 ) ;
#22 = VECTOR ( 'NONE', #149, 39.37007874015748143 ) ;
#23 = DIRECTION ( 'NONE',  ( 1.224646799147353454E-16, 0.0000000000000000000, 1.000000000000000000 ) ) ;
#24 = ORIENTED_EDGE ( 'NONE', *, *, #228, .T. ) ;
#25 = DIRECTION ( 'NONE',  ( 1.000000000000000000, 0.0000000000000000000, 0.0000000000000000000 ) ) ;
#26 = SURFACE_SIDE_STYLE ('',( #121 ) ) ;
#27 = EDGE_LOOP ( 'NONE', ( #9, #185, #150, #225 ) ) ;
#28 = ADVANCED_FACE ( 'NONE', ( #181 ), #146, .T. ) ;
#29 = ORIENTED_EDGE ( 'NONE', *, *, #132, .F. ) ;
#30 = APPLICATION_PROTOCOL_DEFINITION ( 'draft international standard', 'automotive_design', 1998, #118 ) ;
#31 = ORIENTED_EDGE ( 'NONE', *, *, #6, .F. ) ;
#32 = CIRCLE ( 'NONE', #175, 0.2497499999999999998 ) ;
#33 = PRODUCT_CONTEXT ( 'NONE', #168, 'mechanical' ) ;
#34 = ORIENTED_EDGE ( 'NONE', *, *, #250, .T. ) ;
#35 = ADVANCED_FACE ( 'NONE', ( #55 ), #211, .T. ) ;
#36 = DIRECTION ( 'NONE',  ( -1.224646799147353454E-16, -0.0000000000000000000, -1.000000000000000000 ) ) ;
#37 = CIRCLE ( 'NONE', #21, 0.2500000000000000000 ) ;
#38 = FILL_AREA_STYLE ('',( #123 ) ) ;
#39 = PRODUCT_DEFINITION_CONTEXT ( 'detailed design', #118, 'design' ) ;
#40 = PRODUCT_DEFINITION ( 'UNKNOWN', '', #298, #39 ) ;
#41 = DIRECTION ( 'NONE',  ( -1.000000000000000000, 0.0000000000000000000, 1.224646799147353700E-16 ) ) ;
#42 = SURFACE_SIDE_STYLE ('',( #15 ) ) ;
#43 = AXIS2_PLACEMENT_3D ( 'NONE', #249, #86, #63 ) ;
#44 = CARTESIAN_POINT ( 'NONE',  ( 1.224646799147353454E-16, 0.0000000000000000000, 1.000000000000000000 ) ) ;
#45 = CARTESIAN_POINT ( 'NONE',  ( -0.2497499999999999998, 0.0000000000000000000, 3.058555380870515566E-17 ) ) ;
#46 = STYLED_ITEM ( 'NONE', ( #210 ), #93 ) ;
#47 = ADVANCED_FACE ( 'NONE', ( #279 ), #229, .T. ) ;
#48 = DIRECTION ( 'NONE',  ( 1.000000000000000000, 0.0000000000000000000, -0.0000000000000000000 ) ) ;
#49 = DIRECTION ( 'NONE',  ( -1.224646799147353454E-16, -0.0000000000000000000, -1.000000000000000000 ) ) ;
#50 = FACE_OUTER_BOUND ( 'NONE', #140, .T. ) ;
#51 = VECTOR ( 'NONE', #241, 39.37007874015748143 ) ;
#52 =( NAMED_UNIT ( * ) PLANE_ANGLE_UNIT ( ) SI_UNIT ( $, .RADIAN. ) );
#53 = DIRECTION ( 'NONE',  ( -1.000000000000000000, 0.0000000000000000000, 0.0000000000000000000 ) ) ;
#54 = DIRECTION ( 'NONE',  ( 1.224646799147353454E-16, 0.0000000000000000000, 1.000000000000000000 ) ) ;
#55 = FACE_OUTER_BOUND ( 'NONE', #283, .T. ) ;
#56 = DIRECTION ( 'NONE',  ( 1.000000000000000000, 0.0000000000000000000, -0.0000000000000000000 ) ) ;
#57 = PRODUCT ( 'Micro_EMS-500-2X', 'Micro_EMS-500-2X', '', ( #33 ) ) ;
#58 = CYLINDRICAL_SURFACE ( 'NONE', #205, 0.2497499999999999998 ) ;
#59 = ORIENTED_EDGE ( 'NONE', *, *, #277, .T. ) ;
#60 = CARTESIAN_POINT ( 'NONE',  ( -0.2500000000000000000, 0.0000000000000000000, 3.000000000000000444 ) ) ;
#61 = VECTOR ( 'NONE', #130, 39.37007874015748143 ) ;
#62 = CARTESIAN_POINT ( 'NONE',  ( 0.0000000000000000000, 0.0000000000000000000, 3.000000000000000444 ) ) ;
#63 = DIRECTION ( 'NONE',  ( 1.000000000000000000, 0.0000000000000000000, 0.0000000000000000000 ) ) ;
#64 =( GEOMETRIC_REPRESENTATION_CONTEXT ( 3 ) GLOBAL_UNCERTAINTY_ASSIGNED_CONTEXT ( ( #182 ) ) GLOBAL_UNIT_ASSIGNED_CONTEXT ( ( #267, #295, #169 ) ) REPRESENTATION_CONTEXT ( 'NONE', 'WORKASPACE' ) );
#65 = DIRECTION ( 'NONE',  ( -1.224646799147353454E-16, -0.0000000000000000000, -1.000000000000000000 ) ) ;
#66 =( NAMED_UNIT ( * ) SI_UNIT ( $, .STERADIAN. ) SOLID_ANGLE_UNIT ( ) );
#67 = FACE_OUTER_BOUND ( 'NONE', #99, .T. ) ;
#68 = AXIS2_PLACEMENT_3D ( 'NONE', #263, #234, #56 ) ;
#69 = VECTOR ( 'NONE', #254, 39.37007874015747433 ) ;
#70 = FACE_OUTER_BOUND ( 'NONE', #256, .T. ) ;
#71 = DIRECTION ( 'NONE',  ( 0.0000000000000000000, 0.0000000000000000000, 1.000000000000000000 ) ) ;
#72 = ADVANCED_FACE ( 'NONE', ( #50 ), #136, .F. ) ;
#73 = VERTEX_POINT ( 'NONE', #141 ) ;
#74 = AXIS2_PLACEMENT_3D ( 'NONE', #18, #1, #48 ) ;
#75 = ORIENTED_EDGE ( 'NONE', *, *, #277, .F. ) ;
#76 = ORIENTED_EDGE ( 'NONE', *, *, #148, .F. ) ;
#77 = CARTESIAN_POINT ( 'NONE',  ( 0.0000000000000000000, 0.0000000000000000000, 0.0000000000000000000 ) ) ;
#78 = ORIENTED_EDGE ( 'NONE', *, *, #228, .F. ) ;
#79 = ORIENTED_EDGE ( 'NONE', *, *, #142, .F. ) ;
#80 = CARTESIAN_POINT ( 'NONE',  ( 1.226383128429217700E-16, 0.0000000000000000000, 1.001417820454904462 ) ) ;
#81 = EDGE_CURVE ( 'NONE', #209, #119, #37, .T. ) ;
#82 = EDGE_LOOP ( 'NONE', ( #203, #286 ) ) ;
#83 = DIRECTION ( 'NONE',  ( 1.000000000000000000, 0.0000000000000000000, 0.0000000000000000000 ) ) ;
#84 = AXIS2_PLACEMENT_3D ( 'NONE', #124, #187, #291 ) ;
#85 = EDGE_CURVE ( 'NONE', #157, #294, #131, .T. ) ;
#86 = DIRECTION ( 'NONE',  ( 0.0000000000000000000, 0.0000000000000000000, -1.000000000000000000 ) ) ;
#87 = CARTESIAN_POINT ( 'NONE',  ( 3.745650057197990990E-33, 0.0000000000000000000, 3.058555380870515566E-17 ) ) ;
#88 = CIRCLE ( 'NONE', #43, 0.2500000000000000000 ) ;
#89 = DIMENSIONAL_EXPONENTS ( 1.000000000000000000, 0.0000000000000000000, 0.0000000000000000000, 0.0000000000000000000, 0.0000000000000000000, 0.0000000000000000000, 0.0000000000000000000 ) ;
#90 =( CONVERSION_BASED_UNIT ( 'INCH', #152 ) LENGTH_UNIT ( ) NAMED_UNIT ( #89 ) );
#91 = ORIENTED_EDGE ( 'NONE', *, *, #137, .F. ) ;
#92 = ORIENTED_EDGE ( 'NONE', *, *, #265, .T. ) ;
#93 = MANIFOLD_SOLID_BREP ( 'Cut-Revolve1', #189 ) ;
#94 = EDGE_LOOP ( 'NONE', ( #202, #163, #75, #78 ) ) ;
#95 = ORIENTED_EDGE ( 'NONE', *, *, #261, .F. ) ;
#96 = UNCERTAINTY_MEASURE_WITH_UNIT (LENGTH_MEASURE( 1.000000000000000082E-05 ), #90, 'distance_accuracy_value', 'NONE');
#97 = AXIS2_PLACEMENT_3D ( 'NONE', #176, #23, #25 ) ;
#98 = DIRECTION ( 'NONE',  ( -0.7071067811865402453, 0.0000000000000000000, -0.7071067811865546782 ) ) ;
#99 = EDGE_LOOP ( 'NONE', ( #29, #285, #3, #76 ) ) ;
#100 = VERTEX_POINT ( 'NONE', #171 ) ;
#101 = AXIS2_PLACEMENT_3D ( 'NONE', #133, #138, #53 ) ;
#102 = EDGE_CURVE ( 'NONE', #186, #209, #104, .T. ) ;
#103 = CARTESIAN_POINT ( 'NONE',  ( 0.2497499999999999998, 3.058555380870514950E-17, -3.058555380870515566E-17 ) ) ;
#104 = LINE ( 'NONE', #60, #17 ) ;
#105 = ORIENTED_EDGE ( 'NONE', *, *, #81, .F. ) ;
#106 = LINE ( 'NONE', #270, #22 ) ;
#107 = DIMENSIONAL_EXPONENTS ( 1.000000000000000000, 0.0000000000000000000, 0.0000000000000000000, 0.0000000000000000000, 0.0000000000000000000, 0.0000000000000000000, 0.0000000000000000000 ) ;
#108 = AXIS2_PLACEMENT_3D ( 'NONE', #20, #49, #220 ) ;
#109 = LINE ( 'NONE', #191, #264 ) ;
#110 = DIRECTION ( 'NONE',  ( -0.0000000000000000000, -0.0000000000000000000, -1.000000000000000000 ) ) ;
#111 = APPLICATION_PROTOCOL_DEFINITION ( 'draft international standard', 'automotive_design', 1998, #168 ) ;
#112 = CARTESIAN_POINT ( 'NONE',  ( 0.2350000000000011524, 2.969768487932338510E-17, 3.000000000000000444 ) ) ;
#113 = AXIS2_PLACEMENT_3D ( 'NONE', #77, #71, #162 ) ;
#114 = FILL_AREA_STYLE_COLOUR ( '', #218 ) ;
#115 = CYLINDRICAL_SURFACE ( 'NONE', #167, 0.2500000000000000000 ) ;
#116 = EDGE_LOOP ( 'NONE', ( #95, #92, #204, #91 ) ) ;
#117 = ORIENTED_EDGE ( 'NONE', *, *, #250, .F. ) ;
#118 = APPLICATION_CONTEXT ( 'automotive_design' ) ;
#119 = VERTEX_POINT ( 'NONE', #126 ) ;
#120 = ORIENTED_EDGE ( 'NONE', *, *, #244, .F. ) ;
#121 = SURFACE_STYLE_FILL_AREA ( #206 ) ;
#122 = DIRECTION ( 'NONE',  ( 1.000000000000000000, 0.0000000000000000000, 0.0000000000000000000 ) ) ;
#123 = FILL_AREA_STYLE_COLOUR ( '', #172 ) ;
#124 = CARTESIAN_POINT ( 'NONE',  ( 0.0000000000000000000, 0.0000000000000000000, 3.000000000000000444 ) ) ;
#125 = CARTESIAN_POINT ( 'NONE',  ( 0.0000000000000000000, 0.0000000000000000000, 2.985000000000001208 ) ) ;
#126 = CARTESIAN_POINT ( 'NONE',  ( 0.2500000000000001110, 3.061616997868383634E-17, 1.001417820454904462 ) ) ;
#127 = FACE_OUTER_BOUND ( 'NONE', #82, .T. ) ;
#128 = DIRECTION ( 'NONE',  ( -1.000000000000000000, 0.0000000000000000000, 1.224646799147353700E-16 ) ) ;
#129 = DIRECTION ( 'NONE',  ( -1.224646799147353454E-16, -0.0000000000000000000, -1.000000000000000000 ) ) ;
#130 = DIRECTION ( 'NONE',  ( -1.224646799147353454E-16, -0.0000000000000000000, -1.000000000000000000 ) ) ;
#131 = CIRCLE ( 'NONE', #8, 0.2350000000000011524 ) ;
#132 = EDGE_CURVE ( 'NONE', #73, #119, #240, .T. ) ;
#133 = CARTESIAN_POINT ( 'NONE',  ( 0.0000000000000000000, 0.0000000000000000000, 3.000000000000000444 ) ) ;
#134 = AXIS2_PLACEMENT_3D ( 'NONE', #80, #16, #147 ) ;
#135 = SHAPE_DEFINITION_REPRESENTATION ( #288, #282 ) ;
#136 = PLANE ( 'NONE',  #68 ) ;
#137 = EDGE_CURVE ( 'NONE', #257, #119, #106, .T. ) ;
#138 = DIRECTION ( 'NONE',  ( 0.0000000000000000000, 0.0000000000000000000, -1.000000000000000000 ) ) ;
#139 = CARTESIAN_POINT ( 'NONE',  ( 0.0000000000000000000, 0.0000000000000000000, 3.000000000000000444 ) ) ;
#140 = EDGE_LOOP ( 'NONE', ( #59, #34 ) ) ;
#141 = CARTESIAN_POINT ( 'NONE',  ( 0.2500000000000000000, 3.061616997868382402E-17, 2.985000000000001208 ) ) ;
#142 = EDGE_CURVE ( 'NONE', #257, #237, #245, .T. ) ;
#143 = ORIENTED_EDGE ( 'NONE', *, *, #132, .T. ) ;
#144 =( LENGTH_UNIT ( ) NAMED_UNIT ( * ) SI_UNIT ( $, .METRE. ) );
#145 = DIRECTION ( 'NONE',  ( -0.0000000000000000000, -0.0000000000000000000, -1.000000000000000000 ) ) ;
#146 = CONICAL_SURFACE ( 'NONE', #159, 0.2497499999999999998, 0.1745329251994339192 ) ;
#147 = DIRECTION ( 'NONE',  ( 1.000000000000000000, 0.0000000000000000000, 0.0000000000000000000 ) ) ;
#148 = EDGE_CURVE ( 'NONE', #119, #209, #222, .T. ) ;
#149 = DIRECTION ( 'NONE',  ( 0.1736481776669314137, 0.0000000000000000000, 0.9848077530122077983 ) ) ;
#150 = ORIENTED_EDGE ( 'NONE', *, *, #6, .T. ) ;
#151 = MECHANICAL_DESIGN_GEOMETRIC_PRESENTATION_REPRESENTATION (  '', ( #180 ), #272 ) ;
#152 = LENGTH_MEASURE_WITH_UNIT ( LENGTH_MEASURE( 0.02539999999999999897 ), #299 );
#153 = CARTESIAN_POINT ( 'NONE',  ( 0.2497499999999999998, 3.058555380870514950E-17, 0.0000000000000000000 ) ) ;
#154 = CARTESIAN_POINT ( 'NONE',  ( 1.224646799147353454E-16, 0.0000000000000000000, 1.000000000000000000 ) ) ;
#155 = DIRECTION ( 'NONE',  ( -1.000000000000000000, 0.0000000000000000000, 0.0000000000000000000 ) ) ;
#156 = ADVANCED_FACE ( 'NONE', ( #188 ), #170, .T. ) ;
#157 = VERTEX_POINT ( 'NONE', #269 ) ;
#158 = ORIENTED_EDGE ( 'NONE', *, *, #265, .F. ) ;
#159 = AXIS2_PLACEMENT_3D ( 'NONE', #184, #54, #284 ) ;
#160 = ADVANCED_FACE ( 'NONE', ( #266 ), #58, .T. ) ;
#161 = CIRCLE ( 'NONE', #190, 0.2497499999999999998 ) ;
#162 = DIRECTION ( 'NONE',  ( 1.000000000000000000, 0.0000000000000000000, 0.0000000000000000000 ) ) ;
#163 = ORIENTED_EDGE ( 'NONE', *, *, #142, .T. ) ;
#164 = ORIENTED_EDGE ( 'NONE', *, *, #197, .T. ) ;
#165 = EDGE_CURVE ( 'NONE', #73, #186, #253, .T. ) ;
#166 = LINE ( 'NONE', #260, #236 ) ;
#167 = AXIS2_PLACEMENT_3D ( 'NONE', #273, #199, #155 ) ;
#168 = APPLICATION_CONTEXT ( 'automotive_design' ) ;
#169 =( NAMED_UNIT ( * ) SI_UNIT ( $, .STERADIAN. ) SOLID_ANGLE_UNIT ( ) );
#170 = CYLINDRICAL_SURFACE ( 'NONE', #84, 0.2500000000000000000 ) ;
#171 = CARTESIAN_POINT ( 'NONE',  ( -0.2497499999999999998, 0.0000000000000000000, 6.117110761741031132E-17 ) ) ;
#172 = COLOUR_RGB ( '',0.7921568627450980005, 0.8196078431372548767, 0.9333333333333333481 ) ;
#173 = CARTESIAN_POINT ( 'NONE',  ( -0.2500000000000000000, 0.0000000000000000000, 2.985000000000001208 ) ) ;
#174 = CARTESIAN_POINT ( 'NONE',  ( 0.2500000000000000000, 3.061616997868382402E-17, 3.000000000000000444 ) ) ;
#175 = AXIS2_PLACEMENT_3D ( 'NONE', #154, #179, #248 ) ;
#176 = CARTESIAN_POINT ( 'NONE',  ( 1.224646799147353454E-16, 0.0000000000000000000, 1.000000000000000000 ) ) ;
#177 = LINE ( 'NONE', #194, #69 ) ;
#178 = DIRECTION ( 'NONE',  ( -1.000000000000000000, 0.0000000000000000000, 0.0000000000000000000 ) ) ;
#179 = DIRECTION ( 'NONE',  ( -1.224646799147353454E-16, -0.0000000000000000000, -1.000000000000000000 ) ) ;
#180 = STYLED_ITEM ( 'NONE', ( #2 ), #282 ) ;
#181 = FACE_OUTER_BOUND ( 'NONE', #116, .T. ) ;
#182 = UNCERTAINTY_MEASURE_WITH_UNIT (LENGTH_MEASURE( 1.000000000000000082E-05 ), #267, 'distance_accuracy_value', 'NONE');
#183 = ORIENTED_EDGE ( 'NONE', *, *, #217, .T. ) ;
#184 = CARTESIAN_POINT ( 'NONE',  ( 1.224646799147353454E-16, 0.0000000000000000000, 1.000000000000000000 ) ) ;
#185 = ORIENTED_EDGE ( 'NONE', *, *, #85, .F. ) ;
#186 = VERTEX_POINT ( 'NONE', #173 ) ;
#187 = DIRECTION ( 'NONE',  ( -0.0000000000000000000, -0.0000000000000000000, -1.000000000000000000 ) ) ;
#188 = FACE_OUTER_BOUND ( 'NONE', #4, .T. ) ;
#189 = CLOSED_SHELL ( 'NONE', ( #160, #28, #35, #156, #213, #201, #47, #292, #208, #72 ) ) ;
#190 = AXIS2_PLACEMENT_3D ( 'NONE', #44, #129, #178 ) ;
#191 = CARTESIAN_POINT ( 'NONE',  ( 0.2350000000000011524, 2.877919977996294002E-17, 3.000000000000000444 ) ) ;
#192 = EDGE_CURVE ( 'NONE', #294, #157, #212, .T. ) ;
#193 = SURFACE_STYLE_USAGE ( .BOTH. , #42 ) ;
#194 = CARTESIAN_POINT ( 'NONE',  ( -0.2497499999999998888, 3.058555380870514950E-17, 1.000000000000000000 ) ) ;
#195 = CONICAL_SURFACE ( 'NONE', #97, 0.2497499999999999998, 0.1745329251994339192 ) ;
#196 = CARTESIAN_POINT ( 'NONE',  ( 0.0000000000000000000, 0.0000000000000000000, 0.0000000000000000000 ) ) ;
#197 = EDGE_CURVE ( 'NONE', #294, #73, #109, .T. ) ;
#198 = DIRECTION ( 'NONE',  ( -1.224646799147353454E-16, -0.0000000000000000000, -1.000000000000000000 ) ) ;
#199 = DIRECTION ( 'NONE',  ( -0.0000000000000000000, -0.0000000000000000000, -1.000000000000000000 ) ) ;
#200 = MECHANICAL_DESIGN_GEOMETRIC_PRESENTATION_REPRESENTATION (  '', ( #46 ), #64 ) ;
#201 = ADVANCED_FACE ( 'NONE', ( #127 ), #219, .T. ) ;
#202 = ORIENTED_EDGE ( 'NONE', *, *, #261, .T. ) ;
#203 = ORIENTED_EDGE ( 'NONE', *, *, #85, .T. ) ;
#204 = ORIENTED_EDGE ( 'NONE', *, *, #81, .T. ) ;
#205 = AXIS2_PLACEMENT_3D ( 'NONE', #214, #290, #41 ) ;
#206 = FILL_AREA_STYLE ('',( #114 ) ) ;
#207 = DIRECTION ( 'NONE',  ( 0.0000000000000000000, 0.0000000000000000000, -1.000000000000000000 ) ) ;
#208 = ADVANCED_FACE ( 'NONE', ( #70 ), #221, .T. ) ;
#209 = VERTEX_POINT ( 'NONE', #271 ) ;
#210 = PRESENTATION_STYLE_ASSIGNMENT (( #193 ) ) ;
#211 = CONICAL_SURFACE ( 'NONE', #297, 0.2350000000000011524, 0.7853981633974380649 ) ;
#212 = CIRCLE ( 'NONE', #252, 0.2350000000000011524 ) ;
#213 = ADVANCED_FACE ( 'NONE', ( #67 ), #115, .T. ) ;
#214 = CARTESIAN_POINT ( 'NONE',  ( 0.0000000000000000000, 0.0000000000000000000, 0.0000000000000000000 ) ) ;
#215 = DIRECTION ( 'NONE',  ( 0.0000000000000000000, 0.0000000000000000000, -1.000000000000000000 ) ) ;
#216 = DIRECTION ( 'NONE',  ( 0.0000000000000000000, 0.0000000000000000000, 1.000000000000000000 ) ) ;
#217 = EDGE_CURVE ( 'NONE', #257, #227, #32, .T. ) ;
#218 = COLOUR_RGB ( '',0.7921568627450980005, 0.8196078431372548767, 0.9333333333333333481 ) ;
#219 = PLANE ( 'NONE',  #74 ) ;
#220 = DIRECTION ( 'NONE',  ( -1.000000000000000000, 0.0000000000000000000, 1.224646799147353700E-16 ) ) ;
#221 = CYLINDRICAL_SURFACE ( 'NONE', #287, 0.2497499999999999998 ) ;
#222 = CIRCLE ( 'NONE', #134, 0.2500000000000000000 ) ;
#223 = CARTESIAN_POINT ( 'NONE',  ( 0.2497500000000001386, 0.0000000000000000000, 1.000000000000000000 ) ) ;
#224 = ORIENTED_EDGE ( 'NONE', *, *, #137, .T. ) ;
#225 = ORIENTED_EDGE ( 'NONE', *, *, #165, .F. ) ;
#226 = DIRECTION ( 'NONE',  ( -1.000000000000000000, 0.0000000000000000000, 1.224646799147353700E-16 ) ) ;
#227 = VERTEX_POINT ( 'NONE', #296 ) ;
#228 = EDGE_CURVE ( 'NONE', #227, #100, #251, .T. ) ;
#229 = CONICAL_SURFACE ( 'NONE', #101, 0.2350000000000011524, 0.7853981633974380649 ) ;
#230 = CIRCLE ( 'NONE', #242, 0.2497499999999999998 ) ;
#231 = DIRECTION ( 'NONE',  ( 0.0000000000000000000, 0.0000000000000000000, 1.000000000000000000 ) ) ;
#232 = ORIENTED_EDGE ( 'NONE', *, *, #102, .F. ) ;
#233 = LENGTH_MEASURE_WITH_UNIT ( LENGTH_MEASURE( 0.02539999999999999897 ), #235 );
#234 = DIRECTION ( 'NONE',  ( 0.0000000000000000000, 0.0000000000000000000, 1.000000000000000000 ) ) ;
#235 =( LENGTH_UNIT ( ) NAMED_UNIT ( * ) SI_UNIT ( $, .METRE. ) );
#236 = VECTOR ( 'NONE', #98, 39.37007874015748854 ) ;
#237 = VERTEX_POINT ( 'NONE', #153 ) ;
#238 = VECTOR ( 'NONE', #110, 39.37007874015748143 ) ;
#239 = CARTESIAN_POINT ( 'NONE',  ( 1.226383128429217700E-16, 0.0000000000000000000, 1.001417820454904462 ) ) ;
#240 = LINE ( 'NONE', #174, #238 ) ;
#241 = DIRECTION ( 'NONE',  ( -1.224646799147353454E-16, -0.0000000000000000000, -1.000000000000000000 ) ) ;
#242 = AXIS2_PLACEMENT_3D ( 'NONE', #87, #198, #226 ) ;
#243 = LENGTH_MEASURE_WITH_UNIT ( LENGTH_MEASURE( 0.02539999999999999897 ), #144 );
#244 = EDGE_CURVE ( 'NONE', #186, #73, #88, .T. ) ;
#245 = LINE ( 'NONE', #103, #51 ) ;
#246 = DIRECTION ( 'NONE',  ( 1.000000000000000000, 0.0000000000000000000, 0.0000000000000000000 ) ) ;
#247 =( GEOMETRIC_REPRESENTATION_CONTEXT ( 3 ) GLOBAL_UNCERTAINTY_ASSIGNED_CONTEXT ( ( #96 ) ) GLOBAL_UNIT_ASSIGNED_CONTEXT ( ( #90, #276, #66 ) ) REPRESENTATION_CONTEXT ( 'NONE', 'WORKASPACE' ) );
#248 = DIRECTION ( 'NONE',  ( -1.000000000000000000, 0.0000000000000000000, 0.0000000000000000000 ) ) ;
#249 = CARTESIAN_POINT ( 'NONE',  ( 0.0000000000000000000, 0.0000000000000000000, 2.985000000000001208 ) ) ;
#250 = EDGE_CURVE ( 'NONE', #237, #100, #230, .T. ) ;
#251 = LINE ( 'NONE', #45, #61 ) ;
#252 = AXIS2_PLACEMENT_3D ( 'NONE', #62, #216, #246 ) ;
#253 = CIRCLE ( 'NONE', #278, 0.2500000000000000000 ) ;
#254 = DIRECTION ( 'NONE',  ( -0.1736481776669312194, 2.126576849575783625E-17, 0.9848077530122080203 ) ) ;
#255 = PRODUCT_RELATED_PRODUCT_CATEGORY ( 'part', '', ( #57 ) ) ;
#256 = EDGE_LOOP ( 'NONE', ( #79, #183, #24, #117 ) ) ;
#257 = VERTEX_POINT ( 'NONE', #223 ) ;
#258 = CIRCLE ( 'NONE', #108, 0.2497499999999999998 ) ;
#259 = EDGE_LOOP ( 'NONE', ( #158, #281, #224, #275 ) ) ;
#260 = CARTESIAN_POINT ( 'NONE',  ( -0.2350000000000011524, 0.0000000000000000000, 3.000000000000000444 ) ) ;
#261 = EDGE_CURVE ( 'NONE', #227, #257, #161, .T. ) ;
#262 = ORIENTED_EDGE ( 'NONE', *, *, #244, .T. ) ;
#263 = CARTESIAN_POINT ( 'NONE',  ( 0.0000000000000000000, 0.0000000000000000000, 0.0000000000000000000 ) ) ;
#264 = VECTOR ( 'NONE', #293, 39.37007874015748854 ) ;
#265 = EDGE_CURVE ( 'NONE', #227, #209, #177, .T. ) ;
#266 = FACE_OUTER_BOUND ( 'NONE', #94, .T. ) ;
#267 =( CONVERSION_BASED_UNIT ( 'INCH', #243 ) LENGTH_UNIT ( ) NAMED_UNIT ( #19 ) );
#268 = PRESENTATION_LAYER_ASSIGNMENT (  '', '', ( #180 ) ) ;
#269 = CARTESIAN_POINT ( 'NONE',  ( -0.2350000000000011524, 0.0000000000000000000, 3.000000000000000444 ) ) ;
#270 = CARTESIAN_POINT ( 'NONE',  ( 0.2497500000000001386, 0.0000000000000000000, 1.000000000000000000 ) ) ;
#271 = CARTESIAN_POINT ( 'NONE',  ( -0.2499999999999998612, 0.0000000000000000000, 1.001417820454904462 ) ) ;
#272 =( GEOMETRIC_REPRESENTATION_CONTEXT ( 3 ) GLOBAL_UNCERTAINTY_ASSIGNED_CONTEXT ( ( #10 ) ) GLOBAL_UNIT_ASSIGNED_CONTEXT ( ( #11, #52, #5 ) ) REPRESENTATION_CONTEXT ( 'NONE', 'WORKASPACE' ) );
#273 = CARTESIAN_POINT ( 'NONE',  ( 0.0000000000000000000, 0.0000000000000000000, 3.000000000000000444 ) ) ;
#274 = FACE_OUTER_BOUND ( 'NONE', #259, .T. ) ;
#275 = ORIENTED_EDGE ( 'NONE', *, *, #148, .T. ) ;
#276 =( NAMED_UNIT ( * ) PLANE_ANGLE_UNIT ( ) SI_UNIT ( $, .RADIAN. ) );
#277 = EDGE_CURVE ( 'NONE', #100, #237, #258, .T. ) ;
#278 = AXIS2_PLACEMENT_3D ( 'NONE', #125, #215, #83 ) ;
#279 = FACE_OUTER_BOUND ( 'NONE', #27, .T. ) ;
#280 = SURFACE_STYLE_USAGE ( .BOTH. , #26 ) ;
#281 = ORIENTED_EDGE ( 'NONE', *, *, #217, .F. ) ;
#282 = ADVANCED_BREP_SHAPE_REPRESENTATION ( 'Micro_EMS-500-2X', ( #93, #113 ), #247 ) ;
#283 = EDGE_LOOP ( 'NONE', ( #7, #164, #120, #31 ) ) ;
#284 = DIRECTION ( 'NONE',  ( 1.000000000000000000, 0.0000000000000000000, 0.0000000000000000000 ) ) ;
#285 = ORIENTED_EDGE ( 'NONE', *, *, #165, .T. ) ;
#286 = ORIENTED_EDGE ( 'NONE', *, *, #192, .T. ) ;
#287 = AXIS2_PLACEMENT_3D ( 'NONE', #196, #65, #128 ) ;
#288 = PRODUCT_DEFINITION_SHAPE ( 'NONE', 'NONE',  #40 ) ;
#289 = DIRECTION ( 'NONE',  ( 1.000000000000000000, 0.0000000000000000000, 0.0000000000000000000 ) ) ;
#290 = DIRECTION ( 'NONE',  ( -1.224646799147353454E-16, -0.0000000000000000000, -1.000000000000000000 ) ) ;
#291 = DIRECTION ( 'NONE',  ( -1.000000000000000000, 0.0000000000000000000, 0.0000000000000000000 ) ) ;
#292 = ADVANCED_FACE ( 'NONE', ( #274 ), #195, .T. ) ;
#293 = DIRECTION ( 'NONE',  ( 0.7071067811865402453, 8.659560562354845344E-17, -0.7071067811865546782 ) ) ;
#294 = VERTEX_POINT ( 'NONE', #112 ) ;
#295 =( NAMED_UNIT ( * ) PLANE_ANGLE_UNIT ( ) SI_UNIT ( $, .RADIAN. ) );
#296 = CARTESIAN_POINT ( 'NONE',  ( -0.2497499999999998888, 3.060086189369449292E-17, 1.000000000000000000 ) ) ;
#297 = AXIS2_PLACEMENT_3D ( 'NONE', #139, #207, #12 ) ;
#298 = PRODUCT_DEFINITION_FORMATION_WITH_SPECIFIED_SOURCE ( 'ANY', '', #57, .NOT_KNOWN. ) ;
#299 =( LENGTH_UNIT ( ) NAMED_UNIT ( * ) SI_UNIT ( $, .METRE. ) );
ENDSEC;
END-ISO-10303-21;
