ISO-10303-21;
HEADER;
FILE_DESCRIPTION (( 'STEP AP214' ),
    '1' );
FILE_NAME ('84691.STEP',
    '2023-06-23T14:48:14',
    ( '' ),
    ( '' ),
    'SwSTEP 2.0',
    'SolidWorks 2023',
    '' );
FILE_SCHEMA (( 'AUTOMOTIVE_DESIGN' ));
ENDSEC;

DATA;
#1 = LINE ( 'NONE', #291, #151 ) ;
#2 = ORIENTED_EDGE ( 'NONE', *, *, #236, .T. ) ;
#3 = SURFACE_STYLE_FILL_AREA ( #266 ) ;
#4 = VERTEX_POINT ( 'NONE', #170 ) ;
#5 =( NAMED_UNIT ( * ) PLANE_ANGLE_UNIT ( ) SI_UNIT ( $, .RADIAN. ) );
#6 = DIMENSIONAL_EXPONENTS ( 1.000000000000000000, 0.000000000000000000, 0.000000000000000000, 0.000000000000000000, 0.000000000000000000, 0.000000000000000000, 0.000000000000000000 ) ;
#7 = LINE ( 'NONE', #58, #112 ) ;
#8 = EDGE_LOOP ( 'NONE', ( #2, #269 ) ) ;
#9 =( NAMED_UNIT ( * ) PLANE_ANGLE_UNIT ( ) SI_UNIT ( $, .RADIAN. ) );
#10 =( LENGTH_UNIT ( ) NAMED_UNIT ( * ) SI_UNIT ( $, .METRE. ) );
#11 = VERTEX_POINT ( 'NONE', #187 ) ;
#12 = LENGTH_MEASURE_WITH_UNIT ( LENGTH_MEASURE( 0.02539999999999999897 ), #279 );
#13 = CARTESIAN_POINT ( 'NONE',  ( 2.893055136307598342E-33, 3.750000000000000000, 0.000000000000000000 ) ) ;
#14 = DIRECTION ( 'NONE',  ( 0.000000000000000000, 0.000000000000000000, -1.000000000000000000 ) ) ;
#15 = FACE_OUTER_BOUND ( 'NONE', #8, .T. ) ;
#16 = CYLINDRICAL_SURFACE ( 'NONE', #80, 0.3125000000000001665 ) ;
#17 = COLOUR_RGB ( '',1.000000000000000000, 0.000000000000000000, 0.000000000000000000 ) ;
#18 = STYLED_ITEM ( 'NONE', ( #156 ), #275 ) ;
#19 = ADVANCED_FACE ( 'NONE', ( #68 ), #191, .T. ) ;
#20 = CARTESIAN_POINT ( 'NONE',  ( -3.061616997868384127E-16, 6.000000000000000888, 0.000000000000000000 ) ) ;
#21 = EDGE_CURVE ( 'NONE', #248, #85, #168, .T. ) ;
#22 = FILL_AREA_STYLE_COLOUR ( '', #91 ) ;
#23 = CIRCLE ( 'NONE', #78, 0.3125000000000000000 ) ;
#24 = UNCERTAINTY_MEASURE_WITH_UNIT (LENGTH_MEASURE( 1.000000000000000082E-05 ), #194, 'distance_accuracy_value', 'NONE');
#25 = CARTESIAN_POINT ( 'NONE',  ( 6.065921084684207584E-32, 3.750000000000000000, 0.000000000000000000 ) ) ;
#26 = CARTESIAN_POINT ( 'NONE',  ( -3.061616997868384127E-16, 6.000000000000000888, 0.000000000000000000 ) ) ;
#27 = DIRECTION ( 'NONE',  ( -1.360718665719281889E-16, 1.000000000000000000, -0.000000000000000000 ) ) ;
#28 = SURFACE_STYLE_USAGE ( .BOTH. , #203 ) ;
#29 = EDGE_LOOP ( 'NONE', ( #67, #149, #231, #32 ) ) ;
#30 = DIMENSIONAL_EXPONENTS ( 1.000000000000000000, 0.000000000000000000, 0.000000000000000000, 0.000000000000000000, 0.000000000000000000, 0.000000000000000000, 0.000000000000000000 ) ;
#31 =( LENGTH_UNIT ( ) NAMED_UNIT ( * ) SI_UNIT ( $, .METRE. ) );
#32 = ORIENTED_EDGE ( 'NONE', *, *, #278, .F. ) ;
#33 = FILL_AREA_STYLE ('',( #190 ) ) ;
#34 = CIRCLE ( 'NONE', #92, 0.3125000000000000000 ) ;
#35 = CARTESIAN_POINT ( 'NONE',  ( 0.000000000000000000, 0.000000000000000000, 0.000000000000000000 ) ) ;
#36 = CARTESIAN_POINT ( 'NONE',  ( 0.3125000000000000000, 6.000000000000000888, 0.000000000000000000 ) ) ;
#37 = UNCERTAINTY_MEASURE_WITH_UNIT (LENGTH_MEASURE( 1.000000000000000082E-05 ), #273, 'distance_accuracy_value', 'NONE');
#38 = ORIENTED_EDGE ( 'NONE', *, *, #101, .F. ) ;
#39 =( CONVERSION_BASED_UNIT ( 'INCH', #12 ) LENGTH_UNIT ( ) NAMED_UNIT ( #162 ) );
#40 = SURFACE_STYLE_FILL_AREA ( #146 ) ;
#41 =( GEOMETRIC_REPRESENTATION_CONTEXT ( 3 ) GLOBAL_UNCERTAINTY_ASSIGNED_CONTEXT ( ( #37 ) ) GLOBAL_UNIT_ASSIGNED_CONTEXT ( ( #273, #251, #184 ) ) REPRESENTATION_CONTEXT ( 'NONE', 'WORKASPACE' ) );
#42 =( NAMED_UNIT ( * ) SI_UNIT ( $, .STERADIAN. ) SOLID_ANGLE_UNIT ( ) );
#43 = EDGE_CURVE ( 'NONE', #114, #4, #90, .T. ) ;
#44 = EDGE_LOOP ( 'NONE', ( #88, #62, #63, #159 ) ) ;
#45 =( NAMED_UNIT ( * ) PLANE_ANGLE_UNIT ( ) SI_UNIT ( $, .RADIAN. ) );
#46 = AXIS2_PLACEMENT_3D ( 'NONE', #252, #148, #14 ) ;
#47 = AXIS2_PLACEMENT_3D ( 'NONE', #144, #230, #118 ) ;
#48 = SURFACE_SIDE_STYLE ('',( #96 ) ) ;
#49 = PRODUCT_DEFINITION_CONTEXT ( 'detailed design', #204, 'design' ) ;
#50 =( LENGTH_UNIT ( ) NAMED_UNIT ( * ) SI_UNIT ( $, .METRE. ) );
#51 = CARTESIAN_POINT ( 'NONE',  ( 0.000000000000000000, 3.750000000000000000, -0.3125000000000000000 ) ) ;
#52 =( GEOMETRIC_REPRESENTATION_CONTEXT ( 3 ) GLOBAL_UNCERTAINTY_ASSIGNED_CONTEXT ( ( #209 ) ) GLOBAL_UNIT_ASSIGNED_CONTEXT ( ( #154, #45, #199 ) ) REPRESENTATION_CONTEXT ( 'NONE', 'WORKASPACE' ) );
#53 = MECHANICAL_DESIGN_GEOMETRIC_PRESENTATION_REPRESENTATION (  '', ( #265 ), #286 ) ;
#54 =( CONVERSION_BASED_UNIT ( 'INCH', #180 ) LENGTH_UNIT ( ) NAMED_UNIT ( #30 ) );
#55 = ADVANCED_FACE ( 'NONE', ( #15 ), #165, .F. ) ;
#56 = SHAPE_DEFINITION_REPRESENTATION ( #115, #307 ) ;
#57 = ORIENTED_EDGE ( 'NONE', *, *, #137, .F. ) ;
#58 = CARTESIAN_POINT ( 'NONE',  ( 0.000000000000000000, 0.000000000000000000, -0.3125000000000000000 ) ) ;
#59 = PRODUCT ( '84691', '84691', '', ( #242 ) ) ;
#60 = ADVANCED_FACE ( 'NONE', ( #281 ), #93, .F. ) ;
#61 = MECHANICAL_DESIGN_GEOMETRIC_PRESENTATION_REPRESENTATION (  '', ( #104 ), #292 ) ;
#62 = ORIENTED_EDGE ( 'NONE', *, *, #160, .T. ) ;
#63 = ORIENTED_EDGE ( 'NONE', *, *, #21, .T. ) ;
#64 = ORIENTED_EDGE ( 'NONE', *, *, #137, .T. ) ;
#65 = DIRECTION ( 'NONE',  ( -0.000000000000000000, -1.000000000000000000, -0.000000000000000000 ) ) ;
#66 = MECHANICAL_DESIGN_GEOMETRIC_PRESENTATION_REPRESENTATION (  '', ( #135 ), #186 ) ;
#67 = ORIENTED_EDGE ( 'NONE', *, *, #130, .T. ) ;
#68 = FACE_OUTER_BOUND ( 'NONE', #185, .T. ) ;
#69 = DIRECTION ( 'NONE',  ( -1.360718665719281889E-16, 1.000000000000000000, -0.000000000000000000 ) ) ;
#70 = LENGTH_MEASURE_WITH_UNIT ( LENGTH_MEASURE( 0.02539999999999999897 ), #10 );
#71 = PRESENTATION_LAYER_ASSIGNMENT (  '', '', ( #206 ) ) ;
#72 = DIRECTION ( 'NONE',  ( -1.360718665719281889E-16, 1.000000000000000000, 0.000000000000000000 ) ) ;
#73 = PRESENTATION_LAYER_ASSIGNMENT (  '', '', ( #18 ) ) ;
#74 = EDGE_LOOP ( 'NONE', ( #134, #245, #89, #38 ) ) ;
#75 = FILL_AREA_STYLE ('',( #132 ) ) ;
#76 = UNCERTAINTY_MEASURE_WITH_UNIT (LENGTH_MEASURE( 1.000000000000000082E-05 ), #217, 'distance_accuracy_value', 'NONE');
#77 = DIRECTION ( 'NONE',  ( -1.000000000000000000, 0.000000000000000000, 0.000000000000000000 ) ) ;
#78 = AXIS2_PLACEMENT_3D ( 'NONE', #214, #98, #197 ) ;
#79 = AXIS2_PLACEMENT_3D ( 'NONE', #13, #72, #255 ) ;
#80 = AXIS2_PLACEMENT_3D ( 'NONE', #20, #27, #138 ) ;
#81 = FACE_OUTER_BOUND ( 'NONE', #111, .T. ) ;
#82 = EDGE_CURVE ( 'NONE', #114, #179, #169, .T. ) ;
#83 = FACE_OUTER_BOUND ( 'NONE', #29, .T. ) ;
#84 = FILL_AREA_STYLE_COLOUR ( '', #287 ) ;
#85 = VERTEX_POINT ( 'NONE', #94 ) ;
#86 = AXIS2_PLACEMENT_3D ( 'NONE', #131, #155, #103 ) ;
#87 =( NAMED_UNIT ( * ) SI_UNIT ( $, .STERADIAN. ) SOLID_ANGLE_UNIT ( ) );
#88 = ORIENTED_EDGE ( 'NONE', *, *, #250, .F. ) ;
#89 = ORIENTED_EDGE ( 'NONE', *, *, #278, .T. ) ;
#90 = LINE ( 'NONE', #122, #196 ) ;
#91 = COLOUR_RGB ( '',0.7921568627450980005, 0.8196078431372548767, 0.9333333333333333481 ) ;
#92 = AXIS2_PLACEMENT_3D ( 'NONE', #237, #309, #150 ) ;
#93 = PLANE ( 'NONE',  #79 ) ;
#94 = CARTESIAN_POINT ( 'NONE',  ( -0.3125000000000005551, 6.000000000000000888, 0.000000000000000000 ) ) ;
#95 = PRESENTATION_STYLE_ASSIGNMENT (( #120 ) ) ;
#96 = SURFACE_STYLE_FILL_AREA ( #75 ) ;
#97 = LENGTH_MEASURE_WITH_UNIT ( LENGTH_MEASURE( 0.02539999999999999897 ), #171 );
#98 = DIRECTION ( 'NONE',  ( -0.000000000000000000, -1.000000000000000000, -0.000000000000000000 ) ) ;
#99 =( GEOMETRIC_REPRESENTATION_CONTEXT ( 3 ) GLOBAL_UNCERTAINTY_ASSIGNED_CONTEXT ( ( #284 ) ) GLOBAL_UNIT_ASSIGNED_CONTEXT ( ( #54, #5, #87 ) ) REPRESENTATION_CONTEXT ( 'NONE', 'WORKASPACE' ) );
#100 = FILL_AREA_STYLE ('',( #22 ) ) ;
#101 = EDGE_CURVE ( 'NONE', #4, #181, #270, .T. ) ;
#102 = CARTESIAN_POINT ( 'NONE',  ( -3.061616997868384127E-16, 6.000000000000000888, 0.000000000000000000 ) ) ;
#103 = DIRECTION ( 'NONE',  ( 1.000000000000000000, 0.000000000000000000, 0.000000000000000000 ) ) ;
#104 = STYLED_ITEM ( 'NONE', ( #95 ), #19 ) ;
#105 = SURFACE_SIDE_STYLE ('',( #3 ) ) ;
#106 = ORIENTED_EDGE ( 'NONE', *, *, #250, .T. ) ;
#107 = SURFACE_STYLE_FILL_AREA ( #133 ) ;
#108 = PRODUCT_DEFINITION ( 'UNKNOWN', '', #119, #49 ) ;
#109 = DIMENSIONAL_EXPONENTS ( 1.000000000000000000, 0.000000000000000000, 0.000000000000000000, 0.000000000000000000, 0.000000000000000000, 0.000000000000000000, 0.000000000000000000 ) ;
#110 = FILL_AREA_STYLE_COLOUR ( '', #228 ) ;
#111 = EDGE_LOOP ( 'NONE', ( #64, #106, #227, #294 ) ) ;
#112 = VECTOR ( 'NONE', #247, 39.37007874015748143 ) ;
#113 = CARTESIAN_POINT ( 'NONE',  ( 0.000000000000000000, 3.750000000000000000, 0.000000000000000000 ) ) ;
#114 = VERTEX_POINT ( 'NONE', #121 ) ;
#115 = PRODUCT_DEFINITION_SHAPE ( 'NONE', 'NONE',  #108 ) ;
#116 =( NAMED_UNIT ( * ) PLANE_ANGLE_UNIT ( ) SI_UNIT ( $, .RADIAN. ) );
#117 = DIRECTION ( 'NONE',  ( 0.000000000000000000, -1.000000000000000000, -0.000000000000000000 ) ) ;
#118 = DIRECTION ( 'NONE',  ( 0.000000000000000000, 0.000000000000000000, -1.000000000000000000 ) ) ;
#119 = PRODUCT_DEFINITION_FORMATION_WITH_SPECIFIED_SOURCE ( 'ANY', '', #59, .NOT_KNOWN. ) ;
#120 = SURFACE_STYLE_USAGE ( .BOTH. , #303 ) ;
#121 = CARTESIAN_POINT ( 'NONE',  ( 3.827021247335478926E-17, 3.750000000000000000, 0.3125000000000000000 ) ) ;
#122 = CARTESIAN_POINT ( 'NONE',  ( 3.827021247335478926E-17, 0.000000000000000000, 0.3125000000000000000 ) ) ;
#123 = AXIS2_PLACEMENT_3D ( 'NONE', #25, #173, #308 ) ;
#124 = CIRCLE ( 'NONE', #282, 0.3125000000000002776 ) ;
#125 = SURFACE_STYLE_FILL_AREA ( #100 ) ;
#126 = AXIS2_PLACEMENT_3D ( 'NONE', #220, #175, #174 ) ;
#127 = SURFACE_STYLE_USAGE ( .BOTH. , #259 ) ;
#128 = PRESENTATION_STYLE_ASSIGNMENT (( #127 ) ) ;
#129 = AXIS2_PLACEMENT_3D ( 'NONE', #113, #263, #207 ) ;
#130 = EDGE_CURVE ( 'NONE', #179, #114, #23, .T. ) ;
#131 = CARTESIAN_POINT ( 'NONE',  ( 0.000000000000000000, 0.000000000000000000, 0.000000000000000000 ) ) ;
#132 = FILL_AREA_STYLE_COLOUR ( '', #177 ) ;
#133 = FILL_AREA_STYLE ('',( #110 ) ) ;
#134 = ORIENTED_EDGE ( 'NONE', *, *, #43, .F. ) ;
#135 = STYLED_ITEM ( 'NONE', ( #208 ), #305 ) ;
#136 = DIRECTION ( 'NONE',  ( -1.000000000000000000, 0.000000000000000000, 0.000000000000000000 ) ) ;
#137 = EDGE_CURVE ( 'NONE', #248, #11, #223, .T. ) ;
#138 = DIRECTION ( 'NONE',  ( -1.000000000000000000, 0.000000000000000000, 0.000000000000000000 ) ) ;
#139 = ORIENTED_EDGE ( 'NONE', *, *, #160, .F. ) ;
#140 = AXIS2_PLACEMENT_3D ( 'NONE', #36, #210, #215 ) ;
#141 = PRESENTATION_LAYER_ASSIGNMENT (  '', '', ( #293 ) ) ;
#142 = DIRECTION ( 'NONE',  ( 0.000000000000000000, 0.000000000000000000, -1.000000000000000000 ) ) ;
#143 = DIMENSIONAL_EXPONENTS ( 1.000000000000000000, 0.000000000000000000, 0.000000000000000000, 0.000000000000000000, 0.000000000000000000, 0.000000000000000000, 0.000000000000000000 ) ;
#144 = CARTESIAN_POINT ( 'NONE',  ( 0.000000000000000000, 0.000000000000000000, 0.000000000000000000 ) ) ;
#145 = SURFACE_STYLE_USAGE ( .BOTH. , #249 ) ;
#146 = FILL_AREA_STYLE ('',( #235 ) ) ;
#147 = AXIS2_PLACEMENT_3D ( 'NONE', #298, #274, #233 ) ;
#148 = DIRECTION ( 'NONE',  ( -0.000000000000000000, -1.000000000000000000, -0.000000000000000000 ) ) ;
#149 = ORIENTED_EDGE ( 'NONE', *, *, #43, .T. ) ;
#150 = DIRECTION ( 'NONE',  ( 0.000000000000000000, 0.000000000000000000, -1.000000000000000000 ) ) ;
#151 = VECTOR ( 'NONE', #261, 39.37007874015748143 ) ;
#152 = MANIFOLD_SOLID_BREP ( 'Revolve - Tool Body (Straight Shanked)', #216 ) ;
#153 = MANIFOLD_SOLID_BREP ( 'Revolve - Cutting Edge', #253 ) ;
#154 =( CONVERSION_BASED_UNIT ( 'INCH', #198 ) LENGTH_UNIT ( ) NAMED_UNIT ( #143 ) );
#155 = DIRECTION ( 'NONE',  ( 0.000000000000000000, 0.000000000000000000, 1.000000000000000000 ) ) ;
#156 = PRESENTATION_STYLE_ASSIGNMENT (( #202 ) ) ;
#157 = ORIENTED_EDGE ( 'NONE', *, *, #82, .F. ) ;
#158 =( NAMED_UNIT ( * ) PLANE_ANGLE_UNIT ( ) SI_UNIT ( $, .RADIAN. ) );
#159 = ORIENTED_EDGE ( 'NONE', *, *, #192, .F. ) ;
#160 = EDGE_CURVE ( 'NONE', #11, #248, #272, .T. ) ;
#161 = ORIENTED_EDGE ( 'NONE', *, *, #130, .F. ) ;
#162 = DIMENSIONAL_EXPONENTS ( 1.000000000000000000, 0.000000000000000000, 0.000000000000000000, 0.000000000000000000, 0.000000000000000000, 0.000000000000000000, 0.000000000000000000 ) ;
#163 = VERTEX_POINT ( 'NONE', #260 ) ;
#164 = DIRECTION ( 'NONE',  ( 0.000000000000000000, 0.000000000000000000, -1.000000000000000000 ) ) ;
#165 = PLANE ( 'NONE',  #140 ) ;
#166 = UNCERTAINTY_MEASURE_WITH_UNIT (LENGTH_MEASURE( 1.000000000000000082E-05 ), #178, 'distance_accuracy_value', 'NONE');
#167 = ORIENTED_EDGE ( 'NONE', *, *, #189, .T. ) ;
#168 = LINE ( 'NONE', #297, #264 ) ;
#169 = CIRCLE ( 'NONE', #147, 0.3125000000000000000 ) ;
#170 = CARTESIAN_POINT ( 'NONE',  ( 3.827021247335478926E-17, 0.000000000000000000, 0.3125000000000000000 ) ) ;
#171 =( LENGTH_UNIT ( ) NAMED_UNIT ( * ) SI_UNIT ( $, .METRE. ) );
#172 = AXIS2_PLACEMENT_3D ( 'NONE', #224, #262, #205 ) ;
#173 = DIRECTION ( 'NONE',  ( -1.360718665719281889E-16, 1.000000000000000000, -0.000000000000000000 ) ) ;
#174 = DIRECTION ( 'NONE',  ( -1.000000000000000000, 0.000000000000000000, 0.000000000000000000 ) ) ;
#175 = DIRECTION ( 'NONE',  ( -1.360718665719281889E-16, 1.000000000000000000, -0.000000000000000000 ) ) ;
#176 = DIRECTION ( 'NONE',  ( -1.360718665719281889E-16, 1.000000000000000000, -0.000000000000000000 ) ) ;
#177 = COLOUR_RGB ( '',0.7921568627450980005, 0.8196078431372548767, 0.9333333333333333481 ) ;
#178 =( CONVERSION_BASED_UNIT ( 'INCH', #200 ) LENGTH_UNIT ( ) NAMED_UNIT ( #226 ) );
#179 = VERTEX_POINT ( 'NONE', #51 ) ;
#180 = LENGTH_MEASURE_WITH_UNIT ( LENGTH_MEASURE( 0.02539999999999999897 ), #31 );
#181 = VERTEX_POINT ( 'NONE', #241 ) ;
#182 = COLOUR_RGB ( '',1.000000000000000000, 0.000000000000000000, 0.000000000000000000 ) ;
#183 = FACE_OUTER_BOUND ( 'NONE', #296, .T. ) ;
#184 =( NAMED_UNIT ( * ) SI_UNIT ( $, .STERADIAN. ) SOLID_ANGLE_UNIT ( ) );
#185 = EDGE_LOOP ( 'NONE', ( #167, #304 ) ) ;
#186 =( GEOMETRIC_REPRESENTATION_CONTEXT ( 3 ) GLOBAL_UNCERTAINTY_ASSIGNED_CONTEXT ( ( #280 ) ) GLOBAL_UNIT_ASSIGNED_CONTEXT ( ( #39, #116, #234 ) ) REPRESENTATION_CONTEXT ( 'NONE', 'WORKASPACE' ) );
#187 = CARTESIAN_POINT ( 'NONE',  ( 0.3125000000000000000, 3.750000000000000000, 3.827021247335480775E-17 ) ) ;
#188 = APPLICATION_CONTEXT ( 'automotive_design' ) ;
#189 = EDGE_CURVE ( 'NONE', #181, #4, #34, .T. ) ;
#190 = FILL_AREA_STYLE_COLOUR ( '', #182 ) ;
#191 = PLANE ( 'NONE',  #211 ) ;
#192 = EDGE_CURVE ( 'NONE', #163, #85, #124, .T. ) ;
#193 = AXIS2_PLACEMENT_3D ( 'NONE', #26, #176, #136 ) ;
#194 =( CONVERSION_BASED_UNIT ( 'INCH', #277 ) LENGTH_UNIT ( ) NAMED_UNIT ( #109 ) );
#195 =( NAMED_UNIT ( * ) PLANE_ANGLE_UNIT ( ) SI_UNIT ( $, .RADIAN. ) );
#196 = VECTOR ( 'NONE', #271, 39.37007874015748143 ) ;
#197 = DIRECTION ( 'NONE',  ( 0.000000000000000000, 0.000000000000000000, -1.000000000000000000 ) ) ;
#198 = LENGTH_MEASURE_WITH_UNIT ( LENGTH_MEASURE( 0.02539999999999999897 ), #50 );
#199 =( NAMED_UNIT ( * ) SI_UNIT ( $, .STERADIAN. ) SOLID_ANGLE_UNIT ( ) );
#200 = LENGTH_MEASURE_WITH_UNIT ( LENGTH_MEASURE( 0.02539999999999999897 ), #295 );
#201 = PRESENTATION_LAYER_ASSIGNMENT (  '', '', ( #135 ) ) ;
#202 = SURFACE_STYLE_USAGE ( .BOTH. , #105 ) ;
#203 = SURFACE_SIDE_STYLE ('',( #107 ) ) ;
#204 = APPLICATION_CONTEXT ( 'automotive_design' ) ;
#205 = DIRECTION ( 'NONE',  ( -1.000000000000000000, 0.000000000000000000, 0.000000000000000000 ) ) ;
#206 = STYLED_ITEM ( 'NONE', ( #128 ), #152 ) ;
#207 = DIRECTION ( 'NONE',  ( 0.000000000000000000, -0.000000000000000000, 1.000000000000000000 ) ) ;
#208 = PRESENTATION_STYLE_ASSIGNMENT (( #145 ) ) ;
#209 = UNCERTAINTY_MEASURE_WITH_UNIT (LENGTH_MEASURE( 1.000000000000000082E-05 ), #154, 'distance_accuracy_value', 'NONE');
#210 = DIRECTION ( 'NONE',  ( 1.360718665719281889E-16, -1.000000000000000000, 0.000000000000000000 ) ) ;
#211 = AXIS2_PLACEMENT_3D ( 'NONE', #35, #117, #142 ) ;
#212 = FACE_OUTER_BOUND ( 'NONE', #74, .T. ) ;
#213 =( LENGTH_UNIT ( ) NAMED_UNIT ( * ) SI_UNIT ( $, .METRE. ) );
#214 = CARTESIAN_POINT ( 'NONE',  ( 0.000000000000000000, 3.750000000000000000, 0.000000000000000000 ) ) ;
#215 = DIRECTION ( 'NONE',  ( 1.000000000000000000, 1.360718665719281889E-16, 0.000000000000000000 ) ) ;
#216 = CLOSED_SHELL ( 'NONE', ( #232, #60, #221, #55 ) ) ;
#217 =( CONVERSION_BASED_UNIT ( 'INCH', #97 ) LENGTH_UNIT ( ) NAMED_UNIT ( #6 ) );
#218 = MECHANICAL_DESIGN_GEOMETRIC_PRESENTATION_REPRESENTATION (  '', ( #18 ), #99 ) ;
#219 = SURFACE_STYLE_USAGE ( .BOTH. , #48 ) ;
#220 = CARTESIAN_POINT ( 'NONE',  ( 6.065921084684207584E-32, 3.750000000000000000, 0.000000000000000000 ) ) ;
#221 = ADVANCED_FACE ( 'NONE', ( #256 ), #16, .T. ) ;
#222 = CYLINDRICAL_SURFACE ( 'NONE', #193, 0.3125000000000001665 ) ;
#223 = CIRCLE ( 'NONE', #123, 0.3125000000000000000 ) ;
#224 = CARTESIAN_POINT ( 'NONE',  ( -3.061616997868384127E-16, 6.000000000000000888, 0.000000000000000000 ) ) ;
#225 = CARTESIAN_POINT ( 'NONE',  ( -0.3125000000000000000, 3.750000000000000000, 0.000000000000000000 ) ) ;
#226 = DIMENSIONAL_EXPONENTS ( 1.000000000000000000, 0.000000000000000000, 0.000000000000000000, 0.000000000000000000, 0.000000000000000000, 0.000000000000000000, 0.000000000000000000 ) ;
#227 = ORIENTED_EDGE ( 'NONE', *, *, #236, .F. ) ;
#228 = COLOUR_RGB ( '',1.000000000000000000, 0.000000000000000000, 0.000000000000000000 ) ;
#229 =( NAMED_UNIT ( * ) SI_UNIT ( $, .STERADIAN. ) SOLID_ANGLE_UNIT ( ) );
#230 = DIRECTION ( 'NONE',  ( -0.000000000000000000, -1.000000000000000000, -0.000000000000000000 ) ) ;
#231 = ORIENTED_EDGE ( 'NONE', *, *, #189, .F. ) ;
#232 = ADVANCED_FACE ( 'NONE', ( #81 ), #222, .T. ) ;
#233 = DIRECTION ( 'NONE',  ( 0.000000000000000000, 0.000000000000000000, -1.000000000000000000 ) ) ;
#234 =( NAMED_UNIT ( * ) SI_UNIT ( $, .STERADIAN. ) SOLID_ANGLE_UNIT ( ) );
#235 = FILL_AREA_STYLE_COLOUR ( '', #17 ) ;
#236 = EDGE_CURVE ( 'NONE', #85, #163, #254, .T. ) ;
#237 = CARTESIAN_POINT ( 'NONE',  ( 0.000000000000000000, 0.000000000000000000, 0.000000000000000000 ) ) ;
#238 = DIRECTION ( 'NONE',  ( -1.360718665719281889E-16, 1.000000000000000000, -0.000000000000000000 ) ) ;
#239 =( NAMED_UNIT ( * ) SI_UNIT ( $, .STERADIAN. ) SOLID_ANGLE_UNIT ( ) );
#240 = PRESENTATION_STYLE_ASSIGNMENT (( #219 ) ) ;
#241 = CARTESIAN_POINT ( 'NONE',  ( 0.000000000000000000, 0.000000000000000000, -0.3125000000000000000 ) ) ;
#242 = PRODUCT_CONTEXT ( 'NONE', #188, 'mechanical' ) ;
#243 = CYLINDRICAL_SURFACE ( 'NONE', #47, 0.3125000000000000000 ) ;
#244 = MECHANICAL_DESIGN_GEOMETRIC_PRESENTATION_REPRESENTATION (  '', ( #293 ), #258 ) ;
#245 = ORIENTED_EDGE ( 'NONE', *, *, #82, .T. ) ;
#246 = DIMENSIONAL_EXPONENTS ( 1.000000000000000000, 0.000000000000000000, 0.000000000000000000, 0.000000000000000000, 0.000000000000000000, 0.000000000000000000, 0.000000000000000000 ) ;
#247 = DIRECTION ( 'NONE',  ( -0.000000000000000000, -1.000000000000000000, -0.000000000000000000 ) ) ;
#248 = VERTEX_POINT ( 'NONE', #225 ) ;
#249 = SURFACE_SIDE_STYLE ('',( #300 ) ) ;
#250 = EDGE_CURVE ( 'NONE', #11, #163, #1, .T. ) ;
#251 =( NAMED_UNIT ( * ) PLANE_ANGLE_UNIT ( ) SI_UNIT ( $, .RADIAN. ) );
#252 = CARTESIAN_POINT ( 'NONE',  ( 0.000000000000000000, 0.000000000000000000, 0.000000000000000000 ) ) ;
#253 = CLOSED_SHELL ( 'NONE', ( #290, #275, #305, #19 ) ) ;
#254 = CIRCLE ( 'NONE', #172, 0.3125000000000002776 ) ;
#255 = DIRECTION ( 'NONE',  ( -1.000000000000000000, -1.360718665719281889E-16, 0.000000000000000000 ) ) ;
#256 = FACE_OUTER_BOUND ( 'NONE', #44, .T. ) ;
#257 = MECHANICAL_DESIGN_GEOMETRIC_PRESENTATION_REPRESENTATION (  '', ( #206 ), #52 ) ;
#258 =( GEOMETRIC_REPRESENTATION_CONTEXT ( 3 ) GLOBAL_UNCERTAINTY_ASSIGNED_CONTEXT ( ( #76 ) ) GLOBAL_UNIT_ASSIGNED_CONTEXT ( ( #217, #195, #239 ) ) REPRESENTATION_CONTEXT ( 'NONE', 'WORKASPACE' ) );
#259 = SURFACE_SIDE_STYLE ('',( #125 ) ) ;
#260 = CARTESIAN_POINT ( 'NONE',  ( 0.3125000000000000000, 6.000000000000000888, 3.827021247335480775E-17 ) ) ;
#261 = DIRECTION ( 'NONE',  ( -1.360718665719281889E-16, 1.000000000000000000, -0.000000000000000000 ) ) ;
#262 = DIRECTION ( 'NONE',  ( -1.360718665719281889E-16, 1.000000000000000000, -0.000000000000000000 ) ) ;
#263 = DIRECTION ( 'NONE',  ( 0.000000000000000000, 1.000000000000000000, 0.000000000000000000 ) ) ;
#264 = VECTOR ( 'NONE', #69, 39.37007874015748143 ) ;
#265 = STYLED_ITEM ( 'NONE', ( #289 ), #290 ) ;
#266 = FILL_AREA_STYLE ('',( #84 ) ) ;
#267 = EDGE_LOOP ( 'NONE', ( #57, #139 ) ) ;
#268 = APPLICATION_PROTOCOL_DEFINITION ( 'draft international standard', 'automotive_design', 1998, #188 ) ;
#269 = ORIENTED_EDGE ( 'NONE', *, *, #192, .T. ) ;
#270 = CIRCLE ( 'NONE', #46, 0.3125000000000000000 ) ;
#271 = DIRECTION ( 'NONE',  ( -0.000000000000000000, -1.000000000000000000, -0.000000000000000000 ) ) ;
#272 = CIRCLE ( 'NONE', #126, 0.3125000000000000000 ) ;
#273 =( CONVERSION_BASED_UNIT ( 'INCH', #70 ) LENGTH_UNIT ( ) NAMED_UNIT ( #246 ) );
#274 = DIRECTION ( 'NONE',  ( -0.000000000000000000, -1.000000000000000000, -0.000000000000000000 ) ) ;
#275 = ADVANCED_FACE ( 'NONE', ( #183 ), #288, .T. ) ;
#276 = CARTESIAN_POINT ( 'NONE',  ( 0.000000000000000000, 0.000000000000000000, 0.000000000000000000 ) ) ;
#277 = LENGTH_MEASURE_WITH_UNIT ( LENGTH_MEASURE( 0.02539999999999999897 ), #213 );
#278 = EDGE_CURVE ( 'NONE', #179, #181, #7, .T. ) ;
#279 =( LENGTH_UNIT ( ) NAMED_UNIT ( * ) SI_UNIT ( $, .METRE. ) );
#280 = UNCERTAINTY_MEASURE_WITH_UNIT (LENGTH_MEASURE( 1.000000000000000082E-05 ), #39, 'distance_accuracy_value', 'NONE');
#281 = FACE_OUTER_BOUND ( 'NONE', #267, .T. ) ;
#282 = AXIS2_PLACEMENT_3D ( 'NONE', #102, #238, #77 ) ;
#283 = PRESENTATION_LAYER_ASSIGNMENT (  '', '', ( #104 ) ) ;
#284 = UNCERTAINTY_MEASURE_WITH_UNIT (LENGTH_MEASURE( 1.000000000000000082E-05 ), #54, 'distance_accuracy_value', 'NONE');
#285 = APPLICATION_PROTOCOL_DEFINITION ( 'draft international standard', 'automotive_design', 1998, #204 ) ;
#286 =( GEOMETRIC_REPRESENTATION_CONTEXT ( 3 ) GLOBAL_UNCERTAINTY_ASSIGNED_CONTEXT ( ( #166 ) ) GLOBAL_UNIT_ASSIGNED_CONTEXT ( ( #178, #158, #42 ) ) REPRESENTATION_CONTEXT ( 'NONE', 'WORKASPACE' ) );
#287 = COLOUR_RGB ( '',1.000000000000000000, 0.000000000000000000, 0.000000000000000000 ) ;
#288 = PLANE ( 'NONE',  #129 ) ;
#289 = PRESENTATION_STYLE_ASSIGNMENT (( #28 ) ) ;
#290 = ADVANCED_FACE ( 'NONE', ( #83 ), #243, .T. ) ;
#291 = CARTESIAN_POINT ( 'NONE',  ( 0.3124999999999998890, 6.000000000000000888, 3.827021247335480159E-17 ) ) ;
#292 =( GEOMETRIC_REPRESENTATION_CONTEXT ( 3 ) GLOBAL_UNCERTAINTY_ASSIGNED_CONTEXT ( ( #24 ) ) GLOBAL_UNIT_ASSIGNED_CONTEXT ( ( #194, #9, #229 ) ) REPRESENTATION_CONTEXT ( 'NONE', 'WORKASPACE' ) );
#293 = STYLED_ITEM ( 'NONE', ( #240 ), #153 ) ;
#294 = ORIENTED_EDGE ( 'NONE', *, *, #21, .F. ) ;
#295 =( LENGTH_UNIT ( ) NAMED_UNIT ( * ) SI_UNIT ( $, .METRE. ) );
#296 = EDGE_LOOP ( 'NONE', ( #161, #157 ) ) ;
#297 = CARTESIAN_POINT ( 'NONE',  ( -0.3125000000000004441, 6.000000000000000888, 0.000000000000000000 ) ) ;
#298 = CARTESIAN_POINT ( 'NONE',  ( 0.000000000000000000, 3.750000000000000000, 0.000000000000000000 ) ) ;
#299 = PRESENTATION_LAYER_ASSIGNMENT (  '', '', ( #265 ) ) ;
#300 = SURFACE_STYLE_FILL_AREA ( #33 ) ;
#301 = PRODUCT_RELATED_PRODUCT_CATEGORY ( 'part', '', ( #59 ) ) ;
#302 = CYLINDRICAL_SURFACE ( 'NONE', #306, 0.3125000000000000000 ) ;
#303 = SURFACE_SIDE_STYLE ('',( #40 ) ) ;
#304 = ORIENTED_EDGE ( 'NONE', *, *, #101, .T. ) ;
#305 = ADVANCED_FACE ( 'NONE', ( #212 ), #302, .T. ) ;
#306 = AXIS2_PLACEMENT_3D ( 'NONE', #276, #65, #164 ) ;
#307 = ADVANCED_BREP_SHAPE_REPRESENTATION ( '84691', ( #153, #152, #86 ), #41 ) ;
#308 = DIRECTION ( 'NONE',  ( -1.000000000000000000, 0.000000000000000000, 0.000000000000000000 ) ) ;
#309 = DIRECTION ( 'NONE',  ( -0.000000000000000000, -1.000000000000000000, -0.000000000000000000 ) ) ;
ENDSEC;
END-ISO-10303-21;
