ISO-10303-21;
HEADER;
FILE_DESCRIPTION (( 'STEP AP214' ),
    '1' );
FILE_NAME ('59604.STEP',
    '2023-07-24T15:50:08',
    ( '' ),
    ( '' ),
    'SwSTEP 2.0',
    'SolidWorks 2023',
    '' );
FILE_SCHEMA (( 'AUTOMOTIVE_DESIGN' ));
ENDSEC;

DATA;
#1 = CARTESIAN_POINT ( 'NONE',  ( 0.000000000000000000, 32.00000000000000000, 0.000000000000000000 ) ) ;
#2 = DIRECTION ( 'NONE',  ( -0.000000000000000000, -1.000000000000000000, -0.000000000000000000 ) ) ;
#3 = PLANE ( 'NONE',  #269 ) ;
#4 = VECTOR ( 'NONE', #54, 1000.000000000000000 ) ;
#5 = SURFACE_STYLE_FILL_AREA ( #248 ) ;
#6 =( LENGTH_UNIT ( ) NAMED_UNIT ( * ) SI_UNIT ( .MILLI., .METRE. ) );
#7 = DIRECTION ( 'NONE',  ( 0.000000000000000000, -0.000000000000000000, 1.000000000000000000 ) ) ;
#8 = CARTESIAN_POINT ( 'NONE',  ( 9.797174393178825657E-16, 0.000000000000000000, 8.000000000000000000 ) ) ;
#9 = LINE ( 'NONE', #8, #4 ) ;
#10 = FILL_AREA_STYLE_COLOUR ( '', #134 ) ;
#11 = AXIS2_PLACEMENT_3D ( 'NONE', #115, #68, #88 ) ;
#12 =( LENGTH_UNIT ( ) NAMED_UNIT ( * ) SI_UNIT ( .MILLI., .METRE. ) );
#13 = ORIENTED_EDGE ( 'NONE', *, *, #166, .T. ) ;
#14 = MECHANICAL_DESIGN_GEOMETRIC_PRESENTATION_REPRESENTATION (  '', ( #131 ), #218 ) ;
#15 = ORIENTED_EDGE ( 'NONE', *, *, #193, .T. ) ;
#16 = EDGE_LOOP ( 'NONE', ( #174, #56 ) ) ;
#17 = EDGE_CURVE ( 'NONE', #225, #45, #279, .T. ) ;
#18 = ORIENTED_EDGE ( 'NONE', *, *, #288, .T. ) ;
#19 = ADVANCED_FACE ( 'NONE', ( #67 ), #24, .T. ) ;
#20 = VERTEX_POINT ( 'NONE', #287 ) ;
#21 = DIRECTION ( 'NONE',  ( -3.007904418958410489E-17, 1.000000000000000000, -0.000000000000000000 ) ) ;
#22 = VERTEX_POINT ( 'NONE', #154 ) ;
#23 = AXIS2_PLACEMENT_3D ( 'NONE', #116, #123, #235 ) ;
#24 = CYLINDRICAL_SURFACE ( 'NONE', #231, 8.000000000000000000 ) ;
#25 = DIRECTION ( 'NONE',  ( 0.000000000000000000, 0.000000000000000000, -1.000000000000000000 ) ) ;
#26 = PRODUCT_DEFINITION ( 'UNKNOWN', '', #96, #236 ) ;
#27 = FACE_OUTER_BOUND ( 'NONE', #16, .T. ) ;
#28 =( GEOMETRIC_REPRESENTATION_CONTEXT ( 3 ) GLOBAL_UNCERTAINTY_ASSIGNED_CONTEXT ( ( #90 ) ) GLOBAL_UNIT_ASSIGNED_CONTEXT ( ( #59, #103, #61 ) ) REPRESENTATION_CONTEXT ( 'NONE', 'WORKASPACE' ) );
#29 = LINE ( 'NONE', #53, #257 ) ;
#30 = EDGE_CURVE ( 'NONE', #195, #20, #280, .T. ) ;
#31 = DIRECTION ( 'NONE',  ( 3.007904418958410489E-17, -1.000000000000000000, 0.000000000000000000 ) ) ;
#32 =( NAMED_UNIT ( * ) SI_UNIT ( $, .STERADIAN. ) SOLID_ANGLE_UNIT ( ) );
#33 = DIRECTION ( 'NONE',  ( -3.007904418958410489E-17, 1.000000000000000000, 0.000000000000000000 ) ) ;
#34 = AXIS2_PLACEMENT_3D ( 'NONE', #265, #104, #260 ) ;
#35 = EDGE_CURVE ( 'NONE', #45, #225, #197, .T. ) ;
#36 = STYLED_ITEM ( 'NONE', ( #178 ), #192 ) ;
#37 = AXIS2_PLACEMENT_3D ( 'NONE', #205, #286, #25 ) ;
#38 = COLOUR_RGB ( '',1.000000000000000000, 0.000000000000000000, 0.000000000000000000 ) ;
#39 = DIRECTION ( 'NONE',  ( -3.007904418958410489E-17, 1.000000000000000000, -0.000000000000000000 ) ) ;
#40 = EDGE_LOOP ( 'NONE', ( #219, #199, #136, #152 ) ) ;
#41 = ORIENTED_EDGE ( 'NONE', *, *, #17, .T. ) ;
#42 = CYLINDRICAL_SURFACE ( 'NONE', #253, 8.000000000000000000 ) ;
#43 =( GEOMETRIC_REPRESENTATION_CONTEXT ( 3 ) GLOBAL_UNCERTAINTY_ASSIGNED_CONTEXT ( ( #165 ) ) GLOBAL_UNIT_ASSIGNED_CONTEXT ( ( #189, #119, #230 ) ) REPRESENTATION_CONTEXT ( 'NONE', 'WORKASPACE' ) );
#44 = DIRECTION ( 'NONE',  ( -3.007904418958410489E-17, 1.000000000000000000, -0.000000000000000000 ) ) ;
#45 = VERTEX_POINT ( 'NONE', #69 ) ;
#46 = SURFACE_SIDE_STYLE ('',( #85 ) ) ;
#47 = COLOUR_RGB ( '',0.7921568627450980005, 0.8196078431372548767, 0.9333333333333333481 ) ;
#48 = PRESENTATION_STYLE_ASSIGNMENT (( #177 ) ) ;
#49 = PRESENTATION_STYLE_ASSIGNMENT (( #246 ) ) ;
#50 =( LENGTH_UNIT ( ) NAMED_UNIT ( * ) SI_UNIT ( .MILLI., .METRE. ) );
#51 = DIRECTION ( 'NONE',  ( -1.000000000000000000, 0.000000000000000000, 0.000000000000000000 ) ) ;
#52 = FILL_AREA_STYLE_COLOUR ( '', #47 ) ;
#53 = CARTESIAN_POINT ( 'NONE',  ( 7.999999999999998224, 89.00000000000000000, 9.797174393178825657E-16 ) ) ;
#54 = DIRECTION ( 'NONE',  ( -0.000000000000000000, -1.000000000000000000, -0.000000000000000000 ) ) ;
#55 = ADVANCED_FACE ( 'NONE', ( #184 ), #3, .F. ) ;
#56 = ORIENTED_EDGE ( 'NONE', *, *, #35, .F. ) ;
#57 = COLOUR_RGB ( '',1.000000000000000000, 0.000000000000000000, 0.000000000000000000 ) ;
#58 = ADVANCED_FACE ( 'NONE', ( #27 ), #124, .T. ) ;
#59 =( LENGTH_UNIT ( ) NAMED_UNIT ( * ) SI_UNIT ( .MILLI., .METRE. ) );
#60 = MECHANICAL_DESIGN_GEOMETRIC_PRESENTATION_REPRESENTATION (  '', ( #190 ), #222 ) ;
#61 =( NAMED_UNIT ( * ) SI_UNIT ( $, .STERADIAN. ) SOLID_ANGLE_UNIT ( ) );
#62 = ORIENTED_EDGE ( 'NONE', *, *, #138, .T. ) ;
#63 = FILL_AREA_STYLE_COLOUR ( '', #57 ) ;
#64 = CARTESIAN_POINT ( 'NONE',  ( 8.000000000000000000, 32.00000000000000000, 9.797174393178825657E-16 ) ) ;
#65 = MECHANICAL_DESIGN_GEOMETRIC_PRESENTATION_REPRESENTATION (  '', ( #141 ), #28 ) ;
#66 = CYLINDRICAL_SURFACE ( 'NONE', #173, 8.000000000000000000 ) ;
#67 = FACE_OUTER_BOUND ( 'NONE', #203, .T. ) ;
#68 = DIRECTION ( 'NONE',  ( -0.000000000000000000, -1.000000000000000000, -0.000000000000000000 ) ) ;
#69 = CARTESIAN_POINT ( 'NONE',  ( 9.797174393178825657E-16, 32.00000000000000000, 8.000000000000000000 ) ) ;
#70 = DIRECTION ( 'NONE',  ( -0.000000000000000000, -1.000000000000000000, -0.000000000000000000 ) ) ;
#71 = DIRECTION ( 'NONE',  ( 1.000000000000000000, 0.000000000000000000, 0.000000000000000000 ) ) ;
#72 = FILL_AREA_STYLE_COLOUR ( '', #38 ) ;
#73 = ADVANCED_FACE ( 'NONE', ( #89 ), #118, .T. ) ;
#74 =( NAMED_UNIT ( * ) SI_UNIT ( $, .STERADIAN. ) SOLID_ANGLE_UNIT ( ) );
#75 = CARTESIAN_POINT ( 'NONE',  ( 0.000000000000000000, 32.00000000000000000, 0.000000000000000000 ) ) ;
#76 =( GEOMETRIC_REPRESENTATION_CONTEXT ( 3 ) GLOBAL_UNCERTAINTY_ASSIGNED_CONTEXT ( ( #172 ) ) GLOBAL_UNIT_ASSIGNED_CONTEXT ( ( #223, #263, #158 ) ) REPRESENTATION_CONTEXT ( 'NONE', 'WORKASPACE' ) );
#77 = PLANE ( 'NONE',  #284 ) ;
#78 = EDGE_LOOP ( 'NONE', ( #216, #15, #170, #83 ) ) ;
#79 = STYLED_ITEM ( 'NONE', ( #48 ), #73 ) ;
#80 = ORIENTED_EDGE ( 'NONE', *, *, #193, .F. ) ;
#81 = ORIENTED_EDGE ( 'NONE', *, *, #148, .F. ) ;
#82 = FACE_OUTER_BOUND ( 'NONE', #276, .T. ) ;
#83 = ORIENTED_EDGE ( 'NONE', *, *, #30, .F. ) ;
#84 = FACE_OUTER_BOUND ( 'NONE', #78, .T. ) ;
#85 = SURFACE_STYLE_FILL_AREA ( #176 ) ;
#86 = PRESENTATION_LAYER_ASSIGNMENT (  '', '', ( #141 ) ) ;
#87 = MANIFOLD_SOLID_BREP ( 'Revolve - Cutting Edge', #126 ) ;
#88 = DIRECTION ( 'NONE',  ( 0.000000000000000000, 0.000000000000000000, -1.000000000000000000 ) ) ;
#89 = FACE_OUTER_BOUND ( 'NONE', #98, .T. ) ;
#90 = UNCERTAINTY_MEASURE_WITH_UNIT (LENGTH_MEASURE( 1.000000000000000082E-05 ), #59, 'distance_accuracy_value', 'NONE');
#91 = LINE ( 'NONE', #268, #181 ) ;
#92 = SURFACE_STYLE_FILL_AREA ( #93 ) ;
#93 = FILL_AREA_STYLE ('',( #125 ) ) ;
#94 = FILL_AREA_STYLE_COLOUR ( '', #133 ) ;
#95 = SURFACE_STYLE_FILL_AREA ( #151 ) ;
#96 = PRODUCT_DEFINITION_FORMATION_WITH_SPECIFIED_SOURCE ( 'ANY', '', #97, .NOT_KNOWN. ) ;
#97 = PRODUCT ( '59604', '59604', '', ( #101 ) ) ;
#98 = EDGE_LOOP ( 'NONE', ( #110, #62 ) ) ;
#99 = EDGE_CURVE ( 'NONE', #171, #195, #271, .T. ) ;
#100 = AXIS2_PLACEMENT_3D ( 'NONE', #249, #44, #51 ) ;
#101 = PRODUCT_CONTEXT ( 'NONE', #281, 'mechanical' ) ;
#102 = ADVANCED_FACE ( 'NONE', ( #196 ), #77, .F. ) ;
#103 =( NAMED_UNIT ( * ) PLANE_ANGLE_UNIT ( ) SI_UNIT ( $, .RADIAN. ) );
#104 = DIRECTION ( 'NONE',  ( -0.000000000000000000, -1.000000000000000000, -0.000000000000000000 ) ) ;
#105 = AXIS2_PLACEMENT_3D ( 'NONE', #250, #207, #168 ) ;
#106 = DIRECTION ( 'NONE',  ( -1.000000000000000000, -3.007904418958410489E-17, 0.000000000000000000 ) ) ;
#107 = DIRECTION ( 'NONE',  ( -3.007904418958410489E-17, 1.000000000000000000, -0.000000000000000000 ) ) ;
#108 = DIRECTION ( 'NONE',  ( -1.000000000000000000, 0.000000000000000000, 0.000000000000000000 ) ) ;
#109 = ADVANCED_FACE ( 'NONE', ( #82 ), #42, .T. ) ;
#110 = ORIENTED_EDGE ( 'NONE', *, *, #114, .T. ) ;
#111 = AXIS2_PLACEMENT_3D ( 'NONE', #212, #213, #252 ) ;
#112 = DIRECTION ( 'NONE',  ( 0.000000000000000000, 0.000000000000000000, -1.000000000000000000 ) ) ;
#113 = STYLED_ITEM ( 'NONE', ( #49 ), #159 ) ;
#114 = EDGE_CURVE ( 'NONE', #22, #130, #167, .T. ) ;
#115 = CARTESIAN_POINT ( 'NONE',  ( 0.000000000000000000, 0.000000000000000000, 0.000000000000000000 ) ) ;
#116 = CARTESIAN_POINT ( 'NONE',  ( 0.000000000000000000, 32.00000000000000000, 0.000000000000000000 ) ) ;
#117 = CYLINDRICAL_SURFACE ( 'NONE', #228, 8.000000000000000000 ) ;
#118 = PLANE ( 'NONE',  #105 ) ;
#119 =( NAMED_UNIT ( * ) PLANE_ANGLE_UNIT ( ) SI_UNIT ( $, .RADIAN. ) );
#120 = MECHANICAL_DESIGN_GEOMETRIC_PRESENTATION_REPRESENTATION (  '', ( #79 ), #237 ) ;
#121 = AXIS2_PLACEMENT_3D ( 'NONE', #208, #272, #71 ) ;
#122 = FILL_AREA_STYLE ('',( #52 ) ) ;
#123 = DIRECTION ( 'NONE',  ( -3.007904418958410489E-17, 1.000000000000000000, -0.000000000000000000 ) ) ;
#124 = PLANE ( 'NONE',  #256 ) ;
#125 = FILL_AREA_STYLE_COLOUR ( '', #227 ) ;
#126 = CLOSED_SHELL ( 'NONE', ( #109, #58, #159, #73 ) ) ;
#127 = PRESENTATION_LAYER_ASSIGNMENT (  '', '', ( #131 ) ) ;
#128 = ORIENTED_EDGE ( 'NONE', *, *, #99, .T. ) ;
#129 = EDGE_LOOP ( 'NONE', ( #221, #285 ) ) ;
#130 = VERTEX_POINT ( 'NONE', #140 ) ;
#131 = STYLED_ITEM ( 'NONE', ( #135 ), #109 ) ;
#132 = SHAPE_DEFINITION_REPRESENTATION ( #185, #150 ) ;
#133 = COLOUR_RGB ( '',1.000000000000000000, 0.000000000000000000, 0.000000000000000000 ) ;
#134 = COLOUR_RGB ( '',0.7921568627450980005, 0.8196078431372548767, 0.9333333333333333481 ) ;
#135 = PRESENTATION_STYLE_ASSIGNMENT (( #156 ) ) ;
#136 = ORIENTED_EDGE ( 'NONE', *, *, #148, .T. ) ;
#137 = CARTESIAN_POINT ( 'NONE',  ( -1.714505518806293849E-15, 89.00000000000000000, 0.000000000000000000 ) ) ;
#138 = EDGE_CURVE ( 'NONE', #130, #22, #175, .T. ) ;
#139 = VERTEX_POINT ( 'NONE', #245 ) ;
#140 = CARTESIAN_POINT ( 'NONE',  ( 9.797174393178825657E-16, 0.000000000000000000, 8.000000000000000000 ) ) ;
#141 = STYLED_ITEM ( 'NONE', ( #145 ), #87 ) ;
#142 =( LENGTH_UNIT ( ) NAMED_UNIT ( * ) SI_UNIT ( .MILLI., .METRE. ) );
#143 =( NAMED_UNIT ( * ) PLANE_ANGLE_UNIT ( ) SI_UNIT ( $, .RADIAN. ) );
#144 = UNCERTAINTY_MEASURE_WITH_UNIT (LENGTH_MEASURE( 1.000000000000000082E-05 ), #142, 'distance_accuracy_value', 'NONE');
#145 = PRESENTATION_STYLE_ASSIGNMENT (( #149 ) ) ;
#146 = SURFACE_SIDE_STYLE ('',( #5 ) ) ;
#147 = DIRECTION ( 'NONE',  ( 0.000000000000000000, 1.000000000000000000, 0.000000000000000000 ) ) ;
#148 = EDGE_CURVE ( 'NONE', #225, #22, #91, .T. ) ;
#149 = SURFACE_STYLE_USAGE ( .BOTH. , #162 ) ;
#150 = ADVANCED_BREP_SHAPE_REPRESENTATION ( '59604', ( #87, #192, #121 ), #43 ) ;
#151 = FILL_AREA_STYLE ('',( #63 ) ) ;
#152 = ORIENTED_EDGE ( 'NONE', *, *, #138, .F. ) ;
#153 = CIRCLE ( 'NONE', #23, 8.000000000000000000 ) ;
#154 = CARTESIAN_POINT ( 'NONE',  ( 0.000000000000000000, 0.000000000000000000, -8.000000000000000000 ) ) ;
#155 = ORIENTED_EDGE ( 'NONE', *, *, #30, .T. ) ;
#156 = SURFACE_STYLE_USAGE ( .BOTH. , #240 ) ;
#157 = ADVANCED_FACE ( 'NONE', ( #84 ), #66, .T. ) ;
#158 =( NAMED_UNIT ( * ) SI_UNIT ( $, .STERADIAN. ) SOLID_ANGLE_UNIT ( ) );
#159 = ADVANCED_FACE ( 'NONE', ( #161 ), #117, .T. ) ;
#160 =( NAMED_UNIT ( * ) PLANE_ANGLE_UNIT ( ) SI_UNIT ( $, .RADIAN. ) );
#161 = FACE_OUTER_BOUND ( 'NONE', #40, .T. ) ;
#162 = SURFACE_SIDE_STYLE ('',( #254 ) ) ;
#163 = DIRECTION ( 'NONE',  ( -3.007904418958410489E-17, 1.000000000000000000, -0.000000000000000000 ) ) ;
#164 =( NAMED_UNIT ( * ) SI_UNIT ( $, .STERADIAN. ) SOLID_ANGLE_UNIT ( ) );
#165 = UNCERTAINTY_MEASURE_WITH_UNIT (LENGTH_MEASURE( 1.000000000000000082E-05 ), #189, 'distance_accuracy_value', 'NONE');
#166 = EDGE_CURVE ( 'NONE', #139, #20, #242, .T. ) ;
#167 = CIRCLE ( 'NONE', #37, 8.000000000000000000 ) ;
#168 = DIRECTION ( 'NONE',  ( 0.000000000000000000, 0.000000000000000000, -1.000000000000000000 ) ) ;
#169 = UNCERTAINTY_MEASURE_WITH_UNIT (LENGTH_MEASURE( 1.000000000000000082E-05 ), #6, 'distance_accuracy_value', 'NONE');
#170 = ORIENTED_EDGE ( 'NONE', *, *, #179, .F. ) ;
#171 = VERTEX_POINT ( 'NONE', #64 ) ;
#172 = UNCERTAINTY_MEASURE_WITH_UNIT (LENGTH_MEASURE( 1.000000000000000082E-05 ), #223, 'distance_accuracy_value', 'NONE');
#173 = AXIS2_PLACEMENT_3D ( 'NONE', #266, #224, #202 ) ;
#174 = ORIENTED_EDGE ( 'NONE', *, *, #17, .F. ) ;
#175 = CIRCLE ( 'NONE', #11, 8.000000000000000000 ) ;
#176 = FILL_AREA_STYLE ('',( #72 ) ) ;
#177 = SURFACE_STYLE_USAGE ( .BOTH. , #267 ) ;
#178 = PRESENTATION_STYLE_ASSIGNMENT (( #233 ) ) ;
#179 = EDGE_CURVE ( 'NONE', #20, #139, #198, .T. ) ;
#180 = UNCERTAINTY_MEASURE_WITH_UNIT (LENGTH_MEASURE( 1.000000000000000082E-05 ), #50, 'distance_accuracy_value', 'NONE');
#181 = VECTOR ( 'NONE', #70, 1000.000000000000000 ) ;
#182 = APPLICATION_PROTOCOL_DEFINITION ( 'draft international standard', 'automotive_design', 1998, #281 ) ;
#183 =( NAMED_UNIT ( * ) SI_UNIT ( $, .STERADIAN. ) SOLID_ANGLE_UNIT ( ) );
#184 = FACE_OUTER_BOUND ( 'NONE', #239, .T. ) ;
#185 = PRODUCT_DEFINITION_SHAPE ( 'NONE', 'NONE',  #26 ) ;
#186 = CARTESIAN_POINT ( 'NONE',  ( -8.000000000000000000, 32.00000000000000000, 0.000000000000000000 ) ) ;
#187 = CARTESIAN_POINT ( 'NONE',  ( 8.000000000000000000, 89.00000000000000000, 0.000000000000000000 ) ) ;
#188 = SURFACE_STYLE_FILL_AREA ( #229 ) ;
#189 =( LENGTH_UNIT ( ) NAMED_UNIT ( * ) SI_UNIT ( .MILLI., .METRE. ) );
#190 = STYLED_ITEM ( 'NONE', ( #274 ), #58 ) ;
#191 = DIRECTION ( 'NONE',  ( -1.000000000000000000, 0.000000000000000000, 0.000000000000000000 ) ) ;
#192 = MANIFOLD_SOLID_BREP ( 'Revolve - Tool Body (Straight Shanked)', #204 ) ;
#193 = EDGE_CURVE ( 'NONE', #171, #139, #29, .T. ) ;
#194 = PRESENTATION_LAYER_ASSIGNMENT (  '', '', ( #36 ) ) ;
#195 = VERTEX_POINT ( 'NONE', #186 ) ;
#196 = FACE_OUTER_BOUND ( 'NONE', #129, .T. ) ;
#197 = CIRCLE ( 'NONE', #111, 8.000000000000000000 ) ;
#198 = CIRCLE ( 'NONE', #277, 8.000000000000001776 ) ;
#199 = ORIENTED_EDGE ( 'NONE', *, *, #35, .T. ) ;
#200 = DIRECTION ( 'NONE',  ( -0.000000000000000000, -1.000000000000000000, -0.000000000000000000 ) ) ;
#201 = PRODUCT_RELATED_PRODUCT_CATEGORY ( 'part', '', ( #97 ) ) ;
#202 = DIRECTION ( 'NONE',  ( -1.000000000000000000, 0.000000000000000000, 0.000000000000000000 ) ) ;
#203 = EDGE_LOOP ( 'NONE', ( #80, #128, #155, #255 ) ) ;
#204 = CLOSED_SHELL ( 'NONE', ( #157, #102, #19, #55 ) ) ;
#205 = CARTESIAN_POINT ( 'NONE',  ( 0.000000000000000000, 0.000000000000000000, 0.000000000000000000 ) ) ;
#206 = DIRECTION ( 'NONE',  ( -1.000000000000000000, 0.000000000000000000, 0.000000000000000000 ) ) ;
#207 = DIRECTION ( 'NONE',  ( 0.000000000000000000, -1.000000000000000000, -0.000000000000000000 ) ) ;
#208 = CARTESIAN_POINT ( 'NONE',  ( 0.000000000000000000, 0.000000000000000000, 0.000000000000000000 ) ) ;
#209 = CARTESIAN_POINT ( 'NONE',  ( 0.000000000000000000, 0.000000000000000000, 0.000000000000000000 ) ) ;
#210 = SURFACE_SIDE_STYLE ('',( #92 ) ) ;
#211 = AXIS2_PLACEMENT_3D ( 'NONE', #1, #39, #191 ) ;
#212 = CARTESIAN_POINT ( 'NONE',  ( 0.000000000000000000, 32.00000000000000000, 0.000000000000000000 ) ) ;
#213 = DIRECTION ( 'NONE',  ( -0.000000000000000000, -1.000000000000000000, -0.000000000000000000 ) ) ;
#214 =( NAMED_UNIT ( * ) PLANE_ANGLE_UNIT ( ) SI_UNIT ( $, .RADIAN. ) );
#215 = MECHANICAL_DESIGN_GEOMETRIC_PRESENTATION_REPRESENTATION (  '', ( #113 ), #76 ) ;
#216 = ORIENTED_EDGE ( 'NONE', *, *, #258, .T. ) ;
#217 = APPLICATION_CONTEXT ( 'automotive_design' ) ;
#218 =( GEOMETRIC_REPRESENTATION_CONTEXT ( 3 ) GLOBAL_UNCERTAINTY_ASSIGNED_CONTEXT ( ( #220 ) ) GLOBAL_UNIT_ASSIGNED_CONTEXT ( ( #12, #283, #183 ) ) REPRESENTATION_CONTEXT ( 'NONE', 'WORKASPACE' ) );
#219 = ORIENTED_EDGE ( 'NONE', *, *, #288, .F. ) ;
#220 = UNCERTAINTY_MEASURE_WITH_UNIT (LENGTH_MEASURE( 1.000000000000000082E-05 ), #12, 'distance_accuracy_value', 'NONE');
#221 = ORIENTED_EDGE ( 'NONE', *, *, #258, .F. ) ;
#222 =( GEOMETRIC_REPRESENTATION_CONTEXT ( 3 ) GLOBAL_UNCERTAINTY_ASSIGNED_CONTEXT ( ( #180 ) ) GLOBAL_UNIT_ASSIGNED_CONTEXT ( ( #50, #160, #164 ) ) REPRESENTATION_CONTEXT ( 'NONE', 'WORKASPACE' ) );
#223 =( LENGTH_UNIT ( ) NAMED_UNIT ( * ) SI_UNIT ( .MILLI., .METRE. ) );
#224 = DIRECTION ( 'NONE',  ( -3.007904418958410489E-17, 1.000000000000000000, -0.000000000000000000 ) ) ;
#225 = VERTEX_POINT ( 'NONE', #251 ) ;
#226 = CARTESIAN_POINT ( 'NONE',  ( 0.000000000000000000, 0.000000000000000000, 0.000000000000000000 ) ) ;
#227 = COLOUR_RGB ( '',1.000000000000000000, 0.000000000000000000, 0.000000000000000000 ) ;
#228 = AXIS2_PLACEMENT_3D ( 'NONE', #209, #2, #273 ) ;
#229 = FILL_AREA_STYLE ('',( #94 ) ) ;
#230 =( NAMED_UNIT ( * ) SI_UNIT ( $, .STERADIAN. ) SOLID_ANGLE_UNIT ( ) );
#231 = AXIS2_PLACEMENT_3D ( 'NONE', #262, #107, #206 ) ;
#232 = MECHANICAL_DESIGN_GEOMETRIC_PRESENTATION_REPRESENTATION (  '', ( #36 ), #264 ) ;
#233 = SURFACE_STYLE_USAGE ( .BOTH. , #146 ) ;
#234 = DIRECTION ( 'NONE',  ( -3.007904418958410489E-17, 1.000000000000000000, -0.000000000000000000 ) ) ;
#235 = DIRECTION ( 'NONE',  ( -1.000000000000000000, 0.000000000000000000, 0.000000000000000000 ) ) ;
#236 = PRODUCT_DEFINITION_CONTEXT ( 'detailed design', #217, 'design' ) ;
#237 =( GEOMETRIC_REPRESENTATION_CONTEXT ( 3 ) GLOBAL_UNCERTAINTY_ASSIGNED_CONTEXT ( ( #144 ) ) GLOBAL_UNIT_ASSIGNED_CONTEXT ( ( #142, #143, #74 ) ) REPRESENTATION_CONTEXT ( 'NONE', 'WORKASPACE' ) );
#238 = ORIENTED_EDGE ( 'NONE', *, *, #114, .F. ) ;
#239 = EDGE_LOOP ( 'NONE', ( #244, #13 ) ) ;
#240 = SURFACE_SIDE_STYLE ('',( #95 ) ) ;
#241 = VECTOR ( 'NONE', #234, 1000.000000000000000 ) ;
#242 = CIRCLE ( 'NONE', #100, 8.000000000000001776 ) ;
#243 = PRESENTATION_LAYER_ASSIGNMENT (  '', '', ( #79 ) ) ;
#244 = ORIENTED_EDGE ( 'NONE', *, *, #179, .T. ) ;
#245 = CARTESIAN_POINT ( 'NONE',  ( 8.000000000000000000, 89.00000000000000000, 9.797174393178825657E-16 ) ) ;
#246 = SURFACE_STYLE_USAGE ( .BOTH. , #46 ) ;
#247 = SURFACE_STYLE_USAGE ( .BOTH. , #210 ) ;
#248 = FILL_AREA_STYLE ('',( #10 ) ) ;
#249 = CARTESIAN_POINT ( 'NONE',  ( -1.714505518806293849E-15, 89.00000000000000000, 0.000000000000000000 ) ) ;
#250 = CARTESIAN_POINT ( 'NONE',  ( 0.000000000000000000, 0.000000000000000000, 0.000000000000000000 ) ) ;
#251 = CARTESIAN_POINT ( 'NONE',  ( 0.000000000000000000, 32.00000000000000000, -8.000000000000000000 ) ) ;
#252 = DIRECTION ( 'NONE',  ( 0.000000000000000000, 0.000000000000000000, -1.000000000000000000 ) ) ;
#253 = AXIS2_PLACEMENT_3D ( 'NONE', #226, #200, #112 ) ;
#254 = SURFACE_STYLE_FILL_AREA ( #122 ) ;
#255 = ORIENTED_EDGE ( 'NONE', *, *, #166, .F. ) ;
#256 = AXIS2_PLACEMENT_3D ( 'NONE', #75, #147, #7 ) ;
#257 = VECTOR ( 'NONE', #163, 1000.000000000000000 ) ;
#258 = EDGE_CURVE ( 'NONE', #195, #171, #153, .T. ) ;
#259 = PRESENTATION_LAYER_ASSIGNMENT (  '', '', ( #113 ) ) ;
#260 = DIRECTION ( 'NONE',  ( 0.000000000000000000, 0.000000000000000000, -1.000000000000000000 ) ) ;
#261 = CARTESIAN_POINT ( 'NONE',  ( 3.618995597435813748E-33, 32.00000000000000000, 0.000000000000000000 ) ) ;
#262 = CARTESIAN_POINT ( 'NONE',  ( -1.714505518806293849E-15, 89.00000000000000000, 0.000000000000000000 ) ) ;
#263 =( NAMED_UNIT ( * ) PLANE_ANGLE_UNIT ( ) SI_UNIT ( $, .RADIAN. ) );
#264 =( GEOMETRIC_REPRESENTATION_CONTEXT ( 3 ) GLOBAL_UNCERTAINTY_ASSIGNED_CONTEXT ( ( #169 ) ) GLOBAL_UNIT_ASSIGNED_CONTEXT ( ( #6, #214, #32 ) ) REPRESENTATION_CONTEXT ( 'NONE', 'WORKASPACE' ) );
#265 = CARTESIAN_POINT ( 'NONE',  ( 0.000000000000000000, 32.00000000000000000, 0.000000000000000000 ) ) ;
#266 = CARTESIAN_POINT ( 'NONE',  ( -1.714505518806293849E-15, 89.00000000000000000, 0.000000000000000000 ) ) ;
#267 = SURFACE_SIDE_STYLE ('',( #188 ) ) ;
#268 = CARTESIAN_POINT ( 'NONE',  ( 0.000000000000000000, 0.000000000000000000, -8.000000000000000000 ) ) ;
#269 = AXIS2_PLACEMENT_3D ( 'NONE', #187, #31, #270 ) ;
#270 = DIRECTION ( 'NONE',  ( 1.000000000000000000, 3.007904418958410489E-17, 0.000000000000000000 ) ) ;
#271 = CIRCLE ( 'NONE', #211, 8.000000000000000000 ) ;
#272 = DIRECTION ( 'NONE',  ( 0.000000000000000000, 0.000000000000000000, 1.000000000000000000 ) ) ;
#273 = DIRECTION ( 'NONE',  ( 0.000000000000000000, 0.000000000000000000, -1.000000000000000000 ) ) ;
#274 = PRESENTATION_STYLE_ASSIGNMENT (( #247 ) ) ;
#275 = PRESENTATION_LAYER_ASSIGNMENT (  '', '', ( #190 ) ) ;
#276 = EDGE_LOOP ( 'NONE', ( #41, #18, #238, #81 ) ) ;
#277 = AXIS2_PLACEMENT_3D ( 'NONE', #137, #21, #108 ) ;
#278 = APPLICATION_PROTOCOL_DEFINITION ( 'draft international standard', 'automotive_design', 1998, #217 ) ;
#279 = CIRCLE ( 'NONE', #34, 8.000000000000000000 ) ;
#280 = LINE ( 'NONE', #282, #241 ) ;
#281 = APPLICATION_CONTEXT ( 'automotive_design' ) ;
#282 = CARTESIAN_POINT ( 'NONE',  ( -8.000000000000001776, 89.00000000000000000, 0.000000000000000000 ) ) ;
#283 =( NAMED_UNIT ( * ) PLANE_ANGLE_UNIT ( ) SI_UNIT ( $, .RADIAN. ) );
#284 = AXIS2_PLACEMENT_3D ( 'NONE', #261, #33, #106 ) ;
#285 = ORIENTED_EDGE ( 'NONE', *, *, #99, .F. ) ;
#286 = DIRECTION ( 'NONE',  ( -0.000000000000000000, -1.000000000000000000, -0.000000000000000000 ) ) ;
#287 = CARTESIAN_POINT ( 'NONE',  ( -8.000000000000003553, 89.00000000000000000, 0.000000000000000000 ) ) ;
#288 = EDGE_CURVE ( 'NONE', #45, #130, #9, .T. ) ;
ENDSEC;
END-ISO-10303-21;
