ISO-10303-21;
HEADER;
FILE_DESCRIPTION (( 'STEP AP214' ),
    '1' );
FILE_NAME ('Micro_AEMM-060-2X.STEP',
    '2022-03-15T14:27:30',
    ( '' ),
    ( '' ),
    'SwSTEP 2.0',
    'SolidWorks 2022',
    '' );
FILE_SCHEMA (( 'AUTOMOTIVE_DESIGN' ));
ENDSEC;

DATA;
#1 = FACE_OUTER_BOUND ( 'NONE', #245, .T. ) ;
#2 =( LENGTH_UNIT ( ) NAMED_UNIT ( * ) SI_UNIT ( $, .METRE. ) );
#3 = VECTOR ( 'NONE', #279, 39.37007874015748143 ) ;
#4 = AXIS2_PLACEMENT_3D ( 'NONE', #223, #225, #174 ) ;
#5 = CARTESIAN_POINT ( 'NONE',  ( -0.1179918899999999049, 1.444983904138465938E-17, 0.6299209999999999532 ) ) ;
#6 = FILL_AREA_STYLE_COLOUR ( '', #276 ) ;
#7 = ORIENTED_EDGE ( 'NONE', *, *, #226, .F. ) ;
#8 = CARTESIAN_POINT ( 'NONE',  ( 0.1181100000000000066, 1.446430334472939084E-17, 2.244094000000000033 ) ) ;
#9 = AXIS2_PLACEMENT_3D ( 'NONE', #210, #235, #215 ) ;
#10 = ORIENTED_EDGE ( 'NONE', *, *, #179, .T. ) ;
#11 = ORIENTED_EDGE ( 'NONE', *, *, #122, .F. ) ;
#12 = LINE ( 'NONE', #277, #17 ) ;
#13 = CONICAL_SURFACE ( 'NONE', #170, 0.1179918899999999882, 0.1745329251994339192 ) ;
#14 = AXIS2_PLACEMENT_3D ( 'NONE', #164, #250, #266 ) ;
#15 = DIRECTION ( 'NONE',  ( -1.224646799147353207E-16, -0.000000000000000000, -1.000000000000000000 ) ) ;
#16 =( NAMED_UNIT ( * ) PLANE_ANGLE_UNIT ( ) SI_UNIT ( $, .RADIAN. ) );
#17 = VECTOR ( 'NONE', #25, 39.37007874015748143 ) ;
#18 = CIRCLE ( 'NONE', #289, 0.1181100000000000066 ) ;
#19 = CIRCLE ( 'NONE', #14, 0.1181100000000000066 ) ;
#20 = LINE ( 'NONE', #294, #246 ) ;
#21 = LINE ( 'NONE', #229, #148 ) ;
#22 = APPLICATION_PROTOCOL_DEFINITION ( 'draft international standard', 'automotive_design', 1998, #234 ) ;
#23 = EDGE_CURVE ( 'NONE', #251, #269, #18, .T. ) ;
#24 = UNCERTAINTY_MEASURE_WITH_UNIT (LENGTH_MEASURE( 1.000000000000000082E-05 ), #253, 'distance_accuracy_value', 'NONE');
#25 = DIRECTION ( 'NONE',  ( 0.1736481776669314137, 0.000000000000000000, 0.9848077530122077983 ) ) ;
#26 = AXIS2_PLACEMENT_3D ( 'NONE', #113, #76, #185 ) ;
#27 = CYLINDRICAL_SURFACE ( 'NONE', #227, 0.1179918899999999882 ) ;
#28 = DIRECTION ( 'NONE',  ( -0.000000000000000000, -0.000000000000000000, -1.000000000000000000 ) ) ;
#29 = DIMENSIONAL_EXPONENTS ( 1.000000000000000000, 0.000000000000000000, 0.000000000000000000, 0.000000000000000000, 0.000000000000000000, 0.000000000000000000, 0.000000000000000000 ) ;
#30 = ADVANCED_FACE ( 'NONE', ( #258 ), #257, .T. ) ;
#31 = CARTESIAN_POINT ( 'NONE',  ( 0.000000000000000000, 0.000000000000000000, 2.244094000000000033 ) ) ;
#32 = PRODUCT_DEFINITION_CONTEXT ( 'detailed design', #234, 'design' ) ;
#33 = CARTESIAN_POINT ( 'NONE',  ( 0.1179918899999999882, 1.444983904138465938E-17, 0.000000000000000000 ) ) ;
#34 = VERTEX_POINT ( 'NONE', #254 ) ;
#35 = DIRECTION ( 'NONE',  ( -1.224646799147353207E-16, -0.000000000000000000, -1.000000000000000000 ) ) ;
#36 = ADVANCED_FACE ( 'NONE', ( #49 ), #92, .F. ) ;
#37 = DIMENSIONAL_EXPONENTS ( 1.000000000000000000, 0.000000000000000000, 0.000000000000000000, 0.000000000000000000, 0.000000000000000000, 0.000000000000000000, 0.000000000000000000 ) ;
#38 = ORIENTED_EDGE ( 'NONE', *, *, #226, .T. ) ;
#39 = DIRECTION ( 'NONE',  ( 1.000000000000000000, 0.000000000000000000, 0.000000000000000000 ) ) ;
#40 = EDGE_LOOP ( 'NONE', ( #256, #173 ) ) ;
#41 = PRESENTATION_STYLE_ASSIGNMENT (( #270 ) ) ;
#42 = ORIENTED_EDGE ( 'NONE', *, *, #23, .F. ) ;
#43 = CARTESIAN_POINT ( 'NONE',  ( 1.769594913022618037E-33, 0.000000000000000000, 1.444983904138465938E-17 ) ) ;
#44 = DIRECTION ( 'NONE',  ( 0.000000000000000000, 0.000000000000000000, 1.000000000000000000 ) ) ;
#45 = CARTESIAN_POINT ( 'NONE',  ( 0.000000000000000000, 0.000000000000000000, 0.000000000000000000 ) ) ;
#46 = CARTESIAN_POINT ( 'NONE',  ( 1.769594913022618037E-33, 0.000000000000000000, 1.444983904138465938E-17 ) ) ;
#47 = DIRECTION ( 'NONE',  ( 0.000000000000000000, 0.000000000000000000, 1.000000000000000000 ) ) ;
#48 = EDGE_CURVE ( 'NONE', #180, #284, #73, .T. ) ;
#49 = FACE_OUTER_BOUND ( 'NONE', #40, .T. ) ;
#50 = DIRECTION ( 'NONE',  ( -0.7071067811865358044, 0.000000000000000000, -0.7071067811865590080 ) ) ;
#51 = AXIS2_PLACEMENT_3D ( 'NONE', #53, #28, #72 ) ;
#52 = DIRECTION ( 'NONE',  ( 1.224646799147353207E-16, 0.000000000000000000, 1.000000000000000000 ) ) ;
#53 = CARTESIAN_POINT ( 'NONE',  ( 0.000000000000000000, 0.000000000000000000, 2.244094000000000033 ) ) ;
#54 = CARTESIAN_POINT ( 'NONE',  ( 0.000000000000000000, 0.000000000000000000, 2.229093999999999465 ) ) ;
#55 = LINE ( 'NONE', #259, #129 ) ;
#56 = AXIS2_PLACEMENT_3D ( 'NONE', #138, #47, #176 ) ;
#57 = ORIENTED_EDGE ( 'NONE', *, *, #48, .F. ) ;
#58 = PRODUCT_DEFINITION ( 'UNKNOWN', '', #95, #32 ) ;
#59 = DIRECTION ( 'NONE',  ( 0.000000000000000000, 0.000000000000000000, -1.000000000000000000 ) ) ;
#60 = ORIENTED_EDGE ( 'NONE', *, *, #286, .T. ) ;
#61 =( LENGTH_UNIT ( ) NAMED_UNIT ( * ) SI_UNIT ( $, .METRE. ) );
#62 = CYLINDRICAL_SURFACE ( 'NONE', #4, 0.1179918899999999882 ) ;
#63 = CARTESIAN_POINT ( 'NONE',  ( 0.000000000000000000, 0.000000000000000000, 2.244094000000000033 ) ) ;
#64 = SURFACE_SIDE_STYLE ('',( #252 ) ) ;
#65 = VECTOR ( 'NONE', #86, 39.37007874015748143 ) ;
#66 = ADVANCED_FACE ( 'NONE', ( #295 ), #222, .T. ) ;
#67 = ORIENTED_EDGE ( 'NONE', *, *, #152, .T. ) ;
#68 = ORIENTED_EDGE ( 'NONE', *, *, #106, .F. ) ;
#69 = AXIS2_PLACEMENT_3D ( 'NONE', #63, #44, #104 ) ;
#70 = ORIENTED_EDGE ( 'NONE', *, *, #74, .T. ) ;
#71 = DIRECTION ( 'NONE',  ( -0.000000000000000000, -0.000000000000000000, -1.000000000000000000 ) ) ;
#72 = DIRECTION ( 'NONE',  ( -1.000000000000000000, 0.000000000000000000, 0.000000000000000000 ) ) ;
#73 = CIRCLE ( 'NONE', #120, 0.1179918899999999882 ) ;
#74 = EDGE_CURVE ( 'NONE', #269, #34, #20, .T. ) ;
#75 = CARTESIAN_POINT ( 'NONE',  ( 0.1179918900000000853, 0.000000000000000000, 0.6299209999999999532 ) ) ;
#76 = DIRECTION ( 'NONE',  ( 0.000000000000000000, 0.000000000000000000, -1.000000000000000000 ) ) ;
#77 =( CONVERSION_BASED_UNIT ( 'INCH', #161 ) LENGTH_UNIT ( ) NAMED_UNIT ( #29 ) );
#78 = CIRCLE ( 'NONE', #273, 0.1181100000000000066 ) ;
#79 = ORIENTED_EDGE ( 'NONE', *, *, #205, .F. ) ;
#80 = ORIENTED_EDGE ( 'NONE', *, *, #122, .T. ) ;
#81 =( NAMED_UNIT ( * ) SI_UNIT ( $, .STERADIAN. ) SOLID_ANGLE_UNIT ( ) );
#82 = EDGE_LOOP ( 'NONE', ( #102, #79, #80, #265 ) ) ;
#83 = AXIS2_PLACEMENT_3D ( 'NONE', #31, #213, #162 ) ;
#84 = ORIENTED_EDGE ( 'NONE', *, *, #114, .F. ) ;
#85 = FILL_AREA_STYLE_COLOUR ( '', #192 ) ;
#86 = DIRECTION ( 'NONE',  ( -1.224646799147353207E-16, -0.000000000000000000, -1.000000000000000000 ) ) ;
#87 = PRODUCT_RELATED_PRODUCT_CATEGORY ( 'part', '', ( #130 ) ) ;
#88 = VERTEX_POINT ( 'NONE', #154 ) ;
#89 = DIRECTION ( 'NONE',  ( -1.000000000000000000, 0.000000000000000000, 0.000000000000000000 ) ) ;
#90 = CIRCLE ( 'NONE', #208, 0.1179918899999999882 ) ;
#91 = DIRECTION ( 'NONE',  ( 1.000000000000000000, 0.000000000000000000, -0.000000000000000000 ) ) ;
#92 = PLANE ( 'NONE',  #156 ) ;
#93 = CARTESIAN_POINT ( 'NONE',  ( 0.000000000000000000, 0.000000000000000000, 2.244094000000000033 ) ) ;
#94 = CIRCLE ( 'NONE', #69, 0.1031100000000002570 ) ;
#95 = PRODUCT_DEFINITION_FORMATION_WITH_SPECIFIED_SOURCE ( 'ANY', '', #130, .NOT_KNOWN. ) ;
#96 = CARTESIAN_POINT ( 'NONE',  ( -0.1031100000000002570, 0.000000000000000000, 2.244094000000000033 ) ) ;
#97 = CYLINDRICAL_SURFACE ( 'NONE', #51, 0.1181100000000000066 ) ;
#98 = SURFACE_STYLE_FILL_AREA ( #141 ) ;
#99 = EDGE_LOOP ( 'NONE', ( #197, #195, #70, #249 ) ) ;
#100 = DIRECTION ( 'NONE',  ( 1.000000000000000000, 0.000000000000000000, 0.000000000000000000 ) ) ;
#101 = ORIENTED_EDGE ( 'NONE', *, *, #189, .T. ) ;
#102 = ORIENTED_EDGE ( 'NONE', *, *, #168, .F. ) ;
#103 = ORIENTED_EDGE ( 'NONE', *, *, #201, .T. ) ;
#104 = DIRECTION ( 'NONE',  ( 1.000000000000000000, 0.000000000000000000, 0.000000000000000000 ) ) ;
#105 =( NAMED_UNIT ( * ) SI_UNIT ( $, .STERADIAN. ) SOLID_ANGLE_UNIT ( ) );
#106 = EDGE_CURVE ( 'NONE', #288, #167, #198, .T. ) ;
#107 = DIRECTION ( 'NONE',  ( -0.000000000000000000, -0.000000000000000000, -1.000000000000000000 ) ) ;
#108 = CARTESIAN_POINT ( 'NONE',  ( 0.000000000000000000, 0.000000000000000000, 2.229093999999999465 ) ) ;
#109 = DIRECTION ( 'NONE',  ( -1.000000000000000000, 0.000000000000000000, 1.224646799147353454E-16 ) ) ;
#110 = PRESENTATION_LAYER_ASSIGNMENT (  '', '', ( #203 ) ) ;
#111 = CARTESIAN_POINT ( 'NONE',  ( 0.000000000000000000, 0.000000000000000000, 0.000000000000000000 ) ) ;
#112 = DIRECTION ( 'NONE',  ( -1.224646799147353207E-16, -0.000000000000000000, -1.000000000000000000 ) ) ;
#113 = CARTESIAN_POINT ( 'NONE',  ( 0.000000000000000000, 0.000000000000000000, 2.244094000000000033 ) ) ;
#114 = EDGE_CURVE ( 'NONE', #119, #251, #21, .T. ) ;
#115 = DIRECTION ( 'NONE',  ( 1.000000000000000000, 0.000000000000000000, 0.000000000000000000 ) ) ;
#116 = EDGE_LOOP ( 'NONE', ( #38, #10, #287, #219 ) ) ;
#117 = DIRECTION ( 'NONE',  ( -1.000000000000000000, 0.000000000000000000, 0.000000000000000000 ) ) ;
#118 =( NAMED_UNIT ( * ) PLANE_ANGLE_UNIT ( ) SI_UNIT ( $, .RADIAN. ) );
#119 = VERTEX_POINT ( 'NONE', #177 ) ;
#120 = AXIS2_PLACEMENT_3D ( 'NONE', #46, #136, #109 ) ;
#121 =( GEOMETRIC_REPRESENTATION_CONTEXT ( 3 ) GLOBAL_UNCERTAINTY_ASSIGNED_CONTEXT ( ( #24 ) ) GLOBAL_UNIT_ASSIGNED_CONTEXT ( ( #253, #16, #220 ) ) REPRESENTATION_CONTEXT ( 'NONE', 'WORKASPACE' ) );
#122 = EDGE_CURVE ( 'NONE', #167, #88, #12, .T. ) ;
#123 = ORIENTED_EDGE ( 'NONE', *, *, #131, .F. ) ;
#124 = LENGTH_MEASURE_WITH_UNIT ( LENGTH_MEASURE( 0.02539999999999999897 ), #221 );
#125 = EDGE_LOOP ( 'NONE', ( #84, #147, #187, #42 ) ) ;
#126 = FILL_AREA_STYLE ('',( #85 ) ) ;
#127 = EDGE_LOOP ( 'NONE', ( #68, #194, #60, #11 ) ) ;
#128 = DIRECTION ( 'NONE',  ( -1.000000000000000000, 0.000000000000000000, 1.224646799147353454E-16 ) ) ;
#129 = VECTOR ( 'NONE', #112, 39.37007874015748143 ) ;
#130 = PRODUCT ( 'Micro_AEMM-060-2X', 'Micro_AEMM-060-2X', '', ( #231 ) ) ;
#131 = EDGE_CURVE ( 'NONE', #241, #269, #181, .T. ) ;
#132 = DIRECTION ( 'NONE',  ( -1.000000000000000000, 0.000000000000000000, 0.000000000000000000 ) ) ;
#133 = AXIS2_PLACEMENT_3D ( 'NONE', #175, #271, #100 ) ;
#134 = AXIS2_PLACEMENT_3D ( 'NONE', #93, #186, #166 ) ;
#135 = CARTESIAN_POINT ( 'NONE',  ( 7.714307363656999460E-17, 0.000000000000000000, 0.6299209999999999532 ) ) ;
#136 = DIRECTION ( 'NONE',  ( -1.224646799147353207E-16, -0.000000000000000000, -1.000000000000000000 ) ) ;
#137 = ADVANCED_FACE ( 'NONE', ( #232 ), #27, .T. ) ;
#138 = CARTESIAN_POINT ( 'NONE',  ( 0.000000000000000000, 0.000000000000000000, 2.244094000000000033 ) ) ;
#139 = CONICAL_SURFACE ( 'NONE', #9, 0.1179918899999999882, 0.1745329251994339192 ) ;
#140 = FACE_OUTER_BOUND ( 'NONE', #127, .T. ) ;
#141 = FILL_AREA_STYLE ('',( #6 ) ) ;
#142 = EDGE_CURVE ( 'NONE', #119, #241, #94, .T. ) ;
#143 = FACE_OUTER_BOUND ( 'NONE', #116, .T. ) ;
#144 = ORIENTED_EDGE ( 'NONE', *, *, #142, .F. ) ;
#145 = VECTOR ( 'NONE', #146, 39.37007874015747433 ) ;
#146 = DIRECTION ( 'NONE',  ( -0.1736481776669312194, 2.126576849575783625E-17, 0.9848077530122080203 ) ) ;
#147 = ORIENTED_EDGE ( 'NONE', *, *, #201, .F. ) ;
#148 = VECTOR ( 'NONE', #155, 39.37007874015748854 ) ;
#149 = CARTESIAN_POINT ( 'NONE',  ( -0.1179918899999999049, 1.445707119305702357E-17, 0.6299209999999999532 ) ) ;
#150 = ORIENTED_EDGE ( 'NONE', *, *, #142, .T. ) ;
#151 = DIRECTION ( 'NONE',  ( -1.000000000000000000, 0.000000000000000000, 1.224646799147353454E-16 ) ) ;
#152 = EDGE_CURVE ( 'NONE', #167, #180, #200, .T. ) ;
#153 = CONICAL_SURFACE ( 'NONE', #26, 0.1031100000000002570, 0.7853981633974318477 ) ;
#154 = CARTESIAN_POINT ( 'NONE',  ( 0.1181100000000000899, 1.446430334472940009E-17, 0.6305908350957151187 ) ) ;
#155 = DIRECTION ( 'NONE',  ( 0.7071067811865358044, 8.659560562354788645E-17, -0.7071067811865590080 ) ) ;
#156 = AXIS2_PLACEMENT_3D ( 'NONE', #206, #159, #91 ) ;
#157 = EDGE_LOOP ( 'NONE', ( #103, #150 ) ) ;
#158 = EDGE_CURVE ( 'NONE', #88, #34, #239, .T. ) ;
#159 = DIRECTION ( 'NONE',  ( 0.000000000000000000, 0.000000000000000000, 1.000000000000000000 ) ) ;
#160 = DIMENSIONAL_EXPONENTS ( 1.000000000000000000, 0.000000000000000000, 0.000000000000000000, 0.000000000000000000, 0.000000000000000000, 0.000000000000000000, 0.000000000000000000 ) ;
#161 = LENGTH_MEASURE_WITH_UNIT ( LENGTH_MEASURE( 0.02539999999999999897 ), #2 );
#162 = DIRECTION ( 'NONE',  ( 1.000000000000000000, 0.000000000000000000, 0.000000000000000000 ) ) ;
#163 = APPLICATION_CONTEXT ( 'automotive_design' ) ;
#164 = CARTESIAN_POINT ( 'NONE',  ( 7.722510477716240475E-17, 0.000000000000000000, 0.6305908350957151187 ) ) ;
#165 = ORIENTED_EDGE ( 'NONE', *, *, #152, .F. ) ;
#166 = DIRECTION ( 'NONE',  ( -1.000000000000000000, 0.000000000000000000, 0.000000000000000000 ) ) ;
#167 = VERTEX_POINT ( 'NONE', #75 ) ;
#168 = EDGE_CURVE ( 'NONE', #288, #34, #262, .T. ) ;
#169 = CARTESIAN_POINT ( 'NONE',  ( -0.1179918899999999882, 0.000000000000000000, 2.889967808276931875E-17 ) ) ;
#170 = AXIS2_PLACEMENT_3D ( 'NONE', #211, #52, #115 ) ;
#171 =( CONVERSION_BASED_UNIT ( 'INCH', #218 ) LENGTH_UNIT ( ) NAMED_UNIT ( #160 ) );
#172 =( GEOMETRIC_REPRESENTATION_CONTEXT ( 3 ) GLOBAL_UNCERTAINTY_ASSIGNED_CONTEXT ( ( #264 ) ) GLOBAL_UNIT_ASSIGNED_CONTEXT ( ( #171, #268, #105 ) ) REPRESENTATION_CONTEXT ( 'NONE', 'WORKASPACE' ) );
#173 = ORIENTED_EDGE ( 'NONE', *, *, #48, .T. ) ;
#174 = DIRECTION ( 'NONE',  ( -1.000000000000000000, 0.000000000000000000, 1.224646799147353454E-16 ) ) ;
#175 = CARTESIAN_POINT ( 'NONE',  ( 7.722510477716240475E-17, 0.000000000000000000, 0.6305908350957151187 ) ) ;
#176 = DIRECTION ( 'NONE',  ( 1.000000000000000000, 0.000000000000000000, -0.000000000000000000 ) ) ;
#177 = CARTESIAN_POINT ( 'NONE',  ( 0.1031100000000002570, 1.354581824536888722E-17, 2.244094000000000033 ) ) ;
#178 = VECTOR ( 'NONE', #50, 39.37007874015748854 ) ;
#179 = EDGE_CURVE ( 'NONE', #251, #88, #238, .T. ) ;
#180 = VERTEX_POINT ( 'NONE', #33 ) ;
#181 = LINE ( 'NONE', #207, #178 ) ;
#182 = SURFACE_STYLE_USAGE ( .BOTH. , #260 ) ;
#183 = AXIS2_PLACEMENT_3D ( 'NONE', #275, #71, #132 ) ;
#184 = CIRCLE ( 'NONE', #290, 0.1179918899999999882 ) ;
#185 = DIRECTION ( 'NONE',  ( -1.000000000000000000, 0.000000000000000000, 0.000000000000000000 ) ) ;
#186 = DIRECTION ( 'NONE',  ( 0.000000000000000000, 0.000000000000000000, -1.000000000000000000 ) ) ;
#187 = ORIENTED_EDGE ( 'NONE', *, *, #131, .T. ) ;
#188 = CARTESIAN_POINT ( 'NONE',  ( -0.1181100000000000066, 0.000000000000000000, 2.229093999999999465 ) ) ;
#189 = EDGE_CURVE ( 'NONE', #288, #284, #55, .T. ) ;
#190 = ORIENTED_EDGE ( 'NONE', *, *, #189, .F. ) ;
#191 = AXIS2_PLACEMENT_3D ( 'NONE', #135, #228, #89 ) ;
#192 = COLOUR_RGB ( '',0.7921568627450980005, 0.8196078431372548767, 0.9333333333333333481 ) ;
#193 = APPLICATION_PROTOCOL_DEFINITION ( 'draft international standard', 'automotive_design', 1998, #163 ) ;
#194 = ORIENTED_EDGE ( 'NONE', *, *, #168, .T. ) ;
#195 = ORIENTED_EDGE ( 'NONE', *, *, #23, .T. ) ;
#196 = ADVANCED_FACE ( 'NONE', ( #240 ), #13, .T. ) ;
#197 = ORIENTED_EDGE ( 'NONE', *, *, #179, .F. ) ;
#198 = CIRCLE ( 'NONE', #191, 0.1179918899999999882 ) ;
#199 = CONICAL_SURFACE ( 'NONE', #134, 0.1031100000000002570, 0.7853981633974318477 ) ;
#200 = LINE ( 'NONE', #292, #65 ) ;
#201 = EDGE_CURVE ( 'NONE', #241, #119, #212, .T. ) ;
#202 = CLOSED_SHELL ( 'NONE', ( #137, #255, #267, #261, #30, #66, #244, #196, #298, #36 ) ) ;
#203 = STYLED_ITEM ( 'NONE', ( #237 ), #272 ) ;
#204 = ORIENTED_EDGE ( 'NONE', *, *, #291, .F. ) ;
#205 = EDGE_CURVE ( 'NONE', #167, #288, #90, .T. ) ;
#206 = CARTESIAN_POINT ( 'NONE',  ( 0.000000000000000000, 0.000000000000000000, 0.000000000000000000 ) ) ;
#207 = CARTESIAN_POINT ( 'NONE',  ( -0.1031100000000002570, 0.000000000000000000, 2.244094000000000033 ) ) ;
#208 = AXIS2_PLACEMENT_3D ( 'NONE', #282, #35, #117 ) ;
#209 = DIRECTION ( 'NONE',  ( -1.224646799147353207E-16, -0.000000000000000000, -1.000000000000000000 ) ) ;
#210 = CARTESIAN_POINT ( 'NONE',  ( 7.714307363656999460E-17, 0.000000000000000000, 0.6299209999999999532 ) ) ;
#211 = CARTESIAN_POINT ( 'NONE',  ( 7.714307363656999460E-17, 0.000000000000000000, 0.6299209999999999532 ) ) ;
#212 = CIRCLE ( 'NONE', #83, 0.1031100000000002570 ) ;
#213 = DIRECTION ( 'NONE',  ( 0.000000000000000000, 0.000000000000000000, 1.000000000000000000 ) ) ;
#214 = ORIENTED_EDGE ( 'NONE', *, *, #106, .T. ) ;
#215 = DIRECTION ( 'NONE',  ( 1.000000000000000000, 0.000000000000000000, 0.000000000000000000 ) ) ;
#216 = DIRECTION ( 'NONE',  ( 1.000000000000000000, 0.000000000000000000, 0.000000000000000000 ) ) ;
#217 = SHAPE_DEFINITION_REPRESENTATION ( #274, #248 ) ;
#218 = LENGTH_MEASURE_WITH_UNIT ( LENGTH_MEASURE( 0.02539999999999999897 ), #61 );
#219 = ORIENTED_EDGE ( 'NONE', *, *, #74, .F. ) ;
#220 =( NAMED_UNIT ( * ) SI_UNIT ( $, .STERADIAN. ) SOLID_ANGLE_UNIT ( ) );
#221 =( LENGTH_UNIT ( ) NAMED_UNIT ( * ) SI_UNIT ( $, .METRE. ) );
#222 = PLANE ( 'NONE',  #56 ) ;
#223 = CARTESIAN_POINT ( 'NONE',  ( 0.000000000000000000, 0.000000000000000000, 0.000000000000000000 ) ) ;
#224 = MECHANICAL_DESIGN_GEOMETRIC_PRESENTATION_REPRESENTATION (  '', ( #203 ), #247 ) ;
#225 = DIRECTION ( 'NONE',  ( -1.224646799147353207E-16, -0.000000000000000000, -1.000000000000000000 ) ) ;
#226 = EDGE_CURVE ( 'NONE', #269, #251, #78, .T. ) ;
#227 = AXIS2_PLACEMENT_3D ( 'NONE', #111, #209, #151 ) ;
#228 = DIRECTION ( 'NONE',  ( -1.224646799147353207E-16, -0.000000000000000000, -1.000000000000000000 ) ) ;
#229 = CARTESIAN_POINT ( 'NONE',  ( 0.1031100000000002570, 1.262733314600838667E-17, 2.244094000000000033 ) ) ;
#230 = EDGE_LOOP ( 'NONE', ( #165, #263, #101, #57 ) ) ;
#231 = PRODUCT_CONTEXT ( 'NONE', #163, 'mechanical' ) ;
#232 = FACE_OUTER_BOUND ( 'NONE', #283, .T. ) ;
#233 = STYLED_ITEM ( 'NONE', ( #41 ), #248 ) ;
#234 = APPLICATION_CONTEXT ( 'automotive_design' ) ;
#235 = DIRECTION ( 'NONE',  ( 1.224646799147353207E-16, 0.000000000000000000, 1.000000000000000000 ) ) ;
#236 = UNCERTAINTY_MEASURE_WITH_UNIT (LENGTH_MEASURE( 1.000000000000000082E-05 ), #77, 'distance_accuracy_value', 'NONE');
#237 = PRESENTATION_STYLE_ASSIGNMENT (( #182 ) ) ;
#238 = LINE ( 'NONE', #8, #3 ) ;
#239 = CIRCLE ( 'NONE', #133, 0.1181100000000000066 ) ;
#240 = FACE_OUTER_BOUND ( 'NONE', #82, .T. ) ;
#241 = VERTEX_POINT ( 'NONE', #96 ) ;
#242 = CARTESIAN_POINT ( 'NONE',  ( 0.1181100000000000066, 1.446430334472939084E-17, 2.229093999999999465 ) ) ;
#243 = DIRECTION ( 'NONE',  ( 0.000000000000000000, 0.000000000000000000, 1.000000000000000000 ) ) ;
#244 = ADVANCED_FACE ( 'NONE', ( #281 ), #153, .T. ) ;
#245 = EDGE_LOOP ( 'NONE', ( #144, #299, #7, #123 ) ) ;
#246 = VECTOR ( 'NONE', #107, 39.37007874015748143 ) ;
#247 =( GEOMETRIC_REPRESENTATION_CONTEXT ( 3 ) GLOBAL_UNCERTAINTY_ASSIGNED_CONTEXT ( ( #236 ) ) GLOBAL_UNIT_ASSIGNED_CONTEXT ( ( #77, #118, #81 ) ) REPRESENTATION_CONTEXT ( 'NONE', 'WORKASPACE' ) );
#248 = ADVANCED_BREP_SHAPE_REPRESENTATION ( 'Micro_AEMM-060-2X', ( #272, #280 ), #172 ) ;
#249 = ORIENTED_EDGE ( 'NONE', *, *, #158, .F. ) ;
#250 = DIRECTION ( 'NONE',  ( -1.224646799147353207E-16, -0.000000000000000000, -1.000000000000000000 ) ) ;
#251 = VERTEX_POINT ( 'NONE', #242 ) ;
#252 = SURFACE_STYLE_FILL_AREA ( #126 ) ;
#253 =( CONVERSION_BASED_UNIT ( 'INCH', #124 ) LENGTH_UNIT ( ) NAMED_UNIT ( #37 ) );
#254 = CARTESIAN_POINT ( 'NONE',  ( -0.1181099999999999234, 0.000000000000000000, 0.6305908350957151187 ) ) ;
#255 = ADVANCED_FACE ( 'NONE', ( #140 ), #139, .T. ) ;
#256 = ORIENTED_EDGE ( 'NONE', *, *, #291, .T. ) ;
#257 = CYLINDRICAL_SURFACE ( 'NONE', #183, 0.1181100000000000066 ) ;
#258 = FACE_OUTER_BOUND ( 'NONE', #99, .T. ) ;
#259 = CARTESIAN_POINT ( 'NONE',  ( -0.1179918899999999882, 0.000000000000000000, 1.444983904138465938E-17 ) ) ;
#260 = SURFACE_SIDE_STYLE ('',( #98 ) ) ;
#261 = ADVANCED_FACE ( 'NONE', ( #143 ), #97, .T. ) ;
#262 = LINE ( 'NONE', #5, #145 ) ;
#263 = ORIENTED_EDGE ( 'NONE', *, *, #205, .T. ) ;
#264 = UNCERTAINTY_MEASURE_WITH_UNIT (LENGTH_MEASURE( 1.000000000000000082E-05 ), #171, 'distance_accuracy_value', 'NONE');
#265 = ORIENTED_EDGE ( 'NONE', *, *, #158, .T. ) ;
#266 = DIRECTION ( 'NONE',  ( 1.000000000000000000, 0.000000000000000000, 0.000000000000000000 ) ) ;
#267 = ADVANCED_FACE ( 'NONE', ( #1 ), #199, .T. ) ;
#268 =( NAMED_UNIT ( * ) PLANE_ANGLE_UNIT ( ) SI_UNIT ( $, .RADIAN. ) );
#269 = VERTEX_POINT ( 'NONE', #188 ) ;
#270 = SURFACE_STYLE_USAGE ( .BOTH. , #64 ) ;
#271 = DIRECTION ( 'NONE',  ( -1.224646799147353207E-16, -0.000000000000000000, -1.000000000000000000 ) ) ;
#272 = MANIFOLD_SOLID_BREP ( 'Cut-Revolve1', #202 ) ;
#273 = AXIS2_PLACEMENT_3D ( 'NONE', #54, #59, #216 ) ;
#274 = PRODUCT_DEFINITION_SHAPE ( 'NONE', 'NONE',  #58 ) ;
#275 = CARTESIAN_POINT ( 'NONE',  ( 0.000000000000000000, 0.000000000000000000, 2.244094000000000033 ) ) ;
#276 = COLOUR_RGB ( '',0.7921568627450980005, 0.8196078431372548767, 0.9333333333333333481 ) ;
#277 = CARTESIAN_POINT ( 'NONE',  ( 0.1179918900000000853, 0.000000000000000000, 0.6299209999999999532 ) ) ;
#278 = DIRECTION ( 'NONE',  ( 0.000000000000000000, 0.000000000000000000, -1.000000000000000000 ) ) ;
#279 = DIRECTION ( 'NONE',  ( -0.000000000000000000, -0.000000000000000000, -1.000000000000000000 ) ) ;
#280 = AXIS2_PLACEMENT_3D ( 'NONE', #45, #243, #39 ) ;
#281 = FACE_OUTER_BOUND ( 'NONE', #125, .T. ) ;
#282 = CARTESIAN_POINT ( 'NONE',  ( 7.714307363656999460E-17, 0.000000000000000000, 0.6299209999999999532 ) ) ;
#283 = EDGE_LOOP ( 'NONE', ( #214, #67, #204, #190 ) ) ;
#284 = VERTEX_POINT ( 'NONE', #169 ) ;
#285 = MECHANICAL_DESIGN_GEOMETRIC_PRESENTATION_REPRESENTATION (  '', ( #233 ), #121 ) ;
#286 = EDGE_CURVE ( 'NONE', #34, #88, #19, .T. ) ;
#287 = ORIENTED_EDGE ( 'NONE', *, *, #286, .F. ) ;
#288 = VERTEX_POINT ( 'NONE', #149 ) ;
#289 = AXIS2_PLACEMENT_3D ( 'NONE', #108, #278, #297 ) ;
#290 = AXIS2_PLACEMENT_3D ( 'NONE', #43, #15, #128 ) ;
#291 = EDGE_CURVE ( 'NONE', #284, #180, #184, .T. ) ;
#292 = CARTESIAN_POINT ( 'NONE',  ( 0.1179918899999999882, 1.444983904138465938E-17, -1.444983904138465938E-17 ) ) ;
#293 = FACE_OUTER_BOUND ( 'NONE', #230, .T. ) ;
#294 = CARTESIAN_POINT ( 'NONE',  ( -0.1181100000000000066, 0.000000000000000000, 2.244094000000000033 ) ) ;
#295 = FACE_OUTER_BOUND ( 'NONE', #157, .T. ) ;
#296 = PRESENTATION_LAYER_ASSIGNMENT (  '', '', ( #233 ) ) ;
#297 = DIRECTION ( 'NONE',  ( 1.000000000000000000, 0.000000000000000000, 0.000000000000000000 ) ) ;
#298 = ADVANCED_FACE ( 'NONE', ( #293 ), #62, .T. ) ;
#299 = ORIENTED_EDGE ( 'NONE', *, *, #114, .T. ) ;
ENDSEC;
END-ISO-10303-21;
