ISO-10303-21;
HEADER;
FILE_DESCRIPTION (( 'STEP AP214' ),
    '1' );
FILE_NAME ('Micro_AEMM-160-3X.STEP',
    '2022-03-15T14:32:54',
    ( '' ),
    ( '' ),
    'SwSTEP 2.0',
    'SolidWorks 2022',
    '' );
FILE_SCHEMA (( 'AUTOMOTIVE_DESIGN' ));
ENDSEC;

DATA;
#1 = CARTESIAN_POINT ( 'NONE',  ( 4.718927259360429440E-33, 0.000000000000000000, 3.853296528146670183E-17 ) ) ;
#2 = EDGE_CURVE ( 'NONE', #292, #91, #237, .T. ) ;
#3 = DIRECTION ( 'NONE',  ( -0.000000000000000000, -0.000000000000000000, -1.000000000000000000 ) ) ;
#4 = CIRCLE ( 'NONE', #154, 0.3149604999999999766 ) ;
#5 = PLANE ( 'NONE',  #108 ) ;
#6 = CARTESIAN_POINT ( 'NONE',  ( 1.689693231380615506E-16, 0.000000000000000000, 1.379739229757547481 ) ) ;
#7 = EDGE_CURVE ( 'NONE', #264, #293, #120, .T. ) ;
#8 = COLOUR_RGB ( '',0.7921568627450980005, 0.8196078431372548767, 0.9333333333333333481 ) ;
#9 = DIRECTION ( 'NONE',  ( 1.000000000000000000, 0.000000000000000000, 0.000000000000000000 ) ) ;
#10 = ADVANCED_FACE ( 'NONE', ( #101 ), #233, .F. ) ;
#11 = CARTESIAN_POINT ( 'NONE',  ( 1.689693231380615506E-16, 0.000000000000000000, 1.379739229757547481 ) ) ;
#12 = AXIS2_PLACEMENT_3D ( 'NONE', #6, #174, #281 ) ;
#13 = ORIENTED_EDGE ( 'NONE', *, *, #295, .F. ) ;
#14 = EDGE_CURVE ( 'NONE', #264, #17, #198, .T. ) ;
#15 = EDGE_LOOP ( 'NONE', ( #287, #82, #256, #113 ) ) ;
#16 = EDGE_CURVE ( 'NONE', #293, #70, #4, .T. ) ;
#17 = VERTEX_POINT ( 'NONE', #78 ) ;
#18 = CIRCLE ( 'NONE', #192, 0.3146455394999999600 ) ;
#19 = CONICAL_SURFACE ( 'NONE', #31, 0.2999604999999996857, 0.7853981633974324028 ) ;
#20 = ORIENTED_EDGE ( 'NONE', *, *, #280, .F. ) ;
#21 = SHAPE_DEFINITION_REPRESENTATION ( #245, #85 ) ;
#22 = VERTEX_POINT ( 'NONE', #146 ) ;
#23 = DIRECTION ( 'NONE',  ( 0.000000000000000000, 0.000000000000000000, 1.000000000000000000 ) ) ;
#24 =( LENGTH_UNIT ( ) NAMED_UNIT ( * ) SI_UNIT ( $, .METRE. ) );
#25 = CYLINDRICAL_SURFACE ( 'NONE', #282, 0.3146455394999999600 ) ;
#26 = UNCERTAINTY_MEASURE_WITH_UNIT (LENGTH_MEASURE( 1.000000000000000082E-05 ), #137, 'distance_accuracy_value', 'NONE');
#27 = CARTESIAN_POINT ( 'NONE',  ( 1.687505730825492758E-16, 0.000000000000000000, 1.377952999999999983 ) ) ;
#28 = EDGE_CURVE ( 'NONE', #22, #288, #18, .T. ) ;
#29 = CYLINDRICAL_SURFACE ( 'NONE', #134, 0.3146455394999999600 ) ;
#30 = DIRECTION ( 'NONE',  ( -1.224646799147353207E-16, -0.000000000000000000, -1.000000000000000000 ) ) ;
#31 = AXIS2_PLACEMENT_3D ( 'NONE', #33, #178, #64 ) ;
#32 = APPLICATION_CONTEXT ( 'automotive_design' ) ;
#33 = CARTESIAN_POINT ( 'NONE',  ( 0.000000000000000000, 0.000000000000000000, 3.622047000000000239 ) ) ;
#34 = EDGE_CURVE ( 'NONE', #22, #194, #191, .T. ) ;
#35 = LINE ( 'NONE', #197, #289 ) ;
#36 = APPLICATION_CONTEXT ( 'automotive_design' ) ;
#37 =( NAMED_UNIT ( * ) SI_UNIT ( $, .STERADIAN. ) SOLID_ANGLE_UNIT ( ) );
#38 = VECTOR ( 'NONE', #235, 39.37007874015748143 ) ;
#39 = ADVANCED_FACE ( 'NONE', ( #147 ), #29, .T. ) ;
#40 = CARTESIAN_POINT ( 'NONE',  ( 0.000000000000000000, 0.000000000000000000, 0.000000000000000000 ) ) ;
#41 = CARTESIAN_POINT ( 'NONE',  ( 0.2999604999999996857, 3.765305171892445978E-17, 3.622047000000000239 ) ) ;
#42 = CARTESIAN_POINT ( 'NONE',  ( 0.3146455395000001265, 0.000000000000000000, 1.377952999999999983 ) ) ;
#43 = ADVANCED_FACE ( 'NONE', ( #273 ), #172, .T. ) ;
#44 = AXIS2_PLACEMENT_3D ( 'NONE', #190, #298, #122 ) ;
#45 = AXIS2_PLACEMENT_3D ( 'NONE', #165, #251, #55 ) ;
#46 = ORIENTED_EDGE ( 'NONE', *, *, #208, .F. ) ;
#47 = EDGE_CURVE ( 'NONE', #293, #116, #193, .T. ) ;
#48 = PRODUCT ( 'Micro_AEMM-160-3X', 'Micro_AEMM-160-3X', '', ( #56 ) ) ;
#49 = ORIENTED_EDGE ( 'NONE', *, *, #65, .T. ) ;
#50 = AXIS2_PLACEMENT_3D ( 'NONE', #150, #176, #180 ) ;
#51 = ORIENTED_EDGE ( 'NONE', *, *, #47, .T. ) ;
#52 = DIRECTION ( 'NONE',  ( 0.000000000000000000, 0.000000000000000000, 1.000000000000000000 ) ) ;
#53 = DIMENSIONAL_EXPONENTS ( 1.000000000000000000, 0.000000000000000000, 0.000000000000000000, 0.000000000000000000, 0.000000000000000000, 0.000000000000000000, 0.000000000000000000 ) ;
#54 = UNCERTAINTY_MEASURE_WITH_UNIT (LENGTH_MEASURE( 1.000000000000000082E-05 ), #109, 'distance_accuracy_value', 'NONE');
#55 = DIRECTION ( 'NONE',  ( 1.000000000000000000, 0.000000000000000000, 0.000000000000000000 ) ) ;
#56 = PRODUCT_CONTEXT ( 'NONE', #36, 'mechanical' ) ;
#57 = MECHANICAL_DESIGN_GEOMETRIC_PRESENTATION_REPRESENTATION (  '', ( #104 ), #168 ) ;
#58 = DIRECTION ( 'NONE',  ( -1.224646799147353207E-16, -0.000000000000000000, -1.000000000000000000 ) ) ;
#59 = DIRECTION ( 'NONE',  ( 1.000000000000000000, 0.000000000000000000, 0.000000000000000000 ) ) ;
#60 = CARTESIAN_POINT ( 'NONE',  ( -0.3149604999999999766, 0.000000000000000000, 3.607046999999999226 ) ) ;
#61 = DIRECTION ( 'NONE',  ( -1.000000000000000000, 0.000000000000000000, 0.000000000000000000 ) ) ;
#62 = AXIS2_PLACEMENT_3D ( 'NONE', #257, #274, #61 ) ;
#63 = AXIS2_PLACEMENT_3D ( 'NONE', #217, #291, #221 ) ;
#64 = DIRECTION ( 'NONE',  ( -1.000000000000000000, 0.000000000000000000, 0.000000000000000000 ) ) ;
#65 = EDGE_CURVE ( 'NONE', #70, #194, #275, .T. ) ;
#66 = CARTESIAN_POINT ( 'NONE',  ( -0.3149604999999998656, 0.000000000000000000, 1.379739229757547481 ) ) ;
#67 = CIRCLE ( 'NONE', #218, 0.3146455394999999600 ) ;
#68 = SURFACE_STYLE_FILL_AREA ( #86 ) ;
#69 = CARTESIAN_POINT ( 'NONE',  ( -0.3146455394999999600, 0.000000000000000000, 7.706593056293340367E-17 ) ) ;
#70 = VERTEX_POINT ( 'NONE', #60 ) ;
#71 = VECTOR ( 'NONE', #3, 39.37007874015748143 ) ;
#72 = ORIENTED_EDGE ( 'NONE', *, *, #7, .F. ) ;
#73 = SURFACE_STYLE_FILL_AREA ( #121 ) ;
#74 = ORIENTED_EDGE ( 'NONE', *, *, #2, .T. ) ;
#75 = AXIS2_PLACEMENT_3D ( 'NONE', #228, #99, #169 ) ;
#76 = EDGE_CURVE ( 'NONE', #288, #91, #234, .T. ) ;
#77 = DIMENSIONAL_EXPONENTS ( 1.000000000000000000, 0.000000000000000000, 0.000000000000000000, 0.000000000000000000, 0.000000000000000000, 0.000000000000000000, 0.000000000000000000 ) ;
#78 = CARTESIAN_POINT ( 'NONE',  ( -0.2999604999999996857, 0.000000000000000000, 3.622047000000000239 ) ) ;
#79 = DIRECTION ( 'NONE',  ( 0.000000000000000000, 0.000000000000000000, 1.000000000000000000 ) ) ;
#80 = PRODUCT_DEFINITION ( 'UNKNOWN', '', #130, #252 ) ;
#81 = ORIENTED_EDGE ( 'NONE', *, *, #34, .F. ) ;
#82 = ORIENTED_EDGE ( 'NONE', *, *, #7, .T. ) ;
#83 = CARTESIAN_POINT ( 'NONE',  ( -0.3149604999999999766, 0.000000000000000000, 3.622047000000000239 ) ) ;
#84 = CARTESIAN_POINT ( 'NONE',  ( 4.718927259360429440E-33, 0.000000000000000000, 3.853296528146670183E-17 ) ) ;
#85 = ADVANCED_BREP_SHAPE_REPRESENTATION ( 'Micro_AEMM-160-3X', ( #279, #254 ), #242 ) ;
#86 = FILL_AREA_STYLE ('',( #152 ) ) ;
#87 = FACE_OUTER_BOUND ( 'NONE', #136, .T. ) ;
#88 = ADVANCED_FACE ( 'NONE', ( #211 ), #5, .T. ) ;
#89 = EDGE_LOOP ( 'NONE', ( #74, #227 ) ) ;
#90 = ORIENTED_EDGE ( 'NONE', *, *, #65, .F. ) ;
#91 = VERTEX_POINT ( 'NONE', #171 ) ;
#92 = LENGTH_MEASURE_WITH_UNIT ( LENGTH_MEASURE( 0.02539999999999999897 ), #24 );
#93 = ORIENTED_EDGE ( 'NONE', *, *, #295, .T. ) ;
#94 =( NAMED_UNIT ( * ) SI_UNIT ( $, .STERADIAN. ) SOLID_ANGLE_UNIT ( ) );
#95 = ORIENTED_EDGE ( 'NONE', *, *, #175, .T. ) ;
#96 = AXIS2_PLACEMENT_3D ( 'NONE', #1, #58, #204 ) ;
#97 = EDGE_CURVE ( 'NONE', #288, #22, #265, .T. ) ;
#98 = AXIS2_PLACEMENT_3D ( 'NONE', #260, #215, #285 ) ;
#99 = DIRECTION ( 'NONE',  ( 0.000000000000000000, 0.000000000000000000, 1.000000000000000000 ) ) ;
#100 = ADVANCED_FACE ( 'NONE', ( #118 ), #149, .T. ) ;
#101 = FACE_OUTER_BOUND ( 'NONE', #89, .T. ) ;
#102 = CARTESIAN_POINT ( 'NONE',  ( 0.000000000000000000, 0.000000000000000000, 0.000000000000000000 ) ) ;
#103 = DIRECTION ( 'NONE',  ( 1.000000000000000000, 0.000000000000000000, -0.000000000000000000 ) ) ;
#104 = STYLED_ITEM ( 'NONE', ( #188 ), #85 ) ;
#105 = DIRECTION ( 'NONE',  ( -1.000000000000000000, 0.000000000000000000, 0.000000000000000000 ) ) ;
#106 = CARTESIAN_POINT ( 'NONE',  ( 0.000000000000000000, 0.000000000000000000, 3.622047000000000239 ) ) ;
#107 = DIRECTION ( 'NONE',  ( -1.224646799147353207E-16, -0.000000000000000000, -1.000000000000000000 ) ) ;
#108 = AXIS2_PLACEMENT_3D ( 'NONE', #106, #23, #278 ) ;
#109 =( CONVERSION_BASED_UNIT ( 'INCH', #216 ) LENGTH_UNIT ( ) NAMED_UNIT ( #53 ) );
#110 = VECTOR ( 'NONE', #263, 39.37007874015748143 ) ;
#111 = CYLINDRICAL_SURFACE ( 'NONE', #248, 0.3149604999999999766 ) ;
#112 = PRESENTATION_STYLE_ASSIGNMENT (( #236 ) ) ;
#113 = ORIENTED_EDGE ( 'NONE', *, *, #140, .F. ) ;
#114 = EDGE_LOOP ( 'NONE', ( #95, #51, #164, #90 ) ) ;
#115 = ORIENTED_EDGE ( 'NONE', *, *, #76, .T. ) ;
#116 = VERTEX_POINT ( 'NONE', #144 ) ;
#117 = ORIENTED_EDGE ( 'NONE', *, *, #47, .F. ) ;
#118 = FACE_OUTER_BOUND ( 'NONE', #219, .T. ) ;
#119 = CONICAL_SURFACE ( 'NONE', #258, 0.3146455394999999600, 0.1745329251994338915 ) ;
#120 = LINE ( 'NONE', #125, #222 ) ;
#121 = FILL_AREA_STYLE ('',( #294 ) ) ;
#122 = DIRECTION ( 'NONE',  ( -1.000000000000000000, 0.000000000000000000, 0.000000000000000000 ) ) ;
#123 = DIRECTION ( 'NONE',  ( 0.7071067811865362485, 8.659560562354796040E-17, -0.7071067811865587860 ) ) ;
#124 = STYLED_ITEM ( 'NONE', ( #112 ), #279 ) ;
#125 = CARTESIAN_POINT ( 'NONE',  ( 0.2999604999999996857, 3.673456661956392842E-17, 3.622047000000000239 ) ) ;
#126 = DIRECTION ( 'NONE',  ( -0.000000000000000000, -0.000000000000000000, -1.000000000000000000 ) ) ;
#127 = ADVANCED_FACE ( 'NONE', ( #229 ), #25, .T. ) ;
#128 = ADVANCED_FACE ( 'NONE', ( #155 ), #119, .T. ) ;
#129 = DIRECTION ( 'NONE',  ( -1.000000000000000000, 0.000000000000000000, 1.224646799147353207E-16 ) ) ;
#130 = PRODUCT_DEFINITION_FORMATION_WITH_SPECIFIED_SOURCE ( 'ANY', '', #48, .NOT_KNOWN. ) ;
#131 = DIRECTION ( 'NONE',  ( -1.224646799147353207E-16, -0.000000000000000000, -1.000000000000000000 ) ) ;
#132 = ADVANCED_FACE ( 'NONE', ( #199 ), #111, .T. ) ;
#133 = CARTESIAN_POINT ( 'NONE',  ( 0.3149604999999999766, 3.857153681828499730E-17, 3.607046999999999226 ) ) ;
#134 = AXIS2_PLACEMENT_3D ( 'NONE', #187, #299, #232 ) ;
#135 = ORIENTED_EDGE ( 'NONE', *, *, #97, .T. ) ;
#136 = EDGE_LOOP ( 'NONE', ( #72, #13, #200, #184 ) ) ;
#137 =( CONVERSION_BASED_UNIT ( 'INCH', #92 ) LENGTH_UNIT ( ) NAMED_UNIT ( #77 ) );
#138 = ORIENTED_EDGE ( 'NONE', *, *, #208, .T. ) ;
#139 = VECTOR ( 'NONE', #148, 39.37007874015747433 ) ;
#140 = EDGE_CURVE ( 'NONE', #17, #70, #195, .T. ) ;
#141 = EDGE_LOOP ( 'NONE', ( #93, #266 ) ) ;
#142 =( CONVERSION_BASED_UNIT ( 'INCH', #268 ) LENGTH_UNIT ( ) NAMED_UNIT ( #247 ) );
#143 = EDGE_LOOP ( 'NONE', ( #117, #243, #49, #46 ) ) ;
#144 = CARTESIAN_POINT ( 'NONE',  ( 0.3149605000000001431, 3.857153681828500963E-17, 1.379739229757547481 ) ) ;
#145 = APPLICATION_PROTOCOL_DEFINITION ( 'draft international standard', 'automotive_design', 1998, #32 ) ;
#146 = CARTESIAN_POINT ( 'NONE',  ( -0.3146455394999998489, 3.855225104987584957E-17, 1.377952999999999983 ) ) ;
#147 = FACE_OUTER_BOUND ( 'NONE', #269, .T. ) ;
#148 = DIRECTION ( 'NONE',  ( -0.1736481776669311916, 2.126576849575783316E-17, 0.9848077530122080203 ) ) ;
#149 = CONICAL_SURFACE ( 'NONE', #45, 0.3146455394999999600, 0.1745329251994338915 ) ;
#150 = CARTESIAN_POINT ( 'NONE',  ( 0.000000000000000000, 0.000000000000000000, 3.607046999999999226 ) ) ;
#151 = EDGE_CURVE ( 'NONE', #288, #116, #153, .T. ) ;
#152 = FILL_AREA_STYLE_COLOUR ( '', #8 ) ;
#153 = LINE ( 'NONE', #214, #38 ) ;
#154 = AXIS2_PLACEMENT_3D ( 'NONE', #255, #253, #59 ) ;
#155 = FACE_OUTER_BOUND ( 'NONE', #225, .T. ) ;
#156 = DIRECTION ( 'NONE',  ( 1.000000000000000000, 0.000000000000000000, 0.000000000000000000 ) ) ;
#157 = DIRECTION ( 'NONE',  ( -1.224646799147353207E-16, -0.000000000000000000, -1.000000000000000000 ) ) ;
#158 = ORIENTED_EDGE ( 'NONE', *, *, #151, .F. ) ;
#159 =( NAMED_UNIT ( * ) PLANE_ANGLE_UNIT ( ) SI_UNIT ( $, .RADIAN. ) );
#160 = ORIENTED_EDGE ( 'NONE', *, *, #223, .F. ) ;
#161 = ORIENTED_EDGE ( 'NONE', *, *, #28, .F. ) ;
#162 = AXIS2_PLACEMENT_3D ( 'NONE', #209, #79, #103 ) ;
#163 = MECHANICAL_DESIGN_GEOMETRIC_PRESENTATION_REPRESENTATION (  '', ( #124 ), #186 ) ;
#164 = ORIENTED_EDGE ( 'NONE', *, *, #276, .F. ) ;
#165 = CARTESIAN_POINT ( 'NONE',  ( 1.687505730825492758E-16, 0.000000000000000000, 1.377952999999999983 ) ) ;
#166 =( NAMED_UNIT ( * ) PLANE_ANGLE_UNIT ( ) SI_UNIT ( $, .RADIAN. ) );
#167 = DIRECTION ( 'NONE',  ( -1.224646799147353207E-16, -0.000000000000000000, -1.000000000000000000 ) ) ;
#168 =( GEOMETRIC_REPRESENTATION_CONTEXT ( 3 ) GLOBAL_UNCERTAINTY_ASSIGNED_CONTEXT ( ( #189 ) ) GLOBAL_UNIT_ASSIGNED_CONTEXT ( ( #142, #159, #201 ) ) REPRESENTATION_CONTEXT ( 'NONE', 'WORKASPACE' ) );
#169 = DIRECTION ( 'NONE',  ( 1.000000000000000000, 0.000000000000000000, 0.000000000000000000 ) ) ;
#170 = DIRECTION ( 'NONE',  ( -0.000000000000000000, -0.000000000000000000, -1.000000000000000000 ) ) ;
#171 = CARTESIAN_POINT ( 'NONE',  ( 0.3146455394999999600, 3.853296528146670183E-17, 0.000000000000000000 ) ) ;
#172 = CONICAL_SURFACE ( 'NONE', #44, 0.2999604999999996857, 0.7853981633974324028 ) ;
#173 = CIRCLE ( 'NONE', #12, 0.3149604999999999766 ) ;
#174 = DIRECTION ( 'NONE',  ( -1.224646799147353207E-16, -0.000000000000000000, -1.000000000000000000 ) ) ;
#175 = EDGE_CURVE ( 'NONE', #70, #293, #179, .T. ) ;
#176 = DIRECTION ( 'NONE',  ( 0.000000000000000000, 0.000000000000000000, -1.000000000000000000 ) ) ;
#177 = DIRECTION ( 'NONE',  ( 1.224646799147353207E-16, 0.000000000000000000, 1.000000000000000000 ) ) ;
#178 = DIRECTION ( 'NONE',  ( 0.000000000000000000, 0.000000000000000000, -1.000000000000000000 ) ) ;
#179 = CIRCLE ( 'NONE', #50, 0.3149604999999999766 ) ;
#180 = DIRECTION ( 'NONE',  ( 1.000000000000000000, 0.000000000000000000, 0.000000000000000000 ) ) ;
#181 = ORIENTED_EDGE ( 'NONE', *, *, #2, .F. ) ;
#183 = ORIENTED_EDGE ( 'NONE', *, *, #223, .T. ) ;
#182 = PRESENTATION_LAYER_ASSIGNMENT (  '', '', ( #104 ) ) ;
#184 = ORIENTED_EDGE ( 'NONE', *, *, #16, .F. ) ;
#185 = ORIENTED_EDGE ( 'NONE', *, *, #97, .F. ) ;
#186 =( GEOMETRIC_REPRESENTATION_CONTEXT ( 3 ) GLOBAL_UNCERTAINTY_ASSIGNED_CONTEXT ( ( #54 ) ) GLOBAL_UNIT_ASSIGNED_CONTEXT ( ( #109, #283, #37 ) ) REPRESENTATION_CONTEXT ( 'NONE', 'WORKASPACE' ) );
#187 = CARTESIAN_POINT ( 'NONE',  ( 0.000000000000000000, 0.000000000000000000, 0.000000000000000000 ) ) ;
#188 = PRESENTATION_STYLE_ASSIGNMENT (( #207 ) ) ;
#189 = UNCERTAINTY_MEASURE_WITH_UNIT (LENGTH_MEASURE( 1.000000000000000082E-05 ), #142, 'distance_accuracy_value', 'NONE');
#190 = CARTESIAN_POINT ( 'NONE',  ( 0.000000000000000000, 0.000000000000000000, 3.622047000000000239 ) ) ;
#191 = LINE ( 'NONE', #206, #139 ) ;
#192 = AXIS2_PLACEMENT_3D ( 'NONE', #27, #167, #105 ) ;
#193 = LINE ( 'NONE', #210, #296 ) ;
#194 = VERTEX_POINT ( 'NONE', #66 ) ;
#195 = LINE ( 'NONE', #239, #110 ) ;
#196 = CLOSED_SHELL ( 'NONE', ( #39, #100, #43, #132, #241, #88, #202, #128, #127, #10 ) ) ;
#197 = CARTESIAN_POINT ( 'NONE',  ( -0.3146455394999999600, 0.000000000000000000, 3.853296528146670183E-17 ) ) ;
#198 = CIRCLE ( 'NONE', #75, 0.2999604999999996857 ) ;
#199 = FACE_OUTER_BOUND ( 'NONE', #114, .T. ) ;
#200 = ORIENTED_EDGE ( 'NONE', *, *, #140, .T. ) ;
#201 =( NAMED_UNIT ( * ) SI_UNIT ( $, .STERADIAN. ) SOLID_ANGLE_UNIT ( ) );
#202 = ADVANCED_FACE ( 'NONE', ( #87 ), #19, .T. ) ;
#203 = ORIENTED_EDGE ( 'NONE', *, *, #276, .T. ) ;
#204 = DIRECTION ( 'NONE',  ( -1.000000000000000000, 0.000000000000000000, 1.224646799147353207E-16 ) ) ;
#205 = CIRCLE ( 'NONE', #63, 0.2999604999999996857 ) ;
#206 = CARTESIAN_POINT ( 'NONE',  ( -0.3146455394999998489, 3.853296528146670183E-17, 1.377952999999999983 ) ) ;
#207 = SURFACE_STYLE_USAGE ( .BOTH. , #267 ) ;
#208 = EDGE_CURVE ( 'NONE', #116, #194, #224, .T. ) ;
#209 = CARTESIAN_POINT ( 'NONE',  ( 0.000000000000000000, 0.000000000000000000, 0.000000000000000000 ) ) ;
#210 = CARTESIAN_POINT ( 'NONE',  ( 0.3149604999999999766, 3.857153681828499730E-17, 3.622047000000000239 ) ) ;
#211 = FACE_OUTER_BOUND ( 'NONE', #141, .T. ) ;
#212 = DIRECTION ( 'NONE',  ( -1.224646799147353207E-16, -0.000000000000000000, -1.000000000000000000 ) ) ;
#213 =( LENGTH_UNIT ( ) NAMED_UNIT ( * ) SI_UNIT ( $, .METRE. ) );
#214 = CARTESIAN_POINT ( 'NONE',  ( 0.3146455395000001265, 0.000000000000000000, 1.377952999999999983 ) ) ;
#215 = DIRECTION ( 'NONE',  ( -0.000000000000000000, -0.000000000000000000, -1.000000000000000000 ) ) ;
#216 = LENGTH_MEASURE_WITH_UNIT ( LENGTH_MEASURE( 0.02539999999999999897 ), #213 );
#217 = CARTESIAN_POINT ( 'NONE',  ( 0.000000000000000000, 0.000000000000000000, 3.622047000000000239 ) ) ;
#218 = AXIS2_PLACEMENT_3D ( 'NONE', #84, #157, #240 ) ;
#219 = EDGE_LOOP ( 'NONE', ( #161, #246, #203, #158 ) ) ;
#220 = ORIENTED_EDGE ( 'NONE', *, *, #28, .T. ) ;
#221 = DIRECTION ( 'NONE',  ( 1.000000000000000000, 0.000000000000000000, 0.000000000000000000 ) ) ;
#222 = VECTOR ( 'NONE', #123, 39.37007874015748143 ) ;
#223 = EDGE_CURVE ( 'NONE', #22, #292, #35, .T. ) ;
#225 = EDGE_LOOP ( 'NONE', ( #81, #185, #290, #138 ) ) ;
#224 = CIRCLE ( 'NONE', #297, 0.3149604999999999766 ) ;
#226 = APPLICATION_PROTOCOL_DEFINITION ( 'draft international standard', 'automotive_design', 1998, #36 ) ;
#227 = ORIENTED_EDGE ( 'NONE', *, *, #280, .T. ) ;
#228 = CARTESIAN_POINT ( 'NONE',  ( 0.000000000000000000, 0.000000000000000000, 3.622047000000000239 ) ) ;
#229 = FACE_OUTER_BOUND ( 'NONE', #271, .T. ) ;
#230 = VECTOR ( 'NONE', #30, 39.37007874015748143 ) ;
#231 = COLOUR_RGB ( '',0.7921568627450980005, 0.8196078431372548767, 0.9333333333333333481 ) ;
#232 = DIRECTION ( 'NONE',  ( -1.000000000000000000, 0.000000000000000000, 1.224646799147353207E-16 ) ) ;
#233 = PLANE ( 'NONE',  #162 ) ;
#234 = LINE ( 'NONE', #277, #230 ) ;
#235 = DIRECTION ( 'NONE',  ( 0.1736481776669313859, 0.000000000000000000, 0.9848077530122077983 ) ) ;
#236 = SURFACE_STYLE_USAGE ( .BOTH. , #262 ) ;
#237 = CIRCLE ( 'NONE', #96, 0.3146455394999999600 ) ;
#238 = CARTESIAN_POINT ( 'NONE',  ( 0.000000000000000000, 0.000000000000000000, 3.622047000000000239 ) ) ;
#239 = CARTESIAN_POINT ( 'NONE',  ( -0.2999604999999996857, 0.000000000000000000, 3.622047000000000239 ) ) ;
#240 = DIRECTION ( 'NONE',  ( -1.000000000000000000, 0.000000000000000000, 1.224646799147353207E-16 ) ) ;
#241 = ADVANCED_FACE ( 'NONE', ( #284 ), #261, .T. ) ;
#242 =( GEOMETRIC_REPRESENTATION_CONTEXT ( 3 ) GLOBAL_UNCERTAINTY_ASSIGNED_CONTEXT ( ( #26 ) ) GLOBAL_UNIT_ASSIGNED_CONTEXT ( ( #137, #166, #94 ) ) REPRESENTATION_CONTEXT ( 'NONE', 'WORKASPACE' ) );
#243 = ORIENTED_EDGE ( 'NONE', *, *, #16, .T. ) ;
#244 = DIRECTION ( 'NONE',  ( 1.000000000000000000, 0.000000000000000000, 0.000000000000000000 ) ) ;
#245 = PRODUCT_DEFINITION_SHAPE ( 'NONE', 'NONE',  #80 ) ;
#246 = ORIENTED_EDGE ( 'NONE', *, *, #34, .T. ) ;
#247 = DIMENSIONAL_EXPONENTS ( 1.000000000000000000, 0.000000000000000000, 0.000000000000000000, 0.000000000000000000, 0.000000000000000000, 0.000000000000000000, 0.000000000000000000 ) ;
#249 = ORIENTED_EDGE ( 'NONE', *, *, #76, .F. ) ;
#248 = AXIS2_PLACEMENT_3D ( 'NONE', #238, #126, #286 ) ;
#250 =( LENGTH_UNIT ( ) NAMED_UNIT ( * ) SI_UNIT ( $, .METRE. ) );
#251 = DIRECTION ( 'NONE',  ( 1.224646799147353207E-16, 0.000000000000000000, 1.000000000000000000 ) ) ;
#252 = PRODUCT_DEFINITION_CONTEXT ( 'detailed design', #32, 'design' ) ;
#253 = DIRECTION ( 'NONE',  ( 0.000000000000000000, 0.000000000000000000, -1.000000000000000000 ) ) ;
#254 = AXIS2_PLACEMENT_3D ( 'NONE', #102, #52, #244 ) ;
#255 = CARTESIAN_POINT ( 'NONE',  ( 0.000000000000000000, 0.000000000000000000, 3.607046999999999226 ) ) ;
#256 = ORIENTED_EDGE ( 'NONE', *, *, #175, .F. ) ;
#257 = CARTESIAN_POINT ( 'NONE',  ( 1.687505730825492758E-16, 0.000000000000000000, 1.377952999999999983 ) ) ;
#258 = AXIS2_PLACEMENT_3D ( 'NONE', #259, #177, #156 ) ;
#259 = CARTESIAN_POINT ( 'NONE',  ( 1.687505730825492758E-16, 0.000000000000000000, 1.377952999999999983 ) ) ;
#260 = CARTESIAN_POINT ( 'NONE',  ( 0.000000000000000000, 0.000000000000000000, 3.622047000000000239 ) ) ;
#261 = CYLINDRICAL_SURFACE ( 'NONE', #98, 0.3149604999999999766 ) ;
#262 = SURFACE_SIDE_STYLE ('',( #68 ) ) ;
#263 = DIRECTION ( 'NONE',  ( -0.7071067811865362485, 0.000000000000000000, -0.7071067811865587860 ) ) ;
#264 = VERTEX_POINT ( 'NONE', #41 ) ;
#265 = CIRCLE ( 'NONE', #62, 0.3146455394999999600 ) ;
#266 = ORIENTED_EDGE ( 'NONE', *, *, #14, .T. ) ;
#267 = SURFACE_SIDE_STYLE ('',( #73 ) ) ;
#268 = LENGTH_MEASURE_WITH_UNIT ( LENGTH_MEASURE( 0.02539999999999999897 ), #250 );
#269 = EDGE_LOOP ( 'NONE', ( #220, #115, #181, #160 ) ) ;
#271 = EDGE_LOOP ( 'NONE', ( #249, #135, #183, #20 ) ) ;
#270 = PRESENTATION_LAYER_ASSIGNMENT (  '', '', ( #124 ) ) ;
#272 = PRODUCT_RELATED_PRODUCT_CATEGORY ( 'part', '', ( #48 ) ) ;
#273 = FACE_OUTER_BOUND ( 'NONE', #15, .T. ) ;
#274 = DIRECTION ( 'NONE',  ( -1.224646799147353207E-16, -0.000000000000000000, -1.000000000000000000 ) ) ;
#275 = LINE ( 'NONE', #83, #71 ) ;
#276 = EDGE_CURVE ( 'NONE', #194, #116, #173, .T. ) ;
#277 = CARTESIAN_POINT ( 'NONE',  ( 0.3146455394999999600, 3.853296528146670183E-17, -3.853296528146670183E-17 ) ) ;
#278 = DIRECTION ( 'NONE',  ( 1.000000000000000000, 0.000000000000000000, -0.000000000000000000 ) ) ;
#279 = MANIFOLD_SOLID_BREP ( 'Cut-Revolve1', #196 ) ;
#280 = EDGE_CURVE ( 'NONE', #91, #292, #67, .T. ) ;
#281 = DIRECTION ( 'NONE',  ( 1.000000000000000000, 0.000000000000000000, 0.000000000000000000 ) ) ;
#282 = AXIS2_PLACEMENT_3D ( 'NONE', #40, #131, #129 ) ;
#283 =( NAMED_UNIT ( * ) PLANE_ANGLE_UNIT ( ) SI_UNIT ( $, .RADIAN. ) );
#284 = FACE_OUTER_BOUND ( 'NONE', #143, .T. ) ;
#285 = DIRECTION ( 'NONE',  ( -1.000000000000000000, 0.000000000000000000, 0.000000000000000000 ) ) ;
#286 = DIRECTION ( 'NONE',  ( -1.000000000000000000, 0.000000000000000000, 0.000000000000000000 ) ) ;
#287 = ORIENTED_EDGE ( 'NONE', *, *, #14, .F. ) ;
#288 = VERTEX_POINT ( 'NONE', #42 ) ;
#289 = VECTOR ( 'NONE', #107, 39.37007874015748143 ) ;
#290 = ORIENTED_EDGE ( 'NONE', *, *, #151, .T. ) ;
#291 = DIRECTION ( 'NONE',  ( 0.000000000000000000, 0.000000000000000000, 1.000000000000000000 ) ) ;
#292 = VERTEX_POINT ( 'NONE', #69 ) ;
#293 = VERTEX_POINT ( 'NONE', #133 ) ;
#294 = FILL_AREA_STYLE_COLOUR ( '', #231 ) ;
#295 = EDGE_CURVE ( 'NONE', #17, #264, #205, .T. ) ;
#296 = VECTOR ( 'NONE', #170, 39.37007874015748143 ) ;
#297 = AXIS2_PLACEMENT_3D ( 'NONE', #11, #212, #9 ) ;
#298 = DIRECTION ( 'NONE',  ( 0.000000000000000000, 0.000000000000000000, -1.000000000000000000 ) ) ;
#299 = DIRECTION ( 'NONE',  ( -1.224646799147353207E-16, -0.000000000000000000, -1.000000000000000000 ) ) ;
ENDSEC;
END-ISO-10303-21;
