ISO-10303-21;
HEADER;
FILE_DESCRIPTION (( 'STEP AP214' ),
    '1' );
FILE_NAME ('59600.STEP',
    '2023-07-24T15:14:16',
    ( '' ),
    ( '' ),
    'SwSTEP 2.0',
    'SolidWorks 2023',
    '' );
FILE_SCHEMA (( 'AUTOMOTIVE_DESIGN' ));
ENDSEC;

DATA;
#1 = SURFACE_STYLE_FILL_AREA ( #137 ) ;
#2 = PRESENTATION_STYLE_ASSIGNMENT (( #178 ) ) ;
#3 = PRESENTATION_LAYER_ASSIGNMENT (  '', '', ( #262 ) ) ;
#4 = AXIS2_PLACEMENT_3D ( 'NONE', #103, #167, #194 ) ;
#5 = ADVANCED_FACE ( 'NONE', ( #235 ), #204, .T. ) ;
#6 = SURFACE_STYLE_USAGE ( .BOTH. , #320 ) ;
#7 = FACE_OUTER_BOUND ( 'NONE', #76, .T. ) ;
#8 = DIRECTION ( 'NONE',  ( 0.000000000000000000, 0.000000000000000000, -1.000000000000000000 ) ) ;
#9 = AXIS2_PLACEMENT_3D ( 'NONE', #291, #13, #40 ) ;
#10 = PLANE ( 'NONE',  #107 ) ;
#11 = AXIS2_PLACEMENT_3D ( 'NONE', #111, #32, #88 ) ;
#12 = FACE_OUTER_BOUND ( 'NONE', #135, .T. ) ;
#13 = DIRECTION ( 'NONE',  ( -0.000000000000000000, -1.000000000000000000, -0.000000000000000000 ) ) ;
#14 =( NAMED_UNIT ( * ) SI_UNIT ( $, .STERADIAN. ) SOLID_ANGLE_UNIT ( ) );
#15 =( GEOMETRIC_REPRESENTATION_CONTEXT ( 3 ) GLOBAL_UNCERTAINTY_ASSIGNED_CONTEXT ( ( #316 ) ) GLOBAL_UNIT_ASSIGNED_CONTEXT ( ( #349, #231, #112 ) ) REPRESENTATION_CONTEXT ( 'NONE', 'WORKASPACE' ) );
#16 =( GEOMETRIC_REPRESENTATION_CONTEXT ( 3 ) GLOBAL_UNCERTAINTY_ASSIGNED_CONTEXT ( ( #197 ) ) GLOBAL_UNIT_ASSIGNED_CONTEXT ( ( #310, #245, #79 ) ) REPRESENTATION_CONTEXT ( 'NONE', 'WORKASPACE' ) );
#17 = PRODUCT_DEFINITION_FORMATION_WITH_SPECIFIED_SOURCE ( 'ANY', '', #143, .NOT_KNOWN. ) ;
#18 =( NAMED_UNIT ( * ) PLANE_ANGLE_UNIT ( ) SI_UNIT ( $, .RADIAN. ) );
#19 = SURFACE_SIDE_STYLE ('',( #277 ) ) ;
#20 = EDGE_LOOP ( 'NONE', ( #48, #31, #362, #56 ) ) ;
#21 = COLOUR_RGB ( '',0.7921568627450980005, 0.8196078431372548767, 0.9333333333333333481 ) ;
#22 = FILL_AREA_STYLE ('',( #98 ) ) ;
#23 = VERTEX_POINT ( 'NONE', #264 ) ;
#24 = FACE_OUTER_BOUND ( 'NONE', #156, .T. ) ;
#25 = LINE ( 'NONE', #101, #129 ) ;
#26 = ORIENTED_EDGE ( 'NONE', *, *, #110, .T. ) ;
#27 = CARTESIAN_POINT ( 'NONE',  ( 0.000000000000000000, 0.000000000000000000, -5.000000000000000000 ) ) ;
#28 = AXIS2_PLACEMENT_3D ( 'NONE', #358, #90, #185 ) ;
#29 = ORIENTED_EDGE ( 'NONE', *, *, #306, .T. ) ;
#30 = FILL_AREA_STYLE_COLOUR ( '', #219 ) ;
#31 = ORIENTED_EDGE ( 'NONE', *, *, #144, .T. ) ;
#32 = DIRECTION ( 'NONE',  ( -4.697880814296055710E-17, 1.000000000000000000, -0.000000000000000000 ) ) ;
#33 = ORIENTED_EDGE ( 'NONE', *, *, #133, .F. ) ;
#34 = AXIS2_PLACEMENT_3D ( 'NONE', #244, #128, #281 ) ;
#35 = AXIS2_PLACEMENT_3D ( 'NONE', #120, #359, #211 ) ;
#36 = VERTEX_POINT ( 'NONE', #116 ) ;
#37 = MANIFOLD_SOLID_BREP ( 'Revolve - Tool Body (Straight Shanked)', #161 ) ;
#38 = EDGE_CURVE ( 'NONE', #282, #252, #224, .T. ) ;
#39 = DIRECTION ( 'NONE',  ( 0.000000000000000000, 0.000000000000000000, -1.000000000000000000 ) ) ;
#40 = DIRECTION ( 'NONE',  ( 0.000000000000000000, 0.000000000000000000, -1.000000000000000000 ) ) ;
#41 = VERTEX_POINT ( 'NONE', #174 ) ;
#42 =( NAMED_UNIT ( * ) PLANE_ANGLE_UNIT ( ) SI_UNIT ( $, .RADIAN. ) );
#43 =( NAMED_UNIT ( * ) SI_UNIT ( $, .STERADIAN. ) SOLID_ANGLE_UNIT ( ) );
#44 =( GEOMETRIC_REPRESENTATION_CONTEXT ( 3 ) GLOBAL_UNCERTAINTY_ASSIGNED_CONTEXT ( ( #342 ) ) GLOBAL_UNIT_ASSIGNED_CONTEXT ( ( #300, #183, #209 ) ) REPRESENTATION_CONTEXT ( 'NONE', 'WORKASPACE' ) );
#45 = DIRECTION ( 'NONE',  ( -4.697880814296055710E-17, 1.000000000000000000, -0.000000000000000000 ) ) ;
#46 = EDGE_CURVE ( 'NONE', #313, #23, #272, .T. ) ;
#47 = DIRECTION ( 'NONE',  ( 0.000000000000000000, 0.000000000000000000, -1.000000000000000000 ) ) ;
#48 = ORIENTED_EDGE ( 'NONE', *, *, #228, .F. ) ;
#49 = VERTEX_POINT ( 'NONE', #86 ) ;
#50 = MECHANICAL_DESIGN_GEOMETRIC_PRESENTATION_REPRESENTATION (  '', ( #337 ), #16 ) ;
#51 = CARTESIAN_POINT ( 'NONE',  ( 0.000000000000000000, 0.000000000000000000, 0.000000000000000000 ) ) ;
#52 = CARTESIAN_POINT ( 'NONE',  ( 3.184081677783117402E-15, 63.00000000000000000, 0.000000000000000000 ) ) ;
#53 = SURFACE_SIDE_STYLE ('',( #221 ) ) ;
#54 = VERTEX_POINT ( 'NONE', #321 ) ;
#55 = CIRCLE ( 'NONE', #158, 1.000000000000000000 ) ;
#56 = ORIENTED_EDGE ( 'NONE', *, *, #72, .F. ) ;
#57 = EDGE_CURVE ( 'NONE', #265, #36, #205, .T. ) ;
#58 = CARTESIAN_POINT ( 'NONE',  ( 0.000000000000000000, 20.00000000000000000, -5.000000000000000000 ) ) ;
#59 = AXIS2_PLACEMENT_3D ( 'NONE', #119, #85, #201 ) ;
#60 = AXIS2_PLACEMENT_3D ( 'NONE', #366, #131, #361 ) ;
#61 = AXIS2_PLACEMENT_3D ( 'NONE', #52, #78, #96 ) ;
#62 = ORIENTED_EDGE ( 'NONE', *, *, #198, .F. ) ;
#63 = PRESENTATION_STYLE_ASSIGNMENT (( #91 ) ) ;
#64 =( NAMED_UNIT ( * ) PLANE_ANGLE_UNIT ( ) SI_UNIT ( $, .RADIAN. ) );
#65 = AXIS2_PLACEMENT_3D ( 'NONE', #270, #89, #240 ) ;
#66 = SURFACE_STYLE_USAGE ( .BOTH. , #212 ) ;
#67 = SURFACE_STYLE_USAGE ( .BOTH. , #19 ) ;
#68 = FACE_OUTER_BOUND ( 'NONE', #259, .T. ) ;
#69 = PRESENTATION_STYLE_ASSIGNMENT (( #67 ) ) ;
#70 =( LENGTH_UNIT ( ) NAMED_UNIT ( * ) SI_UNIT ( .MILLI., .METRE. ) );
#71 = ORIENTED_EDGE ( 'NONE', *, *, #306, .F. ) ;
#72 = EDGE_CURVE ( 'NONE', #313, #49, #218, .T. ) ;
#73 = DIRECTION ( 'NONE',  ( -4.697880814296055710E-17, 1.000000000000000000, -0.000000000000000000 ) ) ;
#74 = ORIENTED_EDGE ( 'NONE', *, *, #127, .F. ) ;
#75 = LINE ( 'NONE', #27, #351 ) ;
#76 = EDGE_LOOP ( 'NONE', ( #169, #108 ) ) ;
#77 = CIRCLE ( 'NONE', #147, 4.000000000000000000 ) ;
#78 = DIRECTION ( 'NONE',  ( -4.697880814296055710E-17, 1.000000000000000000, -0.000000000000000000 ) ) ;
#79 =( NAMED_UNIT ( * ) SI_UNIT ( $, .STERADIAN. ) SOLID_ANGLE_UNIT ( ) );
#80 = EDGE_LOOP ( 'NONE', ( #317, #106 ) ) ;
#81 = DIRECTION ( 'NONE',  ( -1.000000000000000000, 0.000000000000000000, 0.000000000000000000 ) ) ;
#82 = CARTESIAN_POINT ( 'NONE',  ( 4.898587196589412829E-16, 1.000000000000000000, 4.000000000000000000 ) ) ;
#83 =( GEOMETRIC_REPRESENTATION_CONTEXT ( 3 ) GLOBAL_UNCERTAINTY_ASSIGNED_CONTEXT ( ( #284 ) ) GLOBAL_UNIT_ASSIGNED_CONTEXT ( ( #332, #18, #208 ) ) REPRESENTATION_CONTEXT ( 'NONE', 'WORKASPACE' ) );
#84 = LINE ( 'NONE', #324, #303 ) ;
#85 = DIRECTION ( 'NONE',  ( -4.697880814296055710E-17, 1.000000000000000000, -0.000000000000000000 ) ) ;
#86 = CARTESIAN_POINT ( 'NONE',  ( 0.000000000000000000, 1.000000000000000000, -5.000000000000000000 ) ) ;
#87 = VECTOR ( 'NONE', #45, 1000.000000000000000 ) ;
#88 = DIRECTION ( 'NONE',  ( -1.000000000000000000, 0.000000000000000000, 0.000000000000000000 ) ) ;
#89 = DIRECTION ( 'NONE',  ( -0.000000000000000000, -1.000000000000000000, -0.000000000000000000 ) ) ;
#90 = DIRECTION ( 'NONE',  ( -4.697880814296055710E-17, 1.000000000000000000, -0.000000000000000000 ) ) ;
#91 = SURFACE_STYLE_USAGE ( .BOTH. , #326 ) ;
#92 = FILL_AREA_STYLE ('',( #241 ) ) ;
#93 = PRESENTATION_LAYER_ASSIGNMENT (  '', '', ( #162 ) ) ;
#94 = CARTESIAN_POINT ( 'NONE',  ( -4.999999999999992006, 63.00000000000000000, 0.000000000000000000 ) ) ;
#95 = SURFACE_SIDE_STYLE ('',( #356 ) ) ;
#96 = DIRECTION ( 'NONE',  ( -1.000000000000000000, 0.000000000000000000, 0.000000000000000000 ) ) ;
#97 = CLOSED_SHELL ( 'NONE', ( #214, #163, #299, #312, #5, #328 ) ) ;
#98 = FILL_AREA_STYLE_COLOUR ( '', #182 ) ;
#99 = COLOUR_RGB ( '',1.000000000000000000, 0.000000000000000000, 0.000000000000000000 ) ;
#100 =( NAMED_UNIT ( * ) SI_UNIT ( $, .STERADIAN. ) SOLID_ANGLE_UNIT ( ) );
#101 = CARTESIAN_POINT ( 'NONE',  ( 4.999999999999999112, 63.00000000000000000, 6.123233995736761352E-16 ) ) ;
#102 = ORIENTED_EDGE ( 'NONE', *, *, #266, .F. ) ;
#103 = CARTESIAN_POINT ( 'NONE',  ( 0.000000000000000000, 0.000000000000000000, 0.000000000000000000 ) ) ;
#104 = AXIS2_PLACEMENT_3D ( 'NONE', #82, #287, #175 ) ;
#105 = AXIS2_PLACEMENT_3D ( 'NONE', #348, #177, #81 ) ;
#106 = ORIENTED_EDGE ( 'NONE', *, *, #180, .T. ) ;
#107 = AXIS2_PLACEMENT_3D ( 'NONE', #276, #304, #159 ) ;
#108 = ORIENTED_EDGE ( 'NONE', *, *, #171, .T. ) ;
#109 = CARTESIAN_POINT ( 'NONE',  ( 5.000000000000000000, 63.00000000000000000, 6.123233995736762338E-16 ) ) ;
#110 = EDGE_CURVE ( 'NONE', #252, #41, #327, .T. ) ;
#111 = CARTESIAN_POINT ( 'NONE',  ( 3.184081677783117402E-15, 63.00000000000000000, 0.000000000000000000 ) ) ;
#112 =( NAMED_UNIT ( * ) SI_UNIT ( $, .STERADIAN. ) SOLID_ANGLE_UNIT ( ) );
#113 = CARTESIAN_POINT ( 'NONE',  ( 5.000000000000000000, 63.00000000000000000, 0.000000000000000000 ) ) ;
#114 = ORIENTED_EDGE ( 'NONE', *, *, #202, .T. ) ;
#115 = DIRECTION ( 'NONE',  ( 4.697880814296055710E-17, -1.000000000000000000, 0.000000000000000000 ) ) ;
#116 = CARTESIAN_POINT ( 'NONE',  ( 6.123233995736766282E-16, 20.00000000000000000, 5.000000000000000000 ) ) ;
#117 = MECHANICAL_DESIGN_GEOMETRIC_PRESENTATION_REPRESENTATION (  '', ( #262 ), #225 ) ;
#118 = FILL_AREA_STYLE ('',( #151 ) ) ;
#119 = CARTESIAN_POINT ( 'NONE',  ( 5.204170427930421283E-15, 20.00000000000000355, 0.000000000000000000 ) ) ;
#120 = CARTESIAN_POINT ( 'NONE',  ( 0.000000000000000000, 1.000000000000000000, 0.000000000000000000 ) ) ;
#121 = DIRECTION ( 'NONE',  ( 0.000000000000000000, 0.000000000000000000, -1.000000000000000000 ) ) ;
#122 =( LENGTH_UNIT ( ) NAMED_UNIT ( * ) SI_UNIT ( .MILLI., .METRE. ) );
#123 = COLOUR_RGB ( '',0.7921568627450980005, 0.8196078431372548767, 0.9333333333333333481 ) ;
#124 = FILL_AREA_STYLE ('',( #153 ) ) ;
#125 = PRESENTATION_LAYER_ASSIGNMENT (  '', '', ( #186 ) ) ;
#126 = CARTESIAN_POINT ( 'NONE',  ( 0.000000000000000000, 20.00000000000000000, 0.000000000000000000 ) ) ;
#127 = EDGE_CURVE ( 'NONE', #49, #54, #55, .T. ) ;
#128 = DIRECTION ( 'NONE',  ( -4.697880814296055710E-17, 1.000000000000000000, -0.000000000000000000 ) ) ;
#129 = VECTOR ( 'NONE', #73, 1000.000000000000000 ) ;
#130 = ORIENTED_EDGE ( 'NONE', *, *, #110, .F. ) ;
#131 = DIRECTION ( 'NONE',  ( -0.000000000000000000, -1.000000000000000000, -0.000000000000000000 ) ) ;
#132 = ORIENTED_EDGE ( 'NONE', *, *, #171, .F. ) ;
#133 = EDGE_CURVE ( 'NONE', #252, #282, #278, .T. ) ;
#134 = PRESENTATION_LAYER_ASSIGNMENT (  '', '', ( #302 ) ) ;
#135 = EDGE_LOOP ( 'NONE', ( #165, #283 ) ) ;
#136 = UNCERTAINTY_MEASURE_WITH_UNIT (LENGTH_MEASURE( 1.000000000000000082E-05 ), #301, 'distance_accuracy_value', 'NONE');
#137 = FILL_AREA_STYLE ('',( #30 ) ) ;
#138 = ADVANCED_FACE ( 'NONE', ( #152 ), #269, .F. ) ;
#139 = SURFACE_SIDE_STYLE ('',( #1 ) ) ;
#140 = SURFACE_STYLE_FILL_AREA ( #325 ) ;
#141 = AXIS2_PLACEMENT_3D ( 'NONE', #296, #145, #8 ) ;
#142 = MECHANICAL_DESIGN_GEOMETRIC_PRESENTATION_REPRESENTATION (  '', ( #162 ), #319 ) ;
#143 = PRODUCT ( '59600', '59600', '', ( #307 ) ) ;
#144 = EDGE_CURVE ( 'NONE', #36, #265, #236, .T. ) ;
#145 = DIRECTION ( 'NONE',  ( -0.000000000000000000, -1.000000000000000000, -0.000000000000000000 ) ) ;
#146 =( NAMED_UNIT ( * ) SI_UNIT ( $, .STERADIAN. ) SOLID_ANGLE_UNIT ( ) );
#147 = AXIS2_PLACEMENT_3D ( 'NONE', #51, #248, #335 ) ;
#148 =( GEOMETRIC_REPRESENTATION_CONTEXT ( 3 ) GLOBAL_UNCERTAINTY_ASSIGNED_CONTEXT ( ( #253 ) ) GLOBAL_UNIT_ASSIGNED_CONTEXT ( ( #70, #365, #100 ) ) REPRESENTATION_CONTEXT ( 'NONE', 'WORKASPACE' ) );
#149 = DIRECTION ( 'NONE',  ( 0.000000000000000000, 0.000000000000000000, -1.000000000000000000 ) ) ;
#150 = ORIENTED_EDGE ( 'NONE', *, *, #189, .F. ) ;
#151 = FILL_AREA_STYLE_COLOUR ( '', #323 ) ;
#152 = FACE_OUTER_BOUND ( 'NONE', #196, .T. ) ;
#153 = FILL_AREA_STYLE_COLOUR ( '', #329 ) ;
#154 = DIRECTION ( 'NONE',  ( -1.000000000000000000, -4.697880814296055710E-17, 0.000000000000000000 ) ) ;
#155 = MANIFOLD_SOLID_BREP ( 'Revolve - Cutting Edge', #97 ) ;
#156 = EDGE_LOOP ( 'NONE', ( #347, #339, #26, #132 ) ) ;
#157 = COLOUR_RGB ( '',1.000000000000000000, 0.000000000000000000, 0.000000000000000000 ) ;
#158 = AXIS2_PLACEMENT_3D ( 'NONE', #215, #297, #160 ) ;
#159 = DIRECTION ( 'NONE',  ( 0.000000000000000000, -0.000000000000000000, 1.000000000000000000 ) ) ;
#160 = DIRECTION ( 'NONE',  ( 0.000000000000000000, 0.000000000000000000, 1.000000000000000000 ) ) ;
#161 = CLOSED_SHELL ( 'NONE', ( #232, #138, #345, #260 ) ) ;
#162 = STYLED_ITEM ( 'NONE', ( #295 ), #312 ) ;
#163 = ADVANCED_FACE ( 'NONE', ( #354 ), #257, .T. ) ;
#164 = STYLED_ITEM ( 'NONE', ( #63 ), #328 ) ;
#165 = ORIENTED_EDGE ( 'NONE', *, *, #57, .F. ) ;
#166 = UNCERTAINTY_MEASURE_WITH_UNIT (LENGTH_MEASURE( 1.000000000000000082E-05 ), #122, 'distance_accuracy_value', 'NONE');
#167 = DIRECTION ( 'NONE',  ( 0.000000000000000000, 0.000000000000000000, 1.000000000000000000 ) ) ;
#168 = PRODUCT_DEFINITION_SHAPE ( 'NONE', 'NONE',  #280 ) ;
#169 = ORIENTED_EDGE ( 'NONE', *, *, #266, .T. ) ;
#170 = AXIS2_PLACEMENT_3D ( 'NONE', #113, #115, #233 ) ;
#171 = EDGE_CURVE ( 'NONE', #286, #41, #334, .T. ) ;
#172 = CARTESIAN_POINT ( 'NONE',  ( 5.000000000000000000, 20.00000000000000355, 6.123233995736762338E-16 ) ) ;
#173 = FILL_AREA_STYLE_COLOUR ( '', #157 ) ;
#174 = CARTESIAN_POINT ( 'NONE',  ( -4.999999999999992895, 63.00000000000000000, 0.000000000000000000 ) ) ;
#175 = DIRECTION ( 'NONE',  ( -1.224646799147353454E-16, 0.000000000000000000, -1.000000000000000000 ) ) ;
#176 = UNCERTAINTY_MEASURE_WITH_UNIT (LENGTH_MEASURE( 1.000000000000000082E-05 ), #271, 'distance_accuracy_value', 'NONE');
#177 = DIRECTION ( 'NONE',  ( -4.697880814296055710E-17, 1.000000000000000000, -0.000000000000000000 ) ) ;
#178 = SURFACE_STYLE_USAGE ( .BOTH. , #352 ) ;
#179 =( NAMED_UNIT ( * ) PLANE_ANGLE_UNIT ( ) SI_UNIT ( $, .RADIAN. ) );
#180 = EDGE_CURVE ( 'NONE', #23, #54, #77, .T. ) ;
#181 = CARTESIAN_POINT ( 'NONE',  ( 5.204170427930421283E-15, 20.00000000000000000, 0.000000000000000000 ) ) ;
#182 = COLOUR_RGB ( '',1.000000000000000000, 0.000000000000000000, 0.000000000000000000 ) ;
#183 =( NAMED_UNIT ( * ) PLANE_ANGLE_UNIT ( ) SI_UNIT ( $, .RADIAN. ) );
#184 = PRESENTATION_STYLE_ASSIGNMENT (( #238 ) ) ;
#185 = DIRECTION ( 'NONE',  ( -1.000000000000000000, 0.000000000000000000, 0.000000000000000000 ) ) ;
#186 = STYLED_ITEM ( 'NONE', ( #357 ), #163 ) ;
#187 = CARTESIAN_POINT ( 'NONE',  ( 0.000000000000000000, 1.000000000000000000, 0.000000000000000000 ) ) ;
#188 = CARTESIAN_POINT ( 'NONE',  ( 0.000000000000000000, 0.000000000000000000, 0.000000000000000000 ) ) ;
#189 = EDGE_CURVE ( 'NONE', #265, #49, #75, .T. ) ;
#190 = SURFACE_STYLE_USAGE ( .BOTH. , #53 ) ;
#191 = EDGE_LOOP ( 'NONE', ( #195, #114, #102, #130 ) ) ;
#192 = MECHANICAL_DESIGN_GEOMETRIC_PRESENTATION_REPRESENTATION (  '', ( #302 ), #311 ) ;
#193 = ORIENTED_EDGE ( 'NONE', *, *, #57, .T. ) ;
#194 = DIRECTION ( 'NONE',  ( 1.000000000000000000, 0.000000000000000000, 0.000000000000000000 ) ) ;
#195 = ORIENTED_EDGE ( 'NONE', *, *, #133, .T. ) ;
#196 = EDGE_LOOP ( 'NONE', ( #33, #344 ) ) ;
#197 = UNCERTAINTY_MEASURE_WITH_UNIT (LENGTH_MEASURE( 1.000000000000000082E-05 ), #310, 'distance_accuracy_value', 'NONE');
#198 = EDGE_CURVE ( 'NONE', #54, #23, #318, .T. ) ;
#199 = PRESENTATION_LAYER_ASSIGNMENT (  '', '', ( #337 ) ) ;
#200 = PRESENTATION_STYLE_ASSIGNMENT (( #6 ) ) ;
#201 = DIRECTION ( 'NONE',  ( -1.000000000000000000, 0.000000000000000000, 0.000000000000000000 ) ) ;
#202 = EDGE_CURVE ( 'NONE', #282, #286, #25, .T. ) ;
#203 =( LENGTH_UNIT ( ) NAMED_UNIT ( * ) SI_UNIT ( .MILLI., .METRE. ) );
#204 = CYLINDRICAL_SURFACE ( 'NONE', #141, 5.000000000000000000 ) ;
#205 = CIRCLE ( 'NONE', #9, 5.000000000000000000 ) ;
#206 = MECHANICAL_DESIGN_GEOMETRIC_PRESENTATION_REPRESENTATION (  '', ( #368 ), #83 ) ;
#207 = FILL_AREA_STYLE ('',( #261 ) ) ;
#208 =( NAMED_UNIT ( * ) SI_UNIT ( $, .STERADIAN. ) SOLID_ANGLE_UNIT ( ) );
#209 =( NAMED_UNIT ( * ) SI_UNIT ( $, .STERADIAN. ) SOLID_ANGLE_UNIT ( ) );
#210 = MECHANICAL_DESIGN_GEOMETRIC_PRESENTATION_REPRESENTATION (  '', ( #186 ), #44 ) ;
#211 = DIRECTION ( 'NONE',  ( 0.000000000000000000, 0.000000000000000000, -1.000000000000000000 ) ) ;
#212 = SURFACE_SIDE_STYLE ('',( #237 ) ) ;
#213 = SURFACE_STYLE_USAGE ( .BOTH. , #95 ) ;
#214 = ADVANCED_FACE ( 'NONE', ( #251 ), #340, .T. ) ;
#215 = CARTESIAN_POINT ( 'NONE',  ( 0.000000000000000000, 1.000000000000000000, -4.000000000000000000 ) ) ;
#216 = CARTESIAN_POINT ( 'NONE',  ( 6.123233995736766282E-16, 1.000000000000000000, 5.000000000000000000 ) ) ;
#217 = CARTESIAN_POINT ( 'NONE',  ( 0.000000000000000000, 1.000000000000000000, 0.000000000000000000 ) ) ;
#218 = CIRCLE ( 'NONE', #256, 5.000000000000000000 ) ;
#219 = COLOUR_RGB ( '',1.000000000000000000, 0.000000000000000000, 0.000000000000000000 ) ;
#220 = APPLICATION_PROTOCOL_DEFINITION ( 'draft international standard', 'automotive_design', 1998, #289 ) ;
#221 = SURFACE_STYLE_FILL_AREA ( #22 ) ;
#222 = UNCERTAINTY_MEASURE_WITH_UNIT (LENGTH_MEASURE( 1.000000000000000082E-05 ), #203, 'distance_accuracy_value', 'NONE');
#223 = ORIENTED_EDGE ( 'NONE', *, *, #72, .T. ) ;
#224 = CIRCLE ( 'NONE', #59, 4.999999999999994671 ) ;
#225 =( GEOMETRIC_REPRESENTATION_CONTEXT ( 3 ) GLOBAL_UNCERTAINTY_ASSIGNED_CONTEXT ( ( #176 ) ) GLOBAL_UNIT_ASSIGNED_CONTEXT ( ( #271, #64, #43 ) ) REPRESENTATION_CONTEXT ( 'NONE', 'WORKASPACE' ) );
#226 = PRESENTATION_LAYER_ASSIGNMENT (  '', '', ( #164 ) ) ;
#227 = DIRECTION ( 'NONE',  ( -0.000000000000000000, -1.000000000000000000, -0.000000000000000000 ) ) ;
#228 = EDGE_CURVE ( 'NONE', #36, #313, #84, .T. ) ;
#229 = PLANE ( 'NONE',  #170 ) ;
#230 = PRESENTATION_LAYER_ASSIGNMENT (  '', '', ( #368 ) ) ;
#231 =( NAMED_UNIT ( * ) PLANE_ANGLE_UNIT ( ) SI_UNIT ( $, .RADIAN. ) );
#232 = ADVANCED_FACE ( 'NONE', ( #292 ), #350, .T. ) ;
#233 = DIRECTION ( 'NONE',  ( 1.000000000000000000, 4.697880814296055710E-17, 0.000000000000000000 ) ) ;
#234 = SURFACE_STYLE_FILL_AREA ( #207 ) ;
#235 = FACE_OUTER_BOUND ( 'NONE', #20, .T. ) ;
#236 = CIRCLE ( 'NONE', #290, 5.000000000000000000 ) ;
#237 = SURFACE_STYLE_FILL_AREA ( #92 ) ;
#238 = SURFACE_STYLE_USAGE ( .BOTH. , #139 ) ;
#239 = DIRECTION ( 'NONE',  ( 0.000000000000000000, 0.000000000000000000, -1.000000000000000000 ) ) ;
#240 = DIRECTION ( 'NONE',  ( 0.000000000000000000, 0.000000000000000000, -1.000000000000000000 ) ) ;
#241 = FILL_AREA_STYLE_COLOUR ( '', #99 ) ;
#242 = STYLED_ITEM ( 'NONE', ( #2 ), #37 ) ;
#243 = DIRECTION ( 'NONE',  ( 0.000000000000000000, -1.000000000000000000, -0.000000000000000000 ) ) ;
#244 = CARTESIAN_POINT ( 'NONE',  ( 3.184081677783117402E-15, 63.00000000000000000, 0.000000000000000000 ) ) ;
#245 =( NAMED_UNIT ( * ) PLANE_ANGLE_UNIT ( ) SI_UNIT ( $, .RADIAN. ) );
#246 = ORIENTED_EDGE ( 'NONE', *, *, #180, .F. ) ;
#247 = CYLINDRICAL_SURFACE ( 'NONE', #61, 4.999999999999995559 ) ;
#248 = DIRECTION ( 'NONE',  ( -0.000000000000000000, -1.000000000000000000, -0.000000000000000000 ) ) ;
#249 = ORIENTED_EDGE ( 'NONE', *, *, #228, .T. ) ;
#250 = APPLICATION_CONTEXT ( 'automotive_design' ) ;
#251 = FACE_OUTER_BOUND ( 'NONE', #370, .T. ) ;
#252 = VERTEX_POINT ( 'NONE', #263 ) ;
#253 = UNCERTAINTY_MEASURE_WITH_UNIT (LENGTH_MEASURE( 1.000000000000000082E-05 ), #70, 'distance_accuracy_value', 'NONE');
#254 = APPLICATION_PROTOCOL_DEFINITION ( 'draft international standard', 'automotive_design', 1998, #250 ) ;
#255 = PRESENTATION_STYLE_ASSIGNMENT (( #190 ) ) ;
#256 = AXIS2_PLACEMENT_3D ( 'NONE', #187, #305, #121 ) ;
#257 = TOROIDAL_SURFACE ( 'NONE', #338, 4.000000000000000000, 1.000000000000000000 ) ;
#258 =( GEOMETRIC_REPRESENTATION_CONTEXT ( 3 ) GLOBAL_UNCERTAINTY_ASSIGNED_CONTEXT ( ( #166 ) ) GLOBAL_UNIT_ASSIGNED_CONTEXT ( ( #122, #268, #14 ) ) REPRESENTATION_CONTEXT ( 'NONE', 'WORKASPACE' ) );
#259 = EDGE_LOOP ( 'NONE', ( #341, #223, #315, #246 ) ) ;
#260 = ADVANCED_FACE ( 'NONE', ( #7 ), #229, .F. ) ;
#261 = FILL_AREA_STYLE_COLOUR ( '', #123 ) ;
#262 = STYLED_ITEM ( 'NONE', ( #69 ), #155 ) ;
#263 = CARTESIAN_POINT ( 'NONE',  ( -4.999999999999989342, 20.00000000000000355, 0.000000000000000000 ) ) ;
#264 = CARTESIAN_POINT ( 'NONE',  ( 5.510910596163088569E-16, 0.000000000000000000, 4.000000000000000000 ) ) ;
#265 = VERTEX_POINT ( 'NONE', #58 ) ;
#266 = EDGE_CURVE ( 'NONE', #41, #286, #322, .T. ) ;
#267 = CARTESIAN_POINT ( 'NONE',  ( 0.000000000000000000, 0.000000000000000000, 0.000000000000000000 ) ) ;
#268 =( NAMED_UNIT ( * ) PLANE_ANGLE_UNIT ( ) SI_UNIT ( $, .RADIAN. ) );
#269 = PLANE ( 'NONE',  #363 ) ;
#270 = CARTESIAN_POINT ( 'NONE',  ( 0.000000000000000000, 1.000000000000000000, 0.000000000000000000 ) ) ;
#271 =( LENGTH_UNIT ( ) NAMED_UNIT ( * ) SI_UNIT ( .MILLI., .METRE. ) );
#272 = CIRCLE ( 'NONE', #104, 1.000000000000000000 ) ;
#273 = AXIS2_PLACEMENT_3D ( 'NONE', #188, #308, #47 ) ;
#274 = FILL_AREA_STYLE_COLOUR ( '', #21 ) ;
#275 = ADVANCED_BREP_SHAPE_REPRESENTATION ( '59600', ( #155, #37, #4 ), #148 ) ;
#276 = CARTESIAN_POINT ( 'NONE',  ( 0.000000000000000000, 20.00000000000000000, 0.000000000000000000 ) ) ;
#277 = SURFACE_STYLE_FILL_AREA ( #330 ) ;
#278 = CIRCLE ( 'NONE', #28, 4.999999999999994671 ) ;
#279 = TOROIDAL_SURFACE ( 'NONE', #35, 4.000000000000000000, 1.000000000000000000 ) ;
#280 = PRODUCT_DEFINITION ( 'UNKNOWN', '', #17, #294 ) ;
#281 = DIRECTION ( 'NONE',  ( -1.000000000000000000, 0.000000000000000000, 0.000000000000000000 ) ) ;
#282 = VERTEX_POINT ( 'NONE', #172 ) ;
#283 = ORIENTED_EDGE ( 'NONE', *, *, #144, .F. ) ;
#284 = UNCERTAINTY_MEASURE_WITH_UNIT (LENGTH_MEASURE( 1.000000000000000082E-05 ), #332, 'distance_accuracy_value', 'NONE');
#285 = FACE_OUTER_BOUND ( 'NONE', #80, .T. ) ;
#286 = VERTEX_POINT ( 'NONE', #109 ) ;
#287 = DIRECTION ( 'NONE',  ( 1.000000000000000000, 0.000000000000000000, -1.224646799147353207E-16 ) ) ;
#288 = MECHANICAL_DESIGN_GEOMETRIC_PRESENTATION_REPRESENTATION (  '', ( #242 ), #15 ) ;
#289 = APPLICATION_CONTEXT ( 'automotive_design' ) ;
#290 = AXIS2_PLACEMENT_3D ( 'NONE', #126, #360, #239 ) ;
#291 = CARTESIAN_POINT ( 'NONE',  ( 0.000000000000000000, 20.00000000000000000, 0.000000000000000000 ) ) ;
#292 = FACE_OUTER_BOUND ( 'NONE', #191, .T. ) ;
#293 =( NAMED_UNIT ( * ) SI_UNIT ( $, .STERADIAN. ) SOLID_ANGLE_UNIT ( ) );
#294 = PRODUCT_DEFINITION_CONTEXT ( 'detailed design', #250, 'design' ) ;
#295 = PRESENTATION_STYLE_ASSIGNMENT (( #213 ) ) ;
#296 = CARTESIAN_POINT ( 'NONE',  ( 0.000000000000000000, 0.000000000000000000, 0.000000000000000000 ) ) ;
#297 = DIRECTION ( 'NONE',  ( -1.000000000000000000, 0.000000000000000000, 0.000000000000000000 ) ) ;
#298 = AXIS2_PLACEMENT_3D ( 'NONE', #267, #243, #39 ) ;
#299 = ADVANCED_FACE ( 'NONE', ( #285 ), #343, .T. ) ;
#300 =( LENGTH_UNIT ( ) NAMED_UNIT ( * ) SI_UNIT ( .MILLI., .METRE. ) );
#301 =( LENGTH_UNIT ( ) NAMED_UNIT ( * ) SI_UNIT ( .MILLI., .METRE. ) );
#302 = STYLED_ITEM ( 'NONE', ( #200 ), #5 ) ;
#303 = VECTOR ( 'NONE', #369, 1000.000000000000000 ) ;
#304 = DIRECTION ( 'NONE',  ( 0.000000000000000000, 1.000000000000000000, 0.000000000000000000 ) ) ;
#305 = DIRECTION ( 'NONE',  ( -0.000000000000000000, -1.000000000000000000, -0.000000000000000000 ) ) ;
#306 = EDGE_CURVE ( 'NONE', #49, #313, #346, .T. ) ;
#307 = PRODUCT_CONTEXT ( 'NONE', #289, 'mechanical' ) ;
#308 = DIRECTION ( 'NONE',  ( -0.000000000000000000, -1.000000000000000000, -0.000000000000000000 ) ) ;
#309 = EDGE_LOOP ( 'NONE', ( #29, #336, #62, #74 ) ) ;
#310 =( LENGTH_UNIT ( ) NAMED_UNIT ( * ) SI_UNIT ( .MILLI., .METRE. ) );
#311 =( GEOMETRIC_REPRESENTATION_CONTEXT ( 3 ) GLOBAL_UNCERTAINTY_ASSIGNED_CONTEXT ( ( #222 ) ) GLOBAL_UNIT_ASSIGNED_CONTEXT ( ( #203, #179, #293 ) ) REPRESENTATION_CONTEXT ( 'NONE', 'WORKASPACE' ) );
#312 = ADVANCED_FACE ( 'NONE', ( #68 ), #279, .T. ) ;
#313 = VERTEX_POINT ( 'NONE', #216 ) ;
#314 = SHAPE_DEFINITION_REPRESENTATION ( #168, #275 ) ;
#315 = ORIENTED_EDGE ( 'NONE', *, *, #127, .T. ) ;
#316 = UNCERTAINTY_MEASURE_WITH_UNIT (LENGTH_MEASURE( 1.000000000000000082E-05 ), #349, 'distance_accuracy_value', 'NONE');
#317 = ORIENTED_EDGE ( 'NONE', *, *, #198, .T. ) ;
#318 = CIRCLE ( 'NONE', #60, 4.000000000000000000 ) ;
#319 =( GEOMETRIC_REPRESENTATION_CONTEXT ( 3 ) GLOBAL_UNCERTAINTY_ASSIGNED_CONTEXT ( ( #136 ) ) GLOBAL_UNIT_ASSIGNED_CONTEXT ( ( #301, #42, #146 ) ) REPRESENTATION_CONTEXT ( 'NONE', 'WORKASPACE' ) );
#320 = SURFACE_SIDE_STYLE ('',( #140 ) ) ;
#321 = CARTESIAN_POINT ( 'NONE',  ( 0.000000000000000000, 0.000000000000000000, -4.000000000000000000 ) ) ;
#322 = CIRCLE ( 'NONE', #11, 4.999999999999996447 ) ;
#323 = COLOUR_RGB ( '',1.000000000000000000, 0.000000000000000000, 0.000000000000000000 ) ;
#324 = CARTESIAN_POINT ( 'NONE',  ( 6.123233995736766282E-16, 0.000000000000000000, 5.000000000000000000 ) ) ;
#325 = FILL_AREA_STYLE ('',( #173 ) ) ;
#326 = SURFACE_SIDE_STYLE ('',( #353 ) ) ;
#327 = LINE ( 'NONE', #94, #87 ) ;
#328 = ADVANCED_FACE ( 'NONE', ( #12 ), #10, .T. ) ;
#329 = COLOUR_RGB ( '',1.000000000000000000, 0.000000000000000000, 0.000000000000000000 ) ;
#330 = FILL_AREA_STYLE ('',( #274 ) ) ;
#331 = DIRECTION ( 'NONE',  ( -4.697880814296055710E-17, 1.000000000000000000, 0.000000000000000000 ) ) ;
#332 =( LENGTH_UNIT ( ) NAMED_UNIT ( * ) SI_UNIT ( .MILLI., .METRE. ) );
#333 = DIRECTION ( 'NONE',  ( -0.000000000000000000, -1.000000000000000000, -0.000000000000000000 ) ) ;
#334 = CIRCLE ( 'NONE', #34, 4.999999999999996447 ) ;
#335 = DIRECTION ( 'NONE',  ( 0.000000000000000000, 0.000000000000000000, -1.000000000000000000 ) ) ;
#336 = ORIENTED_EDGE ( 'NONE', *, *, #46, .T. ) ;
#337 = STYLED_ITEM ( 'NONE', ( #255 ), #214 ) ;
#338 = AXIS2_PLACEMENT_3D ( 'NONE', #217, #333, #149 ) ;
#339 = ORIENTED_EDGE ( 'NONE', *, *, #38, .T. ) ;
#340 = CYLINDRICAL_SURFACE ( 'NONE', #273, 5.000000000000000000 ) ;
#341 = ORIENTED_EDGE ( 'NONE', *, *, #46, .F. ) ;
#342 = UNCERTAINTY_MEASURE_WITH_UNIT (LENGTH_MEASURE( 1.000000000000000082E-05 ), #300, 'distance_accuracy_value', 'NONE');
#343 = PLANE ( 'NONE',  #298 ) ;
#344 = ORIENTED_EDGE ( 'NONE', *, *, #38, .F. ) ;
#345 = ADVANCED_FACE ( 'NONE', ( #24 ), #247, .T. ) ;
#346 = CIRCLE ( 'NONE', #65, 5.000000000000000000 ) ;
#347 = ORIENTED_EDGE ( 'NONE', *, *, #202, .F. ) ;
#348 = CARTESIAN_POINT ( 'NONE',  ( 3.184081677783117402E-15, 63.00000000000000000, 0.000000000000000000 ) ) ;
#349 =( LENGTH_UNIT ( ) NAMED_UNIT ( * ) SI_UNIT ( .MILLI., .METRE. ) );
#350 = CYLINDRICAL_SURFACE ( 'NONE', #105, 4.999999999999995559 ) ;
#351 = VECTOR ( 'NONE', #227, 1000.000000000000000 ) ;
#352 = SURFACE_SIDE_STYLE ('',( #234 ) ) ;
#353 = SURFACE_STYLE_FILL_AREA ( #118 ) ;
#354 = FACE_OUTER_BOUND ( 'NONE', #309, .T. ) ;
#355 = PRODUCT_RELATED_PRODUCT_CATEGORY ( 'part', '', ( #143 ) ) ;
#356 = SURFACE_STYLE_FILL_AREA ( #124 ) ;
#357 = PRESENTATION_STYLE_ASSIGNMENT (( #66 ) ) ;
#358 = CARTESIAN_POINT ( 'NONE',  ( 5.204170427930421283E-15, 20.00000000000000355, 0.000000000000000000 ) ) ;
#359 = DIRECTION ( 'NONE',  ( -0.000000000000000000, -1.000000000000000000, -0.000000000000000000 ) ) ;
#360 = DIRECTION ( 'NONE',  ( -0.000000000000000000, -1.000000000000000000, -0.000000000000000000 ) ) ;
#361 = DIRECTION ( 'NONE',  ( 0.000000000000000000, 0.000000000000000000, -1.000000000000000000 ) ) ;
#362 = ORIENTED_EDGE ( 'NONE', *, *, #189, .T. ) ;
#363 = AXIS2_PLACEMENT_3D ( 'NONE', #181, #331, #154 ) ;
#364 = MECHANICAL_DESIGN_GEOMETRIC_PRESENTATION_REPRESENTATION (  '', ( #164 ), #258 ) ;
#365 =( NAMED_UNIT ( * ) PLANE_ANGLE_UNIT ( ) SI_UNIT ( $, .RADIAN. ) );
#366 = CARTESIAN_POINT ( 'NONE',  ( 0.000000000000000000, 0.000000000000000000, 0.000000000000000000 ) ) ;
#367 = PRESENTATION_LAYER_ASSIGNMENT (  '', '', ( #242 ) ) ;
#368 = STYLED_ITEM ( 'NONE', ( #184 ), #299 ) ;
#369 = DIRECTION ( 'NONE',  ( -0.000000000000000000, -1.000000000000000000, -0.000000000000000000 ) ) ;
#370 = EDGE_LOOP ( 'NONE', ( #193, #249, #71, #150 ) ) ;
ENDSEC;
END-ISO-10303-21;
