ISO-10303-21;
HEADER;
FILE_DESCRIPTION (( 'STEP AP214' ),
    '1' );
FILE_NAME ('Micro_BEM-875-02.STEP',
    '2021-09-03T13:20:18',
    ( '' ),
    ( '' ),
    'SwSTEP 2.0',
    'SolidWorks 2020',
    '' );
FILE_SCHEMA (( 'AUTOMOTIVE_DESIGN' ));
ENDSEC;

DATA;
#1 = AXIS2_PLACEMENT_3D ( 'NONE', #268, #13, #114 ) ;
#2 = DIRECTION ( 'NONE',  ( -0.0000000000000000000, -0.0000000000000000000, -1.000000000000000000 ) ) ;
#3 = FACE_OUTER_BOUND ( 'NONE', #223, .T. ) ;
#4 = APPLICATION_CONTEXT ( 'automotive_design' ) ;
#5 = APPLICATION_PROTOCOL_DEFINITION ( 'draft international standard', 'automotive_design', 1998, #4 ) ;
#6 = CARTESIAN_POINT ( 'NONE',  ( 5.352471916523400854E-17, 0.0000000000000000000, 0.4370625000000000204 ) ) ;
#7 = DIRECTION ( 'NONE',  ( -1.000000000000000000, 0.0000000000000000000, 0.0000000000000000000 ) ) ;
#8 =( CONVERSION_BASED_UNIT ( 'INCH', #58 ) LENGTH_UNIT ( ) NAMED_UNIT ( #89 ) );
#9 = FILL_AREA_STYLE ('',( #309 ) ) ;
#10 = CARTESIAN_POINT ( 'NONE',  ( 0.4224999999999995981, 5.174132726397562006E-17, 4.000000000000000000 ) ) ;
#11 = CARTESIAN_POINT ( 'NONE',  ( 8.028707874785100973E-17, 0.0000000000000000000, 0.0000000000000000000 ) ) ;
#12 = CONICAL_SURFACE ( 'NONE', #78, 0.4224999999999995981, 0.7853981633974346233 ) ;
#13 = DIRECTION ( 'NONE',  ( -1.224646799147353207E-16, -0.0000000000000000000, -1.000000000000000000 ) ) ;
#14 = CIRCLE ( 'NONE', #181, 0.4375000000000000000 ) ;
#15 = DIRECTION ( 'NONE',  ( -1.224646799147353207E-16, -0.0000000000000000000, -1.000000000000000000 ) ) ;
#16 = VERTEX_POINT ( 'NONE', #237 ) ;
#17 = COLOUR_RGB ( '',0.7921568627450980005, 0.8196078431372548767, 0.9333333333333333481 ) ;
#18 = LINE ( 'NONE', #321, #97 ) ;
#19 = ORIENTED_EDGE ( 'NONE', *, *, #202, .T. ) ;
#20 = AXIS2_PLACEMENT_3D ( 'NONE', #228, #169, #197 ) ;
#21 = PRODUCT_DEFINITION_SHAPE ( 'NONE', 'NONE',  #126 ) ;
#22 = VERTEX_POINT ( 'NONE', #231 ) ;
#23 = AXIS2_PLACEMENT_3D ( 'NONE', #30, #283, #131 ) ;
#24 = DIRECTION ( 'NONE',  ( 1.000000000000000000, 0.0000000000000000000, 0.0000000000000000000 ) ) ;
#25 = FACE_OUTER_BOUND ( 'NONE', #93, .T. ) ;
#26 =( NAMED_UNIT ( * ) SI_UNIT ( $, .STERADIAN. ) SOLID_ANGLE_UNIT ( ) );
#27 = AXIS2_PLACEMENT_3D ( 'NONE', #196, #176, #70 ) ;
#28 = AXIS2_PLACEMENT_3D ( 'NONE', #277, #51, #296 ) ;
#29 = SURFACE_STYLE_FILL_AREA ( #234 ) ;
#31 = EDGE_CURVE ( 'NONE', #322, #255, #207, .T. ) ;
#30 = CARTESIAN_POINT ( 'NONE',  ( 0.0000000000000000000, 0.0000000000000000000, 4.000000000000000000 ) ) ;
#32 = LINE ( 'NONE', #105, #99 ) ;
#33 = CARTESIAN_POINT ( 'NONE',  ( 1.836970198721030181E-16, 0.0000000000000000000, 1.500000000000000222 ) ) ;
#34 = AXIS2_PLACEMENT_3D ( 'NONE', #44, #245, #235 ) ;
#35 = APPLICATION_PROTOCOL_DEFINITION ( 'draft international standard', 'automotive_design', 1998, #170 ) ;
#36 = CARTESIAN_POINT ( 'NONE',  ( 0.0000000000000000000, 0.0000000000000000000, 4.000000000000000000 ) ) ;
#37 = ORIENTED_EDGE ( 'NONE', *, *, #238, .T. ) ;
#38 = SURFACE_STYLE_FILL_AREA ( #9 ) ;
#39 = LENGTH_MEASURE_WITH_UNIT ( LENGTH_MEASURE( 0.02539999999999999897 ), #63 );
#40 = MANIFOLD_SOLID_BREP ( 'Fillet1', #100 ) ;
#41 = SURFACE_STYLE_USAGE ( .BOTH. , #180 ) ;
#42 = CONICAL_SURFACE ( 'NONE', #217, 0.4370625000000000204, 0.1745329251994341135 ) ;
#43 = ADVANCED_FACE ( 'NONE', ( #84 ), #42, .T. ) ;
#44 = CARTESIAN_POINT ( 'NONE',  ( 5.352471916523400854E-17, 0.0000000000000000000, 0.4370625000000000204 ) ) ;
#45 = ORIENTED_EDGE ( 'NONE', *, *, #202, .F. ) ;
#46 = CARTESIAN_POINT ( 'NONE',  ( -0.4375000000000000000, 0.0000000000000000000, 3.984999999999998987 ) ) ;
#47 = ADVANCED_FACE ( 'NONE', ( #261 ), #112, .T. ) ;
#48 = ORIENTED_EDGE ( 'NONE', *, *, #278, .F. ) ;
#49 = ADVANCED_BREP_SHAPE_REPRESENTATION ( 'Micro_BEM-875-02', ( #40, #175 ), #303 ) ;
#50 = ORIENTED_EDGE ( 'NONE', *, *, #159, .F. ) ;
#51 = DIRECTION ( 'NONE',  ( 1.224646799147353207E-16, 0.0000000000000000000, 1.000000000000000000 ) ) ;
#52 = ORIENTED_EDGE ( 'NONE', *, *, #304, .F. ) ;
#53 = ORIENTED_EDGE ( 'NONE', *, *, #107, .F. ) ;
#54 = VECTOR ( 'NONE', #83, 39.37007874015748143 ) ;
#55 = ORIENTED_EDGE ( 'NONE', *, *, #300, .F. ) ;
#56 = CIRCLE ( 'NONE', #71, 0.4375000000000000000 ) ;
#57 = CONICAL_SURFACE ( 'NONE', #27, 0.4370625000000000204, 0.1745329251994341135 ) ;
#58 = LENGTH_MEASURE_WITH_UNIT ( LENGTH_MEASURE( 0.02539999999999999897 ), #289 );
#59 =( NAMED_UNIT ( * ) PLANE_ANGLE_UNIT ( ) SI_UNIT ( $, .RADIAN. ) );
#60 = DIRECTION ( 'NONE',  ( 0.0000000000000000000, 0.0000000000000000000, 1.000000000000000000 ) ) ;
#61 = DIRECTION ( 'NONE',  ( 0.1736481776669316079, 0.0000000000000000000, 0.9848077530122077983 ) ) ;
#62 = DIRECTION ( 'NONE',  ( -1.000000000000000000, 0.0000000000000000000, 1.224646799147353207E-16 ) ) ;
#63 =( LENGTH_UNIT ( ) NAMED_UNIT ( * ) SI_UNIT ( $, .METRE. ) );
#64 = ADVANCED_FACE ( 'NONE', ( #3 ), #201, .T. ) ;
#65 = DIRECTION ( 'NONE',  ( 0.7071067811865378028, 8.659560562354815762E-17, -0.7071067811865571207 ) ) ;
#66 = ORIENTED_EDGE ( 'NONE', *, *, #200, .T. ) ;
#67 = CARTESIAN_POINT ( 'NONE',  ( -0.4374999999999997780, 0.0000000000000000000, 1.502481185796082475 ) ) ;
#68 = ORIENTED_EDGE ( 'NONE', *, *, #133, .F. ) ;
#69 = VERTEX_POINT ( 'NONE', #305 ) ;
#70 = DIRECTION ( 'NONE',  ( 1.000000000000000000, 0.0000000000000000000, 0.0000000000000000000 ) ) ;
#71 = AXIS2_PLACEMENT_3D ( 'NONE', #311, #90, #188 ) ;
#72 = PLANE ( 'NONE',  #264 ) ;
#73 = DIRECTION ( 'NONE',  ( 0.0000000000000000000, 1.000000000000000000, 0.0000000000000000000 ) ) ;
#74 = DIRECTION ( 'NONE',  ( 0.0000000000000000000, 0.0000000000000000000, -1.000000000000000000 ) ) ;
#75 = ORIENTED_EDGE ( 'NONE', *, *, #77, .T. ) ;
#76 = EDGE_LOOP ( 'NONE', ( #68, #75, #19, #224 ) ) ;
#77 = EDGE_CURVE ( 'NONE', #172, #16, #118, .T. ) ;
#78 = AXIS2_PLACEMENT_3D ( 'NONE', #139, #263, #243 ) ;
#79 = DIRECTION ( 'NONE',  ( -1.224646799147353207E-16, -0.0000000000000000000, -1.000000000000000000 ) ) ;
#80 =( NAMED_UNIT ( * ) PLANE_ANGLE_UNIT ( ) SI_UNIT ( $, .RADIAN. ) );
#81 = ADVANCED_FACE ( 'NONE', ( #102 ), #109, .T. ) ;
#82 = FILL_AREA_STYLE_COLOUR ( '', #17 ) ;
#83 = DIRECTION ( 'NONE',  ( -0.1736481776669313859, 2.126576849575785473E-17, 0.9848077530122077983 ) ) ;
#84 = FACE_OUTER_BOUND ( 'NONE', #219, .T. ) ;
#85 = AXIS2_PLACEMENT_3D ( 'NONE', #210, #177, #74 ) ;
#86 = DIRECTION ( 'NONE',  ( -1.000000000000000000, 0.0000000000000000000, 0.0000000000000000000 ) ) ;
#87 = CARTESIAN_POINT ( 'NONE',  ( 0.0000000000000000000, 0.0000000000000000000, 0.0000000000000000000 ) ) ;
#88 = AXIS2_PLACEMENT_3D ( 'NONE', #269, #236, #297 ) ;
#89 = DIMENSIONAL_EXPONENTS ( 1.000000000000000000, 0.0000000000000000000, 0.0000000000000000000, 0.0000000000000000000, 0.0000000000000000000, 0.0000000000000000000, 0.0000000000000000000 ) ;
#90 = DIRECTION ( 'NONE',  ( -1.224646799147353207E-16, -0.0000000000000000000, -1.000000000000000000 ) ) ;
#91 = ORIENTED_EDGE ( 'NONE', *, *, #280, .F. ) ;
#92 = CARTESIAN_POINT ( 'NONE',  ( 5.352471916523400854E-17, 0.0000000000000000000, 0.4370625000000000204 ) ) ;
#93 = EDGE_LOOP ( 'NONE', ( #291, #250, #96, #91 ) ) ;
#94 = EDGE_CURVE ( 'NONE', #246, #69, #247, .T. ) ;
#95 = CARTESIAN_POINT ( 'NONE',  ( -0.4370624999999998539, 5.352471916523400854E-17, 1.500000000000000222 ) ) ;
#96 = ORIENTED_EDGE ( 'NONE', *, *, #270, .T. ) ;
#97 = VECTOR ( 'NONE', #194, 39.37007874015748854 ) ;
#98 = ORIENTED_EDGE ( 'NONE', *, *, #133, .T. ) ;
#99 = VECTOR ( 'NONE', #15, 39.37007874015748143 ) ;
#100 = CLOSED_SHELL ( 'NONE', ( #251, #81, #147, #275, #64, #214, #316, #276, #43, #47, #150 ) ) ;
#101 = DIRECTION ( 'NONE',  ( 1.224646799147353207E-16, 0.0000000000000000000, 1.000000000000000000 ) ) ;
#102 = FACE_OUTER_BOUND ( 'NONE', #271, .T. ) ;
#103 = COLOUR_RGB ( '',0.7921568627450980005, 0.8196078431372548767, 0.9333333333333333481 ) ;
#104 = PRESENTATION_STYLE_ASSIGNMENT (( #232 ) ) ;
#105 = CARTESIAN_POINT ( 'NONE',  ( -0.4370625000000000204, 0.0000000000000000000, 5.352471916523400854E-17 ) ) ;
#106 = EDGE_LOOP ( 'NONE', ( #50, #249, #148, #225 ) ) ;
#107 = EDGE_CURVE ( 'NONE', #322, #241, #14, .T. ) ;
#108 = FACE_OUTER_BOUND ( 'NONE', #182, .T. ) ;
#109 = CYLINDRICAL_SURFACE ( 'NONE', #274, 0.4370625000000000204 ) ;
#110 = DIRECTION ( 'NONE',  ( 1.000000000000000000, 0.0000000000000000000, 0.0000000000000000000 ) ) ;
#111 = FACE_OUTER_BOUND ( 'NONE', #190, .T. ) ;
#112 = CYLINDRICAL_SURFACE ( 'NONE', #153, 0.4370625000000000204 ) ;
#113 = VECTOR ( 'NONE', #79, 39.37007874015748143 ) ;
#114 = DIRECTION ( 'NONE',  ( -1.000000000000000000, 0.0000000000000000000, 0.0000000000000000000 ) ) ;
#115 = EDGE_LOOP ( 'NONE', ( #192, #138, #119 ) ) ;
#116 =( NAMED_UNIT ( * ) PLANE_ANGLE_UNIT ( ) SI_UNIT ( $, .RADIAN. ) );
#117 = CARTESIAN_POINT ( 'NONE',  ( 0.0000000000000000000, 0.0000000000000000000, 4.000000000000000000 ) ) ;
#118 = CIRCLE ( 'NONE', #163, 0.4370625000000000204 ) ;
#119 = ORIENTED_EDGE ( 'NONE', *, *, #259, .F. ) ;
#120 = ORIENTED_EDGE ( 'NONE', *, *, #301, .T. ) ;
#121 = MECHANICAL_DESIGN_GEOMETRIC_PRESENTATION_REPRESENTATION (  '', ( #260 ), #198 ) ;
#122 = ORIENTED_EDGE ( 'NONE', *, *, #94, .F. ) ;
#123 = ORIENTED_EDGE ( 'NONE', *, *, #145, .F. ) ;
#124 = ORIENTED_EDGE ( 'NONE', *, *, #155, .F. ) ;
#125 = ORIENTED_EDGE ( 'NONE', *, *, #304, .T. ) ;
#126 = PRODUCT_DEFINITION ( 'UNKNOWN', '', #279, #208 ) ;
#127 = CIRCLE ( 'NONE', #230, 0.4224999999999995981 ) ;
#128 = DIRECTION ( 'NONE',  ( -1.224646799147353207E-16, -0.0000000000000000000, -1.000000000000000000 ) ) ;
#129 = PRODUCT_CONTEXT ( 'NONE', #4, 'mechanical' ) ;
#130 = CARTESIAN_POINT ( 'NONE',  ( 0.4370625000000002425, 0.0000000000000000000, 1.500000000000000222 ) ) ;
#131 = DIRECTION ( 'NONE',  ( -1.000000000000000000, 0.0000000000000000000, 0.0000000000000000000 ) ) ;
#132 = DIRECTION ( 'NONE',  ( -1.224646799147353207E-16, -0.0000000000000000000, -1.000000000000000000 ) ) ;
#133 = EDGE_CURVE ( 'NONE', #172, #69, #256, .T. ) ;
#134 = DIRECTION ( 'NONE',  ( 0.0000000000000000000, 0.0000000000000000000, 1.000000000000000000 ) ) ;
#135 = DIRECTION ( 'NONE',  ( 1.000000000000000000, 0.0000000000000000000, 0.0000000000000000000 ) ) ;
#136 = SURFACE_SIDE_STYLE ('',( #38 ) ) ;
#137 =( CONVERSION_BASED_UNIT ( 'INCH', #39 ) LENGTH_UNIT ( ) NAMED_UNIT ( #262 ) );
#138 = ORIENTED_EDGE ( 'NONE', *, *, #94, .T. ) ;
#139 = CARTESIAN_POINT ( 'NONE',  ( 0.0000000000000000000, 0.0000000000000000000, 4.000000000000000000 ) ) ;
#140 = AXIS2_PLACEMENT_3D ( 'NONE', #6, #204, #307 ) ;
#141 = DIRECTION ( 'NONE',  ( 0.0000000000000000000, 0.0000000000000000000, 1.000000000000000000 ) ) ;
#142 = VERTEX_POINT ( 'NONE', #267 ) ;
#143 = DIRECTION ( 'NONE',  ( 0.0000000000000000000, 0.0000000000000000000, -1.000000000000000000 ) ) ;
#144 = CARTESIAN_POINT ( 'NONE',  ( 5.352471916523400854E-17, 0.0000000000000000000, 0.4370625000000000204 ) ) ;
#145 = EDGE_CURVE ( 'NONE', #193, #322, #18, .T. ) ;
#146 = CONICAL_SURFACE ( 'NONE', #298, 0.4224999999999995981, 0.7853981633974346233 ) ;
#147 = ADVANCED_FACE ( 'NONE', ( #25 ), #57, .T. ) ;
#148 = ORIENTED_EDGE ( 'NONE', *, *, #31, .T. ) ;
#149 = PRODUCT_RELATED_PRODUCT_CATEGORY ( 'part', '', ( #323 ) ) ;
#150 = ADVANCED_FACE ( 'NONE', ( #174 ), #226, .T. ) ;
#151 = EDGE_CURVE ( 'NONE', #22, #255, #244, .T. ) ;
#152 = STYLED_ITEM ( 'NONE', ( #104 ), #49 ) ;
#153 = AXIS2_PLACEMENT_3D ( 'NONE', #87, #128, #258 ) ;
#154 = DIRECTION ( 'NONE',  ( 1.000000000000000000, 0.0000000000000000000, 0.0000000000000000000 ) ) ;
#155 = EDGE_CURVE ( 'NONE', #69, #142, #222, .T. ) ;
#156 = AXIS2_PLACEMENT_3D ( 'NONE', #294, #218, #86 ) ;
#157 =( NAMED_UNIT ( * ) SI_UNIT ( $, .STERADIAN. ) SOLID_ANGLE_UNIT ( ) );
#159 = EDGE_CURVE ( 'NONE', #241, #22, #248, .T. ) ;
#158 = DIRECTION ( 'NONE',  ( -0.0000000000000000000, -0.0000000000000000000, -1.000000000000000000 ) ) ;
#160 = CARTESIAN_POINT ( 'NONE',  ( 0.0000000000000000000, 0.0000000000000000000, 0.0000000000000000000 ) ) ;
#161 = DIRECTION ( 'NONE',  ( -1.000000000000000000, 0.0000000000000000000, 0.0000000000000000000 ) ) ;
#162 = CARTESIAN_POINT ( 'NONE',  ( 1.836970198721030181E-16, 0.0000000000000000000, 1.500000000000000222 ) ) ;
#163 = AXIS2_PLACEMENT_3D ( 'NONE', #33, #184, #7 ) ;
#164 = FACE_OUTER_BOUND ( 'NONE', #106, .T. ) ;
#165 = FACE_OUTER_BOUND ( 'NONE', #216, .T. ) ;
#166 = ORIENTED_EDGE ( 'NONE', *, *, #159, .T. ) ;
#167 = AXIS2_PLACEMENT_3D ( 'NONE', #144, #73, #24 ) ;
#168 = CARTESIAN_POINT ( 'NONE',  ( 0.4370625000000002425, 0.0000000000000000000, 1.500000000000000222 ) ) ;
#169 = DIRECTION ( 'NONE',  ( -1.224646799147353207E-16, -0.0000000000000000000, -1.000000000000000000 ) ) ;
#170 = APPLICATION_CONTEXT ( 'automotive_design' ) ;
#171 = CARTESIAN_POINT ( 'NONE',  ( 0.0000000000000000000, 0.0000000000000000000, 3.984999999999998987 ) ) ;
#172 = VERTEX_POINT ( 'NONE', #130 ) ;
#173 = ORIENTED_EDGE ( 'NONE', *, *, #107, .T. ) ;
#174 = FACE_OUTER_BOUND ( 'NONE', #115, .T. ) ;
#175 = AXIS2_PLACEMENT_3D ( 'NONE', #160, #60, #110 ) ;
#176 = DIRECTION ( 'NONE',  ( 1.224646799147353207E-16, 0.0000000000000000000, 1.000000000000000000 ) ) ;
#177 = DIRECTION ( 'NONE',  ( 0.0000000000000000000, -1.000000000000000000, 0.0000000000000000000 ) ) ;
#178 = VECTOR ( 'NONE', #2, 39.37007874015748143 ) ;
#179 = CARTESIAN_POINT ( 'NONE',  ( -0.4224999999999995981, 0.0000000000000000000, 4.000000000000000000 ) ) ;
#180 = SURFACE_SIDE_STYLE ('',( #29 ) ) ;
#181 = AXIS2_PLACEMENT_3D ( 'NONE', #171, #143, #154 ) ;
#182 = EDGE_LOOP ( 'NONE', ( #253, #221, #299, #55 ) ) ;
#183 = DIRECTION ( 'NONE',  ( 0.0000000000000000000, 0.0000000000000000000, -1.000000000000000000 ) ) ;
#184 = DIRECTION ( 'NONE',  ( -1.224646799147353207E-16, -0.0000000000000000000, -1.000000000000000000 ) ) ;
#185 = DIRECTION ( 'NONE',  ( 1.000000000000000000, 0.0000000000000000000, 0.0000000000000000000 ) ) ;
#186 = CIRCLE ( 'NONE', #140, 0.4370625000000000204 ) ;
#187 =( CONVERSION_BASED_UNIT ( 'INCH', #211 ) LENGTH_UNIT ( ) NAMED_UNIT ( #285 ) );
#188 = DIRECTION ( 'NONE',  ( 1.000000000000000000, 0.0000000000000000000, 0.0000000000000000000 ) ) ;
#189 = CYLINDRICAL_SURFACE ( 'NONE', #156, 0.4375000000000000000 ) ;
#190 = EDGE_LOOP ( 'NONE', ( #122, #66, #124 ) ) ;
#191 = DIRECTION ( 'NONE',  ( 0.0000000000000000000, 0.0000000000000000000, -1.000000000000000000 ) ) ;
#192 = ORIENTED_EDGE ( 'NONE', *, *, #200, .F. ) ;
#193 = VERTEX_POINT ( 'NONE', #179 ) ;
#194 = DIRECTION ( 'NONE',  ( -0.7071067811865378028, 0.0000000000000000000, -0.7071067811865571207 ) ) ;
#195 = VERTEX_POINT ( 'NONE', #233 ) ;
#196 = CARTESIAN_POINT ( 'NONE',  ( 1.836970198721030181E-16, 0.0000000000000000000, 1.500000000000000222 ) ) ;
#197 = DIRECTION ( 'NONE',  ( 1.000000000000000000, 0.0000000000000000000, 0.0000000000000000000 ) ) ;
#198 =( GEOMETRIC_REPRESENTATION_CONTEXT ( 3 ) GLOBAL_UNCERTAINTY_ASSIGNED_CONTEXT ( ( #292 ) ) GLOBAL_UNIT_ASSIGNED_CONTEXT ( ( #8, #59, #157 ) ) REPRESENTATION_CONTEXT ( 'NONE', 'WORKASPACE' ) );
#199 = CIRCLE ( 'NONE', #272, 0.4375000000000000000 ) ;
#200 = EDGE_CURVE ( 'NONE', #246, #142, #186, .T. ) ;
#201 = CYLINDRICAL_SURFACE ( 'NONE', #23, 0.4375000000000000000 ) ;
#202 = EDGE_CURVE ( 'NONE', #16, #142, #32, .T. ) ;
#203 = CARTESIAN_POINT ( 'NONE',  ( 0.4370625000000000204, 5.352471916523400854E-17, -5.352471916523400854E-17 ) ) ;
#204 = DIRECTION ( 'NONE',  ( 1.224646799147353207E-16, 1.000000000000000000, -0.0000000000000000000 ) ) ;
#205 = PRESENTATION_STYLE_ASSIGNMENT (( #41 ) ) ;
#206 = FACE_OUTER_BOUND ( 'NONE', #315, .T. ) ;
#207 = LINE ( 'NONE', #240, #220 ) ;
#208 = PRODUCT_DEFINITION_CONTEXT ( 'detailed design', #170, 'design' ) ;
#209 = DIRECTION ( 'NONE',  ( 0.0000000000000000000, 1.000000000000000000, 0.0000000000000000000 ) ) ;
#210 = CARTESIAN_POINT ( 'NONE',  ( 5.352471916523400854E-17, 0.0000000000000000000, 0.4370625000000000204 ) ) ;
#211 = LENGTH_MEASURE_WITH_UNIT ( LENGTH_MEASURE( 0.02539999999999999897 ), #293 );
#212 = LINE ( 'NONE', #10, #306 ) ;
#213 = PRESENTATION_LAYER_ASSIGNMENT (  '', '', ( #152 ) ) ;
#214 = ADVANCED_FACE ( 'NONE', ( #164 ), #189, .T. ) ;
#215 = LINE ( 'NONE', #168, #282 ) ;
#216 = EDGE_LOOP ( 'NONE', ( #52, #37, #53, #123 ) ) ;
#217 = AXIS2_PLACEMENT_3D ( 'NONE', #162, #101, #135 ) ;
#218 = DIRECTION ( 'NONE',  ( -0.0000000000000000000, -0.0000000000000000000, -1.000000000000000000 ) ) ;
#219 = EDGE_LOOP ( 'NONE', ( #48, #319, #266, #257 ) ) ;
#220 = VECTOR ( 'NONE', #158, 39.37007874015748143 ) ;
#221 = ORIENTED_EDGE ( 'NONE', *, *, #301, .F. ) ;
#222 = CIRCLE ( 'NONE', #28, 0.4370625000000000204 ) ;
#223 = EDGE_LOOP ( 'NONE', ( #173, #166, #252, #265 ) ) ;
#224 = ORIENTED_EDGE ( 'NONE', *, *, #259, .T. ) ;
#225 = ORIENTED_EDGE ( 'NONE', *, *, #151, .F. ) ;
#226 = SPHERICAL_SURFACE ( 'NONE', #167, 0.4370625000000000204 ) ;
#227 = UNCERTAINTY_MEASURE_WITH_UNIT (LENGTH_MEASURE( 1.000000000000000082E-05 ), #187, 'distance_accuracy_value', 'NONE');
#228 = CARTESIAN_POINT ( 'NONE',  ( 1.840008774964292180E-16, 0.0000000000000000000, 1.502481185796082475 ) ) ;
#229 = CIRCLE ( 'NONE', #34, 0.4370625000000000204 ) ;
#230 = AXIS2_PLACEMENT_3D ( 'NONE', #317, #141, #286 ) ;
#231 = CARTESIAN_POINT ( 'NONE',  ( 0.4375000000000001665, 5.357829746269672593E-17, 1.502481185796082475 ) ) ;
#232 = SURFACE_STYLE_USAGE ( .BOTH. , #136 ) ;
#233 = CARTESIAN_POINT ( 'NONE',  ( 0.4224999999999995981, 5.265981236333616375E-17, 4.000000000000000000 ) ) ;
#234 = FILL_AREA_STYLE ('',( #82 ) ) ;
#235 = DIRECTION ( 'NONE',  ( -1.000000000000000000, 0.0000000000000000000, 1.562618614994573516E-16 ) ) ;
#236 = DIRECTION ( 'NONE',  ( 0.0000000000000000000, 0.0000000000000000000, 1.000000000000000000 ) ) ;
#237 = CARTESIAN_POINT ( 'NONE',  ( -0.4370624999999998539, 5.355150831396535799E-17, 1.500000000000000222 ) ) ;
#238 = EDGE_CURVE ( 'NONE', #195, #241, #212, .T. ) ;
#239 = SPHERICAL_SURFACE ( 'NONE', #302, 0.4370625000000000204 ) ;
#240 = CARTESIAN_POINT ( 'NONE',  ( -0.4375000000000000000, 0.0000000000000000000, 4.000000000000000000 ) ) ;
#241 = VERTEX_POINT ( 'NONE', #310 ) ;
#242 = SHAPE_DEFINITION_REPRESENTATION ( #21, #49 ) ;
#243 = DIRECTION ( 'NONE',  ( -1.000000000000000000, 0.0000000000000000000, 0.0000000000000000000 ) ) ;
#244 = CIRCLE ( 'NONE', #20, 0.4375000000000000000 ) ;
#245 = DIRECTION ( 'NONE',  ( 1.224646799147353207E-16, 0.0000000000000000000, 1.000000000000000000 ) ) ;
#246 = VERTEX_POINT ( 'NONE', #11 ) ;
#247 = CIRCLE ( 'NONE', #85, 0.4370625000000000204 ) ;
#248 = LINE ( 'NONE', #325, #178 ) ;
#249 = ORIENTED_EDGE ( 'NONE', *, *, #300, .T. ) ;
#250 = ORIENTED_EDGE ( 'NONE', *, *, #278, .T. ) ;
#251 = ADVANCED_FACE ( 'NONE', ( #111 ), #239, .T. ) ;
#252 = ORIENTED_EDGE ( 'NONE', *, *, #270, .F. ) ;
#253 = ORIENTED_EDGE ( 'NONE', *, *, #238, .F. ) ;
#254 = CIRCLE ( 'NONE', #1, 0.4370625000000000204 ) ;
#255 = VERTEX_POINT ( 'NONE', #67 ) ;
#256 = LINE ( 'NONE', #203, #113 ) ;
#257 = ORIENTED_EDGE ( 'NONE', *, *, #151, .T. ) ;
#258 = DIRECTION ( 'NONE',  ( -1.000000000000000000, 0.0000000000000000000, 1.224646799147353207E-16 ) ) ;
#259 = EDGE_CURVE ( 'NONE', #142, #69, #229, .T. ) ;
#260 = STYLED_ITEM ( 'NONE', ( #205 ), #40 ) ;
#261 = FACE_OUTER_BOUND ( 'NONE', #76, .T. ) ;
#262 = DIMENSIONAL_EXPONENTS ( 1.000000000000000000, 0.0000000000000000000, 0.0000000000000000000, 0.0000000000000000000, 0.0000000000000000000, 0.0000000000000000000, 0.0000000000000000000 ) ;
#263 = DIRECTION ( 'NONE',  ( 0.0000000000000000000, 0.0000000000000000000, -1.000000000000000000 ) ) ;
#264 = AXIS2_PLACEMENT_3D ( 'NONE', #117, #134, #273 ) ;
#265 = ORIENTED_EDGE ( 'NONE', *, *, #31, .F. ) ;
#266 = ORIENTED_EDGE ( 'NONE', *, *, #280, .T. ) ;
#267 = CARTESIAN_POINT ( 'NONE',  ( -0.4370624999999999649, 0.0000000000000000000, 0.4370625000000000759 ) ) ;
#268 = CARTESIAN_POINT ( 'NONE',  ( 1.836970198721030181E-16, 0.0000000000000000000, 1.500000000000000222 ) ) ;
#269 = CARTESIAN_POINT ( 'NONE',  ( 0.0000000000000000000, 0.0000000000000000000, 4.000000000000000000 ) ) ;
#270 = EDGE_CURVE ( 'NONE', #255, #22, #56, .T. ) ;
#271 = EDGE_LOOP ( 'NONE', ( #295, #98, #318, #45 ) ) ;
#272 = AXIS2_PLACEMENT_3D ( 'NONE', #314, #183, #185 ) ;
#273 = DIRECTION ( 'NONE',  ( 1.000000000000000000, 0.0000000000000000000, -0.0000000000000000000 ) ) ;
#274 = AXIS2_PLACEMENT_3D ( 'NONE', #308, #132, #62 ) ;
#275 = ADVANCED_FACE ( 'NONE', ( #165 ), #12, .T. ) ;
#276 = ADVANCED_FACE ( 'NONE', ( #108 ), #146, .T. ) ;
#277 = CARTESIAN_POINT ( 'NONE',  ( 5.352471916523400854E-17, 0.0000000000000000000, 0.4370625000000000204 ) ) ;
#278 = EDGE_CURVE ( 'NONE', #16, #255, #290, .T. ) ;
#279 = PRODUCT_DEFINITION_FORMATION_WITH_SPECIFIED_SOURCE ( 'ANY', '', #323, .NOT_KNOWN. ) ;
#280 = EDGE_CURVE ( 'NONE', #172, #22, #215, .T. ) ;
#281 = EDGE_CURVE ( 'NONE', #16, #172, #254, .T. ) ;
#282 = VECTOR ( 'NONE', #61, 39.37007874015748143 ) ;
#283 = DIRECTION ( 'NONE',  ( -0.0000000000000000000, -0.0000000000000000000, -1.000000000000000000 ) ) ;
#284 =( NAMED_UNIT ( * ) SI_UNIT ( $, .STERADIAN. ) SOLID_ANGLE_UNIT ( ) );
#285 = DIMENSIONAL_EXPONENTS ( 1.000000000000000000, 0.0000000000000000000, 0.0000000000000000000, 0.0000000000000000000, 0.0000000000000000000, 0.0000000000000000000, 0.0000000000000000000 ) ;
#286 = DIRECTION ( 'NONE',  ( 1.000000000000000000, 0.0000000000000000000, 0.0000000000000000000 ) ) ;
#287 = PRESENTATION_LAYER_ASSIGNMENT (  '', '', ( #260 ) ) ;
#288 = MECHANICAL_DESIGN_GEOMETRIC_PRESENTATION_REPRESENTATION (  '', ( #152 ), #313 ) ;
#289 =( LENGTH_UNIT ( ) NAMED_UNIT ( * ) SI_UNIT ( $, .METRE. ) );
#290 = LINE ( 'NONE', #95, #54 ) ;
#291 = ORIENTED_EDGE ( 'NONE', *, *, #281, .F. ) ;
#292 = UNCERTAINTY_MEASURE_WITH_UNIT (LENGTH_MEASURE( 1.000000000000000082E-05 ), #8, 'distance_accuracy_value', 'NONE');
#293 =( LENGTH_UNIT ( ) NAMED_UNIT ( * ) SI_UNIT ( $, .METRE. ) );
#294 = CARTESIAN_POINT ( 'NONE',  ( 0.0000000000000000000, 0.0000000000000000000, 4.000000000000000000 ) ) ;
#295 = ORIENTED_EDGE ( 'NONE', *, *, #281, .T. ) ;
#296 = DIRECTION ( 'NONE',  ( -1.000000000000000000, 0.0000000000000000000, 1.562618614994573516E-16 ) ) ;
#297 = DIRECTION ( 'NONE',  ( 1.000000000000000000, 0.0000000000000000000, 0.0000000000000000000 ) ) ;
#298 = AXIS2_PLACEMENT_3D ( 'NONE', #36, #191, #161 ) ;
#299 = ORIENTED_EDGE ( 'NONE', *, *, #145, .T. ) ;
#300 = EDGE_CURVE ( 'NONE', #241, #322, #199, .T. ) ;
#301 = EDGE_CURVE ( 'NONE', #193, #195, #127, .T. ) ;
#302 = AXIS2_PLACEMENT_3D ( 'NONE', #92, #209, #312 ) ;
#303 =( GEOMETRIC_REPRESENTATION_CONTEXT ( 3 ) GLOBAL_UNCERTAINTY_ASSIGNED_CONTEXT ( ( #320 ) ) GLOBAL_UNIT_ASSIGNED_CONTEXT ( ( #137, #116, #26 ) ) REPRESENTATION_CONTEXT ( 'NONE', 'WORKASPACE' ) );
#304 = EDGE_CURVE ( 'NONE', #195, #193, #324, .T. ) ;
#305 = CARTESIAN_POINT ( 'NONE',  ( 0.4370625000000000759, 5.352471916523400854E-17, 0.4370624999999999649 ) ) ;
#306 = VECTOR ( 'NONE', #65, 39.37007874015748854 ) ;
#307 = DIRECTION ( 'NONE',  ( -1.000000000000000000, 1.224646799147353207E-16, 0.0000000000000000000 ) ) ;
#308 = CARTESIAN_POINT ( 'NONE',  ( 0.0000000000000000000, 0.0000000000000000000, 0.0000000000000000000 ) ) ;
#309 = FILL_AREA_STYLE_COLOUR ( '', #103 ) ;
#310 = CARTESIAN_POINT ( 'NONE',  ( 0.4375000000000000000, 5.357829746269670127E-17, 3.984999999999998987 ) ) ;
#311 = CARTESIAN_POINT ( 'NONE',  ( 1.840008774964292180E-16, 0.0000000000000000000, 1.502481185796082475 ) ) ;
#312 = DIRECTION ( 'NONE',  ( 1.000000000000000000, 0.0000000000000000000, 0.0000000000000000000 ) ) ;
#313 =( GEOMETRIC_REPRESENTATION_CONTEXT ( 3 ) GLOBAL_UNCERTAINTY_ASSIGNED_CONTEXT ( ( #227 ) ) GLOBAL_UNIT_ASSIGNED_CONTEXT ( ( #187, #80, #284 ) ) REPRESENTATION_CONTEXT ( 'NONE', 'WORKASPACE' ) );
#314 = CARTESIAN_POINT ( 'NONE',  ( 0.0000000000000000000, 0.0000000000000000000, 3.984999999999998987 ) ) ;
#315 = EDGE_LOOP ( 'NONE', ( #120, #125 ) ) ;
#316 = ADVANCED_FACE ( 'NONE', ( #206 ), #72, .T. ) ;
#317 = CARTESIAN_POINT ( 'NONE',  ( 0.0000000000000000000, 0.0000000000000000000, 4.000000000000000000 ) ) ;
#318 = ORIENTED_EDGE ( 'NONE', *, *, #155, .T. ) ;
#319 = ORIENTED_EDGE ( 'NONE', *, *, #77, .F. ) ;
#320 = UNCERTAINTY_MEASURE_WITH_UNIT (LENGTH_MEASURE( 1.000000000000000082E-05 ), #137, 'distance_accuracy_value', 'NONE');
#321 = CARTESIAN_POINT ( 'NONE',  ( -0.4224999999999995981, 0.0000000000000000000, 4.000000000000000000 ) ) ;
#322 = VERTEX_POINT ( 'NONE', #46 ) ;
#323 = PRODUCT ( 'Micro_BEM-875-02', 'Micro_BEM-875-02', '', ( #129 ) ) ;
#324 = CIRCLE ( 'NONE', #88, 0.4224999999999995981 ) ;
#325 = CARTESIAN_POINT ( 'NONE',  ( 0.4375000000000000000, 5.357829746269670127E-17, 4.000000000000000000 ) ) ;
ENDSEC;
END-ISO-10303-21;
