ISO-10303-21;
HEADER;
FILE_DESCRIPTION (( 'STEP AP214' ),
    '1' );
FILE_NAME ('Micro_AELM-030-4.STEP',
    '2021-09-01T17:04:03',
    ( '' ),
    ( '' ),
    'SwSTEP 2.0',
    'SolidWorks 2020',
    '' );
FILE_SCHEMA (( 'AUTOMOTIVE_DESIGN' ));
ENDSEC;

DATA;
#1 = VECTOR ( 'NONE', #226, 39.37007874015748143 ) ;
#2 = SURFACE_STYLE_FILL_AREA ( #23 ) ;
#3 = ORIENTED_EDGE ( 'NONE', *, *, #143, .F. ) ;
#4 = CARTESIAN_POINT ( 'NONE',  ( 7.232163918832686227E-17, 0.0000000000000000000, 0.5905510000000000481 ) ) ;
#5 = PRODUCT_DEFINITION_FORMATION_WITH_SPECIFIED_SOURCE ( 'ANY', '', #294, .NOT_KNOWN. ) ;
#6 = FACE_OUTER_BOUND ( 'NONE', #242, .T. ) ;
#7 = AXIS2_PLACEMENT_3D ( 'NONE', #140, #96, #28 ) ;
#8 = CARTESIAN_POINT ( 'NONE',  ( -0.1181099999999998956, 0.0000000000000000000, 0.9258034654053794998 ) ) ;
#9 = CARTESIAN_POINT ( 'NONE',  ( 0.0000000000000000000, 0.0000000000000000000, 2.952755999999999936 ) ) ;
#10 = APPLICATION_PROTOCOL_DEFINITION ( 'draft international standard', 'automotive_design', 1998, #108 ) ;
#11 = ORIENTED_EDGE ( 'NONE', *, *, #75, .F. ) ;
#12 = FACE_OUTER_BOUND ( 'NONE', #87, .T. ) ;
#13 = ORIENTED_EDGE ( 'NONE', *, *, #231, .F. ) ;
#14 = AXIS2_PLACEMENT_3D ( 'NONE', #33, #193, #241 ) ;
#15 = VERTEX_POINT ( 'NONE', #36 ) ;
#16 = DIRECTION ( 'NONE',  ( 1.000000000000000000, 0.0000000000000000000, -0.0000000000000000000 ) ) ;
#17 = CIRCLE ( 'NONE', #232, 0.1181100000000000066 ) ;
#18 = ORIENTED_EDGE ( 'NONE', *, *, #212, .F. ) ;
#19 = CIRCLE ( 'NONE', #7, 0.05899594499999999409 ) ;
#20 = PRODUCT_DEFINITION_CONTEXT ( 'detailed design', #108, 'design' ) ;
#21 = AXIS2_PLACEMENT_3D ( 'NONE', #214, #48, #40 ) ;
#22 = ADVANCED_FACE ( 'NONE', ( #228 ), #203, .T. ) ;
#23 = FILL_AREA_STYLE ('',( #165 ) ) ;
#24 = DIRECTION ( 'NONE',  ( -0.7071067811865486830, 0.0000000000000000000, -0.7071067811865462405 ) ) ;
#25 = EDGE_CURVE ( 'NONE', #276, #79, #274, .T. ) ;
#26 = CYLINDRICAL_SURFACE ( 'NONE', #141, 0.05899594500000000796 ) ;
#27 = DIRECTION ( 'NONE',  ( 0.0000000000000000000, 0.0000000000000000000, 1.000000000000000000 ) ) ;
#28 = DIRECTION ( 'NONE',  ( -1.000000000000000000, 0.0000000000000000000, 1.224646799147353454E-16 ) ) ;
#29 = VECTOR ( 'NONE', #83, 39.37007874015748143 ) ;
#30 = DIRECTION ( 'NONE',  ( 1.000000000000000000, 0.0000000000000000000, 0.0000000000000000000 ) ) ;
#31 = LINE ( 'NONE', #120, #1 ) ;
#32 = ORIENTED_EDGE ( 'NONE', *, *, #107, .T. ) ;
#33 = CARTESIAN_POINT ( 'NONE',  ( 1.133782250548225339E-16, 0.0000000000000000000, 0.9258034654053794998 ) ) ;
#34 = ORIENTED_EDGE ( 'NONE', *, *, #25, .F. ) ;
#35 = VECTOR ( 'NONE', #197, 39.37007874015747433 ) ;
#36 = CARTESIAN_POINT ( 'NONE',  ( -0.1181100000000000066, 0.0000000000000000000, 2.937755999999999368 ) ) ;
#37 = DIRECTION ( 'NONE',  ( -0.0000000000000000000, -0.0000000000000000000, -1.000000000000000000 ) ) ;
#38 = CARTESIAN_POINT ( 'NONE',  ( 0.1181100000000001454, 1.446430334472940625E-17, 0.9258034654053794998 ) ) ;
#39 = VECTOR ( 'NONE', #24, 39.37007874015748854 ) ;
#40 = DIRECTION ( 'NONE',  ( 1.000000000000000000, 0.0000000000000000000, -0.0000000000000000000 ) ) ;
#41 = DIRECTION ( 'NONE',  ( 1.000000000000000000, 0.0000000000000000000, 0.0000000000000000000 ) ) ;
#42 = ADVANCED_FACE ( 'NONE', ( #252 ), #84, .F. ) ;
#43 = VERTEX_POINT ( 'NONE', #38 ) ;
#44 =( LENGTH_UNIT ( ) NAMED_UNIT ( * ) SI_UNIT ( $, .METRE. ) );
#45 = DIRECTION ( 'NONE',  ( 1.000000000000000000, 0.0000000000000000000, 0.0000000000000000000 ) ) ;
#46 = PRODUCT_DEFINITION_SHAPE ( 'NONE', 'NONE',  #195 ) ;
#47 = AXIS2_PLACEMENT_3D ( 'NONE', #117, #76, #289 ) ;
#48 = DIRECTION ( 'NONE',  ( 0.0000000000000000000, 0.0000000000000000000, 1.000000000000000000 ) ) ;
#49 = ADVANCED_FACE ( 'NONE', ( #275 ), #295, .T. ) ;
#50 = CARTESIAN_POINT ( 'NONE',  ( 0.1181100000000000066, 1.446430334472939084E-17, 2.937755999999999368 ) ) ;
#51 = PRESENTATION_LAYER_ASSIGNMENT (  '', '', ( #239 ) ) ;
#52 = DIRECTION ( 'NONE',  ( 1.000000000000000000, 0.0000000000000000000, 0.0000000000000000000 ) ) ;
#53 = PRESENTATION_STYLE_ASSIGNMENT (( #223 ) ) ;
#54 = CIRCLE ( 'NONE', #118, 0.1031099999999991607 ) ;
#55 = DIRECTION ( 'NONE',  ( -1.000000000000000000, 0.0000000000000000000, 0.0000000000000000000 ) ) ;
#56 =( NAMED_UNIT ( * ) SI_UNIT ( $, .STERADIAN. ) SOLID_ANGLE_UNIT ( ) );
#57 = CARTESIAN_POINT ( 'NONE',  ( 7.232163918832686227E-17, 0.0000000000000000000, 0.5905510000000000481 ) ) ;
#58 = ORIENTED_EDGE ( 'NONE', *, *, #250, .T. ) ;
#59 = SURFACE_SIDE_STYLE ('',( #170 ) ) ;
#60 = VERTEX_POINT ( 'NONE', #130 ) ;
#61 = VERTEX_POINT ( 'NONE', #287 ) ;
#62 = STYLED_ITEM ( 'NONE', ( #53 ), #185 ) ;
#63 = VERTEX_POINT ( 'NONE', #8 ) ;
#64 = VERTEX_POINT ( 'NONE', #142 ) ;
#65 = ORIENTED_EDGE ( 'NONE', *, *, #168, .F. ) ;
#66 = EDGE_CURVE ( 'NONE', #43, #63, #88, .T. ) ;
#67 = CARTESIAN_POINT ( 'NONE',  ( 0.0000000000000000000, 0.0000000000000000000, 0.0000000000000000000 ) ) ;
#68 = VECTOR ( 'NONE', #161, 39.37007874015748143 ) ;
#69 =( NAMED_UNIT ( * ) SI_UNIT ( $, .STERADIAN. ) SOLID_ANGLE_UNIT ( ) );
#70 = ORIENTED_EDGE ( 'NONE', *, *, #168, .T. ) ;
#71 = CARTESIAN_POINT ( 'NONE',  ( 0.1181100000000000066, 1.446430334472939084E-17, 2.952755999999999936 ) ) ;
#72 =( LENGTH_UNIT ( ) NAMED_UNIT ( * ) SI_UNIT ( $, .METRE. ) );
#73 = DIRECTION ( 'NONE',  ( -1.000000000000000000, 0.0000000000000000000, 1.224646799147352961E-16 ) ) ;
#74 = PRESENTATION_STYLE_ASSIGNMENT (( #235 ) ) ;
#75 = EDGE_CURVE ( 'NONE', #63, #43, #144, .T. ) ;
#76 = DIRECTION ( 'NONE',  ( -1.224646799147353207E-16, -0.0000000000000000000, -1.000000000000000000 ) ) ;
#77 = CARTESIAN_POINT ( 'NONE',  ( 7.232163918832686227E-17, 0.0000000000000000000, 0.5905510000000000481 ) ) ;
#78 =( CONVERSION_BASED_UNIT ( 'INCH', #218 ) LENGTH_UNIT ( ) NAMED_UNIT ( #204 ) );
#79 = VERTEX_POINT ( 'NONE', #198 ) ;
#80 = FACE_OUTER_BOUND ( 'NONE', #171, .T. ) ;
#81 = ADVANCED_FACE ( 'NONE', ( #222 ), #86, .T. ) ;
#82 = CIRCLE ( 'NONE', #178, 0.1181100000000000066 ) ;
#83 = DIRECTION ( 'NONE',  ( -0.0000000000000000000, -0.0000000000000000000, -1.000000000000000000 ) ) ;
#84 = PLANE ( 'NONE',  #281 ) ;
#85 = ORIENTED_EDGE ( 'NONE', *, *, #66, .F. ) ;
#86 = CONICAL_SURFACE ( 'NONE', #189, 0.05899594500000000796, 0.1745329251994338915 ) ;
#87 = EDGE_LOOP ( 'NONE', ( #58, #32 ) ) ;
#88 = CIRCLE ( 'NONE', #209, 0.1181100000000000066 ) ;
#89 = CONICAL_SURFACE ( 'NONE', #286, 0.1031099999999991607, 0.7853981633974500554 ) ;
#90 = EDGE_CURVE ( 'NONE', #61, #60, #19, .T. ) ;
#91 = EDGE_CURVE ( 'NONE', #60, #61, #183, .T. ) ;
#92 = CIRCLE ( 'NONE', #132, 0.1031099999999991607 ) ;
#93 = CARTESIAN_POINT ( 'NONE',  ( 0.0000000000000000000, 0.0000000000000000000, 2.937755999999999368 ) ) ;
#94 = AXIS2_PLACEMENT_3D ( 'NONE', #155, #206, #128 ) ;
#95 = DIRECTION ( 'NONE',  ( 1.000000000000000000, 0.0000000000000000000, 0.0000000000000000000 ) ) ;
#96 = DIRECTION ( 'NONE',  ( -1.224646799147353207E-16, -0.0000000000000000000, -1.000000000000000000 ) ) ;
#97 = DIRECTION ( 'NONE',  ( 0.0000000000000000000, 0.0000000000000000000, 1.000000000000000000 ) ) ;
#98 = EDGE_LOOP ( 'NONE', ( #152, #34, #103, #180 ) ) ;
#99 = VECTOR ( 'NONE', #283, 39.37007874015748143 ) ;
#100 = DIRECTION ( 'NONE',  ( -1.224646799147353207E-16, -0.0000000000000000000, -1.000000000000000000 ) ) ;
#101 = ORIENTED_EDGE ( 'NONE', *, *, #279, .F. ) ;
#102 = ORIENTED_EDGE ( 'NONE', *, *, #91, .T. ) ;
#103 = ORIENTED_EDGE ( 'NONE', *, *, #231, .T. ) ;
#104 = MECHANICAL_DESIGN_GEOMETRIC_PRESENTATION_REPRESENTATION (  '', ( #239 ), #192 ) ;
#105 = VERTEX_POINT ( 'NONE', #50 ) ;
#106 = DIRECTION ( 'NONE',  ( 0.0000000000000000000, 0.0000000000000000000, 1.000000000000000000 ) ) ;
#107 = EDGE_CURVE ( 'NONE', #64, #208, #54, .T. ) ;
#108 = APPLICATION_CONTEXT ( 'automotive_design' ) ;
#109 = EDGE_CURVE ( 'NONE', #79, #63, #124, .T. ) ;
#110 = LINE ( 'NONE', #186, #68 ) ;
#111 = AXIS2_PLACEMENT_3D ( 'NONE', #4, #260, #237 ) ;
#112 = CARTESIAN_POINT ( 'NONE',  ( 0.0000000000000000000, 0.0000000000000000000, 0.0000000000000000000 ) ) ;
#113 = DIRECTION ( 'NONE',  ( 1.000000000000000000, 0.0000000000000000000, 0.0000000000000000000 ) ) ;
#114 = DIRECTION ( 'NONE',  ( -1.000000000000000000, 0.0000000000000000000, 0.0000000000000000000 ) ) ;
#115 = SURFACE_SIDE_STYLE ('',( #2 ) ) ;
#116 = PRESENTATION_LAYER_ASSIGNMENT (  '', '', ( #62 ) ) ;
#117 = CARTESIAN_POINT ( 'NONE',  ( 8.847974565113090185E-34, 0.0000000000000000000, 7.224919520692329689E-18 ) ) ;
#118 = AXIS2_PLACEMENT_3D ( 'NONE', #9, #243, #174 ) ;
#119 = CARTESIAN_POINT ( 'NONE',  ( 0.1031099999999991607, 1.262733314600825571E-17, 2.952755999999999936 ) ) ;
#120 = CARTESIAN_POINT ( 'NONE',  ( 0.05899594500000000796, 7.224919520692329689E-18, -7.224919520692329689E-18 ) ) ;
#121 = ORIENTED_EDGE ( 'NONE', *, *, #143, .T. ) ;
#122 = FILL_AREA_STYLE_COLOUR ( '', #151 ) ;
#123 = ORIENTED_EDGE ( 'NONE', *, *, #75, .T. ) ;
#124 = LINE ( 'NONE', #167, #35 ) ;
#125 = ORIENTED_EDGE ( 'NONE', *, *, #250, .F. ) ;
#126 = DIMENSIONAL_EXPONENTS ( 1.000000000000000000, 0.0000000000000000000, 0.0000000000000000000, 0.0000000000000000000, 0.0000000000000000000, 0.0000000000000000000, 0.0000000000000000000 ) ;
#127 = PRODUCT_CONTEXT ( 'NONE', #133, 'mechanical' ) ;
#128 = DIRECTION ( 'NONE',  ( -1.000000000000000000, 0.0000000000000000000, 0.0000000000000000000 ) ) ;
#129 = DIRECTION ( 'NONE',  ( -1.000000000000000000, 0.0000000000000000000, 0.0000000000000000000 ) ) ;
#130 = CARTESIAN_POINT ( 'NONE',  ( 0.05899594499999999409, 7.224919520692329689E-18, -9.478001694819074349E-34 ) ) ;
#131 = CONICAL_SURFACE ( 'NONE', #173, 0.05899594500000000796, 0.1745329251994338915 ) ;
#132 = AXIS2_PLACEMENT_3D ( 'NONE', #280, #27, #41 ) ;
#133 = APPLICATION_CONTEXT ( 'automotive_design' ) ;
#134 = FACE_OUTER_BOUND ( 'NONE', #147, .T. ) ;
#135 = ORIENTED_EDGE ( 'NONE', *, *, #109, .T. ) ;
#136 = FACE_OUTER_BOUND ( 'NONE', #270, .T. ) ;
#137 = AXIS2_PLACEMENT_3D ( 'NONE', #251, #37, #129 ) ;
#138 = LINE ( 'NONE', #191, #199 ) ;
#139 =( LENGTH_UNIT ( ) NAMED_UNIT ( * ) SI_UNIT ( $, .METRE. ) );
#140 = CARTESIAN_POINT ( 'NONE',  ( 8.847974565113090185E-34, 0.0000000000000000000, 7.224919520692329689E-18 ) ) ;
#141 = AXIS2_PLACEMENT_3D ( 'NONE', #112, #190, #73 ) ;
#142 = CARTESIAN_POINT ( 'NONE',  ( 0.1031099999999991607, 1.354581824536882251E-17, 2.952755999999999936 ) ) ;
#143 = EDGE_CURVE ( 'NONE', #15, #63, #202, .T. ) ;
#144 = CIRCLE ( 'NONE', #14, 0.1181100000000000066 ) ;
#145 =( NAMED_UNIT ( * ) PLANE_ANGLE_UNIT ( ) SI_UNIT ( $, .RADIAN. ) );
#146 = LINE ( 'NONE', #119, #266 ) ;
#147 = EDGE_LOOP ( 'NONE', ( #160, #205, #292, #201 ) ) ;
#148 = DIRECTION ( 'NONE',  ( 0.0000000000000000000, 0.0000000000000000000, -1.000000000000000000 ) ) ;
#149 = ORIENTED_EDGE ( 'NONE', *, *, #157, .F. ) ;
#150 = ADVANCED_FACE ( 'NONE', ( #169 ), #131, .T. ) ;
#151 = COLOUR_RGB ( '',0.7921568627450980005, 0.8196078431372548767, 0.9333333333333333481 ) ;
#152 = ORIENTED_EDGE ( 'NONE', *, *, #109, .F. ) ;
#153 = AXIS2_PLACEMENT_3D ( 'NONE', #293, #177, #154 ) ;
#154 = DIRECTION ( 'NONE',  ( -1.000000000000000000, 0.0000000000000000000, 0.0000000000000000000 ) ) ;
#155 = CARTESIAN_POINT ( 'NONE',  ( 0.0000000000000000000, 0.0000000000000000000, 2.952755999999999936 ) ) ;
#156 = AXIS2_PLACEMENT_3D ( 'NONE', #67, #158, #256 ) ;
#157 = EDGE_CURVE ( 'NONE', #64, #105, #146, .T. ) ;
#158 = DIRECTION ( 'NONE',  ( -1.224646799147353207E-16, -0.0000000000000000000, -1.000000000000000000 ) ) ;
#159 = CARTESIAN_POINT ( 'NONE',  ( -0.1031099999999991607, 0.0000000000000000000, 2.952755999999999936 ) ) ;
#160 = ORIENTED_EDGE ( 'NONE', *, *, #175, .F. ) ;
#161 = DIRECTION ( 'NONE',  ( 0.1736481776669313859, 0.0000000000000000000, 0.9848077530122077983 ) ) ;
#162 = LENGTH_MEASURE_WITH_UNIT ( LENGTH_MEASURE( 0.02539999999999999897 ), #72 );
#163 = ADVANCED_FACE ( 'NONE', ( #80 ), #253, .T. ) ;
#164 = DIRECTION ( 'NONE',  ( 0.0000000000000000000, 0.0000000000000000000, -1.000000000000000000 ) ) ;
#165 = FILL_AREA_STYLE_COLOUR ( '', #271 ) ;
#166 = CLOSED_SHELL ( 'NONE', ( #296, #81, #277, #22, #49, #184, #163, #150, #264, #42 ) ) ;
#167 = CARTESIAN_POINT ( 'NONE',  ( -0.05899594499999993857, 7.224919520692329689E-18, 0.5905510000000000481 ) ) ;
#168 = EDGE_CURVE ( 'NONE', #15, #105, #82, .T. ) ;
#169 = FACE_OUTER_BOUND ( 'NONE', #98, .T. ) ;
#170 = SURFACE_STYLE_FILL_AREA ( #262 ) ;
#171 = EDGE_LOOP ( 'NONE', ( #149, #125, #247, #269 ) ) ;
#172 = CARTESIAN_POINT ( 'NONE',  ( 0.0000000000000000000, 0.0000000000000000000, 2.952755999999999936 ) ) ;
#173 = AXIS2_PLACEMENT_3D ( 'NONE', #57, #263, #52 ) ;
#174 = DIRECTION ( 'NONE',  ( 1.000000000000000000, 0.0000000000000000000, 0.0000000000000000000 ) ) ;
#175 = EDGE_CURVE ( 'NONE', #276, #60, #31, .T. ) ;
#176 =( CONVERSION_BASED_UNIT ( 'INCH', #162 ) LENGTH_UNIT ( ) NAMED_UNIT ( #126 ) );
#177 = DIRECTION ( 'NONE',  ( -1.224646799147353207E-16, -0.0000000000000000000, -1.000000000000000000 ) ) ;
#178 = AXIS2_PLACEMENT_3D ( 'NONE', #267, #148, #246 ) ;
#179 = ORIENTED_EDGE ( 'NONE', *, *, #90, .F. ) ;
#180 = ORIENTED_EDGE ( 'NONE', *, *, #66, .T. ) ;
#181 = ORIENTED_EDGE ( 'NONE', *, *, #175, .T. ) ;
#182 = AXIS2_PLACEMENT_3D ( 'NONE', #225, #97, #113 ) ;
#183 = CIRCLE ( 'NONE', #47, 0.05899594499999999409 ) ;
#184 = ADVANCED_FACE ( 'NONE', ( #12 ), #291, .T. ) ;
#185 = ADVANCED_BREP_SHAPE_REPRESENTATION ( 'Micro_AELM-030-4', ( #240, #182 ), #187 ) ;
#186 = CARTESIAN_POINT ( 'NONE',  ( 0.05899594500000007041, 0.0000000000000000000, 0.5905510000000000481 ) ) ;
#187 =( GEOMETRIC_REPRESENTATION_CONTEXT ( 3 ) GLOBAL_UNCERTAINTY_ASSIGNED_CONTEXT ( ( #298 ) ) GLOBAL_UNIT_ASSIGNED_CONTEXT ( ( #78, #196, #282 ) ) REPRESENTATION_CONTEXT ( 'NONE', 'WORKASPACE' ) );
#188 =( CONVERSION_BASED_UNIT ( 'INCH', #257 ) LENGTH_UNIT ( ) NAMED_UNIT ( #290 ) );
#189 = AXIS2_PLACEMENT_3D ( 'NONE', #77, #238, #30 ) ;
#190 = DIRECTION ( 'NONE',  ( -1.224646799147353207E-16, -0.0000000000000000000, -1.000000000000000000 ) ) ;
#191 = CARTESIAN_POINT ( 'NONE',  ( -0.05899594500000000796, 0.0000000000000000000, 7.224919520692329689E-18 ) ) ;
#192 =( GEOMETRIC_REPRESENTATION_CONTEXT ( 3 ) GLOBAL_UNCERTAINTY_ASSIGNED_CONTEXT ( ( #210 ) ) GLOBAL_UNIT_ASSIGNED_CONTEXT ( ( #188, #259, #69 ) ) REPRESENTATION_CONTEXT ( 'NONE', 'WORKASPACE' ) );
#193 = DIRECTION ( 'NONE',  ( -1.224646799147353207E-16, -0.0000000000000000000, -1.000000000000000000 ) ) ;
#194 = AXIS2_PLACEMENT_3D ( 'NONE', #172, #265, #55 ) ;
#195 = PRODUCT_DEFINITION ( 'UNKNOWN', '', #5, #20 ) ;
#196 =( NAMED_UNIT ( * ) PLANE_ANGLE_UNIT ( ) SI_UNIT ( $, .RADIAN. ) );
#197 = DIRECTION ( 'NONE',  ( -0.1736481776669311916, 2.126576849575783316E-17, 0.9848077530122080203 ) ) ;
#198 = CARTESIAN_POINT ( 'NONE',  ( -0.05899594499999993857, 1.084461143271085950E-17, 0.5905510000000000481 ) ) ;
#199 = VECTOR ( 'NONE', #285, 39.37007874015748143 ) ;
#200 = SHAPE_DEFINITION_REPRESENTATION ( #46, #185 ) ;
#201 = ORIENTED_EDGE ( 'NONE', *, *, #91, .F. ) ;
#202 = LINE ( 'NONE', #288, #29 ) ;
#203 = CYLINDRICAL_SURFACE ( 'NONE', #94, 0.1181100000000000066 ) ;
#204 = DIMENSIONAL_EXPONENTS ( 1.000000000000000000, 0.0000000000000000000, 0.0000000000000000000, 0.0000000000000000000, 0.0000000000000000000, 0.0000000000000000000, 0.0000000000000000000 ) ;
#205 = ORIENTED_EDGE ( 'NONE', *, *, #25, .T. ) ;
#206 = DIRECTION ( 'NONE',  ( -0.0000000000000000000, -0.0000000000000000000, -1.000000000000000000 ) ) ;
#207 = ORIENTED_EDGE ( 'NONE', *, *, #272, .T. ) ;
#208 = VERTEX_POINT ( 'NONE', #159 ) ;
#209 = AXIS2_PLACEMENT_3D ( 'NONE', #261, #100, #95 ) ;
#210 = UNCERTAINTY_MEASURE_WITH_UNIT (LENGTH_MEASURE( 1.000000000000000082E-05 ), #188, 'distance_accuracy_value', 'NONE');
#211 = ORIENTED_EDGE ( 'NONE', *, *, #284, .F. ) ;
#212 = EDGE_CURVE ( 'NONE', #105, #43, #215, .T. ) ;
#213 = LINE ( 'NONE', #234, #39 ) ;
#214 = CARTESIAN_POINT ( 'NONE',  ( 0.0000000000000000000, 0.0000000000000000000, 2.952755999999999936 ) ) ;
#215 = LINE ( 'NONE', #71, #99 ) ;
#216 = APPLICATION_PROTOCOL_DEFINITION ( 'draft international standard', 'automotive_design', 1998, #133 ) ;
#217 = DIRECTION ( 'NONE',  ( 0.0000000000000000000, 0.0000000000000000000, -1.000000000000000000 ) ) ;
#218 = LENGTH_MEASURE_WITH_UNIT ( LENGTH_MEASURE( 0.02539999999999999897 ), #139 );
#219 = CARTESIAN_POINT ( 'NONE',  ( 0.05899594500000007041, 0.0000000000000000000, 0.5905510000000000481 ) ) ;
#220 = EDGE_CURVE ( 'NONE', #208, #15, #213, .T. ) ;
#221 =( GEOMETRIC_REPRESENTATION_CONTEXT ( 3 ) GLOBAL_UNCERTAINTY_ASSIGNED_CONTEXT ( ( #254 ) ) GLOBAL_UNIT_ASSIGNED_CONTEXT ( ( #176, #145, #56 ) ) REPRESENTATION_CONTEXT ( 'NONE', 'WORKASPACE' ) );
#222 = FACE_OUTER_BOUND ( 'NONE', #268, .T. ) ;
#223 = SURFACE_STYLE_USAGE ( .BOTH. , #59 ) ;
#224 = DIRECTION ( 'NONE',  ( 0.7071067811865486830, 8.659560562354947649E-17, -0.7071067811865462405 ) ) ;
#225 = CARTESIAN_POINT ( 'NONE',  ( 0.0000000000000000000, 0.0000000000000000000, 0.0000000000000000000 ) ) ;
#226 = DIRECTION ( 'NONE',  ( -1.224646799147353207E-16, -0.0000000000000000000, -1.000000000000000000 ) ) ;
#227 = ORIENTED_EDGE ( 'NONE', *, *, #107, .F. ) ;
#228 = FACE_OUTER_BOUND ( 'NONE', #244, .T. ) ;
#229 = CARTESIAN_POINT ( 'NONE',  ( 0.0000000000000000000, 0.0000000000000000000, 0.0000000000000000000 ) ) ;
#230 = ORIENTED_EDGE ( 'NONE', *, *, #220, .F. ) ;
#231 = EDGE_CURVE ( 'NONE', #276, #43, #110, .T. ) ;
#232 = AXIS2_PLACEMENT_3D ( 'NONE', #93, #164, #45 ) ;
#233 = EDGE_LOOP ( 'NONE', ( #273, #102 ) ) ;
#234 = CARTESIAN_POINT ( 'NONE',  ( -0.1031099999999991607, 0.0000000000000000000, 2.952755999999999936 ) ) ;
#235 = SURFACE_STYLE_USAGE ( .BOTH. , #115 ) ;
#236 = CARTESIAN_POINT ( 'NONE',  ( 0.0000000000000000000, 0.0000000000000000000, 2.952755999999999936 ) ) ;
#237 = DIRECTION ( 'NONE',  ( -1.000000000000000000, 0.0000000000000000000, 0.0000000000000000000 ) ) ;
#238 = DIRECTION ( 'NONE',  ( 1.224646799147353207E-16, 0.0000000000000000000, 1.000000000000000000 ) ) ;
#239 = STYLED_ITEM ( 'NONE', ( #74 ), #240 ) ;
#240 = MANIFOLD_SOLID_BREP ( 'Cut-Revolve1', #166 ) ;
#241 = DIRECTION ( 'NONE',  ( 1.000000000000000000, 0.0000000000000000000, 0.0000000000000000000 ) ) ;
#242 = EDGE_LOOP ( 'NONE', ( #248, #181, #179, #211 ) ) ;
#243 = DIRECTION ( 'NONE',  ( 0.0000000000000000000, 0.0000000000000000000, 1.000000000000000000 ) ) ;
#244 = EDGE_LOOP ( 'NONE', ( #70, #297, #11, #3 ) ) ;
#245 = EDGE_LOOP ( 'NONE', ( #18, #207, #121, #85 ) ) ;
#246 = DIRECTION ( 'NONE',  ( 1.000000000000000000, 0.0000000000000000000, 0.0000000000000000000 ) ) ;
#247 = ORIENTED_EDGE ( 'NONE', *, *, #220, .T. ) ;
#248 = ORIENTED_EDGE ( 'NONE', *, *, #279, .T. ) ;
#249 = ORIENTED_EDGE ( 'NONE', *, *, #157, .T. ) ;
#250 = EDGE_CURVE ( 'NONE', #208, #64, #92, .T. ) ;
#251 = CARTESIAN_POINT ( 'NONE',  ( 0.0000000000000000000, 0.0000000000000000000, 2.952755999999999936 ) ) ;
#252 = FACE_OUTER_BOUND ( 'NONE', #233, .T. ) ;
#253 = CONICAL_SURFACE ( 'NONE', #194, 0.1031099999999991607, 0.7853981633974500554 ) ;
#254 = UNCERTAINTY_MEASURE_WITH_UNIT (LENGTH_MEASURE( 1.000000000000000082E-05 ), #176, 'distance_accuracy_value', 'NONE');
#255 = CIRCLE ( 'NONE', #111, 0.05899594500000000796 ) ;
#256 = DIRECTION ( 'NONE',  ( -1.000000000000000000, 0.0000000000000000000, 1.224646799147352961E-16 ) ) ;
#257 = LENGTH_MEASURE_WITH_UNIT ( LENGTH_MEASURE( 0.02539999999999999897 ), #44 );
#258 = PRODUCT_RELATED_PRODUCT_CATEGORY ( 'part', '', ( #294 ) ) ;
#259 =( NAMED_UNIT ( * ) PLANE_ANGLE_UNIT ( ) SI_UNIT ( $, .RADIAN. ) );
#260 = DIRECTION ( 'NONE',  ( -1.224646799147353207E-16, -0.0000000000000000000, -1.000000000000000000 ) ) ;
#261 = CARTESIAN_POINT ( 'NONE',  ( 1.133782250548225339E-16, 0.0000000000000000000, 0.9258034654053794998 ) ) ;
#262 = FILL_AREA_STYLE ('',( #122 ) ) ;
#263 = DIRECTION ( 'NONE',  ( 1.224646799147353207E-16, 0.0000000000000000000, 1.000000000000000000 ) ) ;
#264 = ADVANCED_FACE ( 'NONE', ( #134 ), #26, .T. ) ;
#265 = DIRECTION ( 'NONE',  ( 0.0000000000000000000, 0.0000000000000000000, -1.000000000000000000 ) ) ;
#266 = VECTOR ( 'NONE', #224, 39.37007874015748854 ) ;
#267 = CARTESIAN_POINT ( 'NONE',  ( 0.0000000000000000000, 0.0000000000000000000, 2.937755999999999368 ) ) ;
#268 = EDGE_LOOP ( 'NONE', ( #101, #135, #123, #13 ) ) ;
#269 = ORIENTED_EDGE ( 'NONE', *, *, #272, .F. ) ;
#270 = EDGE_LOOP ( 'NONE', ( #227, #249, #65, #230 ) ) ;
#271 = COLOUR_RGB ( '',0.7921568627450980005, 0.8196078431372548767, 0.9333333333333333481 ) ;
#272 = EDGE_CURVE ( 'NONE', #105, #15, #17, .T. ) ;
#273 = ORIENTED_EDGE ( 'NONE', *, *, #90, .T. ) ;
#274 = CIRCLE ( 'NONE', #153, 0.05899594500000000796 ) ;
#275 = FACE_OUTER_BOUND ( 'NONE', #245, .T. ) ;
#276 = VERTEX_POINT ( 'NONE', #219 ) ;
#277 = ADVANCED_FACE ( 'NONE', ( #136 ), #89, .T. ) ;
#278 = CYLINDRICAL_SURFACE ( 'NONE', #156, 0.05899594500000000796 ) ;
#279 = EDGE_CURVE ( 'NONE', #79, #276, #255, .T. ) ;
#280 = CARTESIAN_POINT ( 'NONE',  ( 0.0000000000000000000, 0.0000000000000000000, 2.952755999999999936 ) ) ;
#281 = AXIS2_PLACEMENT_3D ( 'NONE', #229, #106, #16 ) ;
#282 =( NAMED_UNIT ( * ) SI_UNIT ( $, .STERADIAN. ) SOLID_ANGLE_UNIT ( ) );
#283 = DIRECTION ( 'NONE',  ( -0.0000000000000000000, -0.0000000000000000000, -1.000000000000000000 ) ) ;
#284 = EDGE_CURVE ( 'NONE', #79, #61, #138, .T. ) ;
#285 = DIRECTION ( 'NONE',  ( -1.224646799147353207E-16, -0.0000000000000000000, -1.000000000000000000 ) ) ;
#286 = AXIS2_PLACEMENT_3D ( 'NONE', #236, #217, #114 ) ;
#287 = CARTESIAN_POINT ( 'NONE',  ( -0.05899594499999999409, 0.0000000000000000000, 1.444983904138465938E-17 ) ) ;
#288 = CARTESIAN_POINT ( 'NONE',  ( -0.1181100000000000066, 0.0000000000000000000, 2.952755999999999936 ) ) ;
#289 = DIRECTION ( 'NONE',  ( -1.000000000000000000, 0.0000000000000000000, 1.224646799147353454E-16 ) ) ;
#290 = DIMENSIONAL_EXPONENTS ( 1.000000000000000000, 0.0000000000000000000, 0.0000000000000000000, 0.0000000000000000000, 0.0000000000000000000, 0.0000000000000000000, 0.0000000000000000000 ) ;
#291 = PLANE ( 'NONE',  #21 ) ;
#292 = ORIENTED_EDGE ( 'NONE', *, *, #284, .T. ) ;
#293 = CARTESIAN_POINT ( 'NONE',  ( 7.232163918832686227E-17, 0.0000000000000000000, 0.5905510000000000481 ) ) ;
#294 = PRODUCT ( 'Micro_AELM-030-4', 'Micro_AELM-030-4', '', ( #127 ) ) ;
#295 = CYLINDRICAL_SURFACE ( 'NONE', #137, 0.1181100000000000066 ) ;
#296 = ADVANCED_FACE ( 'NONE', ( #6 ), #278, .T. ) ;
#297 = ORIENTED_EDGE ( 'NONE', *, *, #212, .T. ) ;
#298 = UNCERTAINTY_MEASURE_WITH_UNIT (LENGTH_MEASURE( 1.000000000000000082E-05 ), #78, 'distance_accuracy_value', 'NONE');
#299 = MECHANICAL_DESIGN_GEOMETRIC_PRESENTATION_REPRESENTATION (  '', ( #62 ), #221 ) ;
ENDSEC;
END-ISO-10303-21;
