ISO-10303-21;
HEADER;
FILE_DESCRIPTION (( 'STEP AP214' ),
    '1' );
FILE_NAME ('Micro_GEMM-010-4.STEP',
    '2021-09-01T21:14:45',
    ( '' ),
    ( '' ),
    'SwSTEP 2.0',
    'SolidWorks 2020',
    '' );
FILE_SCHEMA (( 'AUTOMOTIVE_DESIGN' ));
ENDSEC;

DATA;
#1 = SURFACE_STYLE_USAGE ( .BOTH. , #147 ) ;
#2 =( NAMED_UNIT ( * ) PLANE_ANGLE_UNIT ( ) SI_UNIT ( $, .RADIAN. ) );
#3 = UNCERTAINTY_MEASURE_WITH_UNIT (LENGTH_MEASURE( 1.000000000000000082E-05 ), #23, 'distance_accuracy_value', 'NONE');
#4 = CIRCLE ( 'NONE', #21, 0.01966531499999996796 ) ;
#5 = CARTESIAN_POINT ( 'NONE',  ( 0.01966531499999995755, 2.408306506897438094E-18, -2.408306506897437709E-18 ) ) ;
#6 = EDGE_CURVE ( 'NONE', #257, #74, #10, .T. ) ;
#7 = ADVANCED_BREP_SHAPE_REPRESENTATION ( 'Micro_GEMM-010-4', ( #294, #254 ), #11 ) ;
#8 = DIRECTION ( 'NONE',  ( -0.0000000000000000000, -0.0000000000000000000, -1.000000000000000000 ) ) ;
#9 = LINE ( 'NONE', #125, #224 ) ;
#10 = LINE ( 'NONE', #240, #174 ) ;
#11 =( GEOMETRIC_REPRESENTATION_CONTEXT ( 3 ) GLOBAL_UNCERTAINTY_ASSIGNED_CONTEXT ( ( #3 ) ) GLOBAL_UNIT_ASSIGNED_CONTEXT ( ( #23, #2, #71 ) ) REPRESENTATION_CONTEXT ( 'NONE', 'WORKASPACE' ) );
#12 = ORIENTED_EDGE ( 'NONE', *, *, #141, .F. ) ;
#13 = DIRECTION ( 'NONE',  ( 0.0000000000000000000, 0.0000000000000000000, 1.000000000000000000 ) ) ;
#14 = CARTESIAN_POINT ( 'NONE',  ( -0.01966531499999994367, 2.408306506897437709E-18, 0.1181099999999999650 ) ) ;
#15 = AXIS2_PLACEMENT_3D ( 'NONE', #179, #177, #58 ) ;
#16 = EDGE_CURVE ( 'NONE', #45, #34, #33, .T. ) ;
#17 = CIRCLE ( 'NONE', #193, 0.01966531499999996796 ) ;
#18 = DIRECTION ( 'NONE',  ( 1.000000000000000000, 0.0000000000000000000, 0.0000000000000000000 ) ) ;
#19 = DIRECTION ( 'NONE',  ( 1.000000000000000000, 0.0000000000000000000, 0.0000000000000000000 ) ) ;
#20 = FACE_OUTER_BOUND ( 'NONE', #156, .T. ) ;
#21 = AXIS2_PLACEMENT_3D ( 'NONE', #271, #166, #252 ) ;
#22 = ORIENTED_EDGE ( 'NONE', *, *, #29, .F. ) ;
#23 =( CONVERSION_BASED_UNIT ( 'INCH', #120 ) LENGTH_UNIT ( ) NAMED_UNIT ( #229 ) );
#24 = ORIENTED_EDGE ( 'NONE', *, *, #93, .F. ) ;
#25 =( NAMED_UNIT ( * ) PLANE_ANGLE_UNIT ( ) SI_UNIT ( $, .RADIAN. ) );
#26 = EDGE_LOOP ( 'NONE', ( #151, #95, #213, #287 ) ) ;
#27 = PRODUCT ( 'Micro_GEMM-010-4', 'Micro_GEMM-010-4', '', ( #52 ) ) ;
#28 =( CONVERSION_BASED_UNIT ( 'INCH', #172 ) LENGTH_UNIT ( ) NAMED_UNIT ( #278 ) );
#29 = EDGE_CURVE ( 'NONE', #116, #36, #253, .T. ) ;
#30 = ORIENTED_EDGE ( 'NONE', *, *, #138, .T. ) ;
#31 = AXIS2_PLACEMENT_3D ( 'NONE', #160, #38, #133 ) ;
#32 = EDGE_LOOP ( 'NONE', ( #256, #191 ) ) ;
#33 = LINE ( 'NONE', #5, #272 ) ;
#34 = VERTEX_POINT ( 'NONE', #131 ) ;
#35 = CONICAL_SURFACE ( 'NONE', #90, 0.04405500000000001082, 0.7853981633974570498 ) ;
#36 = VERTEX_POINT ( 'NONE', #216 ) ;
#37 = DIRECTION ( 'NONE',  ( -0.0000000000000000000, -0.0000000000000000000, -1.000000000000000000 ) ) ;
#38 = DIRECTION ( 'NONE',  ( -0.0000000000000000000, -0.0000000000000000000, -1.000000000000000000 ) ) ;
#39 = CARTESIAN_POINT ( 'NONE',  ( 0.0000000000000000000, 0.0000000000000000000, 0.0000000000000000000 ) ) ;
#40 = CONICAL_SURFACE ( 'NONE', #47, 0.04405500000000001082, 0.7853981633974570498 ) ;
#41 = CARTESIAN_POINT ( 'NONE',  ( -0.01966531499999994367, 4.820229089631064447E-18, 0.1181099999999999650 ) ) ;
#42 = DIRECTION ( 'NONE',  ( -1.000000000000000000, 0.0000000000000000000, 0.0000000000000000000 ) ) ;
#43 = VERTEX_POINT ( 'NONE', #180 ) ;
#44 = APPLICATION_CONTEXT ( 'automotive_design' ) ;
#45 = VERTEX_POINT ( 'NONE', #198 ) ;
#46 = SURFACE_STYLE_FILL_AREA ( #94 ) ;
#47 = AXIS2_PLACEMENT_3D ( 'NONE', #281, #176, #263 ) ;
#48 =( GEOMETRIC_REPRESENTATION_CONTEXT ( 3 ) GLOBAL_UNCERTAINTY_ASSIGNED_CONTEXT ( ( #149 ) ) GLOBAL_UNIT_ASSIGNED_CONTEXT ( ( #277, #25, #150 ) ) REPRESENTATION_CONTEXT ( 'NONE', 'WORKASPACE' ) );
#49 =( LENGTH_UNIT ( ) NAMED_UNIT ( * ) SI_UNIT ( $, .METRE. ) );
#50 = ORIENTED_EDGE ( 'NONE', *, *, #228, .T. ) ;
#51 = EDGE_CURVE ( 'NONE', #43, #116, #9, .T. ) ;
#52 = PRODUCT_CONTEXT ( 'NONE', #44, 'mechanical' ) ;
#53 = FACE_OUTER_BOUND ( 'NONE', #32, .T. ) ;
#54 = CONICAL_SURFACE ( 'NONE', #78, 0.01966531499999995408, 0.1745329251994340025 ) ;
#55 = DIRECTION ( 'NONE',  ( -1.000000000000000000, 0.0000000000000000000, 0.0000000000000000000 ) ) ;
#56 = CARTESIAN_POINT ( 'NONE',  ( 1.446430334472938160E-17, 0.0000000000000000000, 0.1181099999999999650 ) ) ;
#57 = ADVANCED_FACE ( 'NONE', ( #152 ), #83, .T. ) ;
#58 = DIRECTION ( 'NONE',  ( -1.000000000000000000, 0.0000000000000000000, 1.224646799147352961E-16 ) ) ;
#59 = ORIENTED_EDGE ( 'NONE', *, *, #16, .T. ) ;
#60 = AXIS2_PLACEMENT_3D ( 'NONE', #162, #275, #249 ) ;
#61 =( GEOMETRIC_REPRESENTATION_CONTEXT ( 3 ) GLOBAL_UNCERTAINTY_ASSIGNED_CONTEXT ( ( #236 ) ) GLOBAL_UNIT_ASSIGNED_CONTEXT ( ( #28, #168, #114 ) ) REPRESENTATION_CONTEXT ( 'NONE', 'WORKASPACE' ) );
#62 = DIRECTION ( 'NONE',  ( 1.224646799147352961E-16, 0.0000000000000000000, 1.000000000000000000 ) ) ;
#63 = ADVANCED_FACE ( 'NONE', ( #268 ), #178, .T. ) ;
#64 = DIRECTION ( 'NONE',  ( 1.224646799147352961E-16, 0.0000000000000000000, 1.000000000000000000 ) ) ;
#65 = CARTESIAN_POINT ( 'NONE',  ( 0.0000000000000000000, 0.0000000000000000000, 1.496062999999999921 ) ) ;
#66 = LINE ( 'NONE', #111, #129 ) ;
#67 = PRESENTATION_LAYER_ASSIGNMENT (  '', '', ( #201 ) ) ;
#68 = DIRECTION ( 'NONE',  ( -1.000000000000000000, 0.0000000000000000000, 1.224646799147352961E-16 ) ) ;
#69 = COLOUR_RGB ( '',0.7921568627450980005, 0.8196078431372548767, 0.9333333333333333481 ) ;
#70 = ORIENTED_EDGE ( 'NONE', *, *, #145, .T. ) ;
#71 =( NAMED_UNIT ( * ) SI_UNIT ( $, .STERADIAN. ) SOLID_ANGLE_UNIT ( ) );
#72 = VERTEX_POINT ( 'NONE', #103 ) ;
#73 =( LENGTH_UNIT ( ) NAMED_UNIT ( * ) SI_UNIT ( $, .METRE. ) );
#74 = VERTEX_POINT ( 'NONE', #283 ) ;
#75 = ORIENTED_EDGE ( 'NONE', *, *, #115, .T. ) ;
#76 = DIRECTION ( 'NONE',  ( 1.000000000000000000, 0.0000000000000000000, 0.0000000000000000000 ) ) ;
#77 = DIRECTION ( 'NONE',  ( -1.000000000000000000, 0.0000000000000000000, 0.0000000000000000000 ) ) ;
#78 = AXIS2_PLACEMENT_3D ( 'NONE', #266, #62, #238 ) ;
#79 = AXIS2_PLACEMENT_3D ( 'NONE', #202, #89, #199 ) ;
#80 = SHAPE_DEFINITION_REPRESENTATION ( #210, #7 ) ;
#81 = VERTEX_POINT ( 'NONE', #126 ) ;
#82 = ORIENTED_EDGE ( 'NONE', *, *, #6, .F. ) ;
#83 = CYLINDRICAL_SURFACE ( 'NONE', #15, 0.01966531499999995755 ) ;
#84 = ADVANCED_FACE ( 'NONE', ( #221 ), #54, .T. ) ;
#85 = PRESENTATION_LAYER_ASSIGNMENT (  '', '', ( #217 ) ) ;
#86 = DIRECTION ( 'NONE',  ( -0.7071067811865536790, 0.0000000000000000000, -0.7071067811865412445 ) ) ;
#87 = DIRECTION ( 'NONE',  ( -1.224646799147352961E-16, -0.0000000000000000000, -1.000000000000000000 ) ) ;
#88 = LINE ( 'NONE', #113, #96 ) ;
#89 = DIRECTION ( 'NONE',  ( 0.0000000000000000000, 0.0000000000000000000, 1.000000000000000000 ) ) ;
#90 = AXIS2_PLACEMENT_3D ( 'NONE', #110, #186, #42 ) ;
#91 = DIRECTION ( 'NONE',  ( 1.000000000000000000, 0.0000000000000000000, 0.0000000000000000000 ) ) ;
#92 = EDGE_LOOP ( 'NONE', ( #144, #175, #261, #279 ) ) ;
#93 = EDGE_CURVE ( 'NONE', #45, #257, #148, .T. ) ;
#94 = FILL_AREA_STYLE ('',( #214 ) ) ;
#95 = ORIENTED_EDGE ( 'NONE', *, *, #51, .T. ) ;
#96 = VECTOR ( 'NONE', #37, 39.37007874015748143 ) ;
#97 = ORIENTED_EDGE ( 'NONE', *, *, #141, .T. ) ;
#98 = ADVANCED_FACE ( 'NONE', ( #194 ), #40, .T. ) ;
#99 = PRESENTATION_STYLE_ASSIGNMENT (( #1 ) ) ;
#100 = ORIENTED_EDGE ( 'NONE', *, *, #200, .F. ) ;
#101 = DIRECTION ( 'NONE',  ( -1.224646799147352961E-16, -0.0000000000000000000, -1.000000000000000000 ) ) ;
#102 = CARTESIAN_POINT ( 'NONE',  ( 0.0000000000000000000, 0.0000000000000000000, 0.0000000000000000000 ) ) ;
#103 = CARTESIAN_POINT ( 'NONE',  ( -0.05905499999999993394, 0.0000000000000000000, 0.3415000044209671182 ) ) ;
#104 = EDGE_LOOP ( 'NONE', ( #50, #70, #265, #100 ) ) ;
#105 = AXIS2_PLACEMENT_3D ( 'NONE', #184, #139, #91 ) ;
#106 = DIRECTION ( 'NONE',  ( 0.7071067811865536790, 8.659560562355008046E-17, -0.7071067811865412445 ) ) ;
#107 = ADVANCED_FACE ( 'NONE', ( #53 ), #219, .F. ) ;
#108 = CARTESIAN_POINT ( 'NONE',  ( 0.0000000000000000000, 0.0000000000000000000, 1.481063000000000240 ) ) ;
#109 = CARTESIAN_POINT ( 'NONE',  ( -0.04405500000000001082, 0.0000000000000000000, 1.496062999999999921 ) ) ;
#110 = CARTESIAN_POINT ( 'NONE',  ( 0.0000000000000000000, 0.0000000000000000000, 1.496062999999999921 ) ) ;
#111 = CARTESIAN_POINT ( 'NONE',  ( 0.05905499999999998251, 7.232151672364692341E-18, 1.496062999999999921 ) ) ;
#112 = DIRECTION ( 'NONE',  ( 1.000000000000000000, 0.0000000000000000000, -0.0000000000000000000 ) ) ;
#113 = CARTESIAN_POINT ( 'NONE',  ( -0.05905499999999998251, 0.0000000000000000000, 1.496062999999999921 ) ) ;
#114 =( NAMED_UNIT ( * ) SI_UNIT ( $, .STERADIAN. ) SOLID_ANGLE_UNIT ( ) );
#115 = EDGE_CURVE ( 'NONE', #45, #223, #154, .T. ) ;
#116 = VERTEX_POINT ( 'NONE', #274 ) ;
#117 = FILL_AREA_STYLE ('',( #299 ) ) ;
#118 = EDGE_LOOP ( 'NONE', ( #173, #127, #255, #12 ) ) ;
#119 = VECTOR ( 'NONE', #86, 39.37007874015748854 ) ;
#120 = LENGTH_MEASURE_WITH_UNIT ( LENGTH_MEASURE( 0.02539999999999999897 ), #73 );
#121 = DIRECTION ( 'NONE',  ( 0.0000000000000000000, 0.0000000000000000000, 1.000000000000000000 ) ) ;
#122 = DIRECTION ( 'NONE',  ( -1.224646799147352961E-16, -0.0000000000000000000, -1.000000000000000000 ) ) ;
#123 = CIRCLE ( 'NONE', #136, 0.01966531499999995408 ) ;
#124 = CARTESIAN_POINT ( 'NONE',  ( 0.0000000000000000000, 0.0000000000000000000, 0.0000000000000000000 ) ) ;
#125 = CARTESIAN_POINT ( 'NONE',  ( 0.04405500000000001082, 5.395181473643666598E-18, 1.496062999999999921 ) ) ;
#126 = CARTESIAN_POINT ( 'NONE',  ( -0.04405500000000001082, 0.0000000000000000000, 1.496062999999999921 ) ) ;
#127 = ORIENTED_EDGE ( 'NONE', *, *, #29, .T. ) ;
#128 = ADVANCED_FACE ( 'NONE', ( #292 ), #226, .T. ) ;
#129 = VECTOR ( 'NONE', #183, 39.37007874015748143 ) ;
#130 = MECHANICAL_DESIGN_GEOMETRIC_PRESENTATION_REPRESENTATION (  '', ( #201 ), #48 ) ;
#131 = CARTESIAN_POINT ( 'NONE',  ( 0.01966531499999996796, 2.408306506897438479E-18, -4.739000847409537175E-34 ) ) ;
#132 = CARTESIAN_POINT ( 'NONE',  ( 2.949324855037690456E-34, 0.0000000000000000000, 2.408306506897438479E-18 ) ) ;
#133 = DIRECTION ( 'NONE',  ( -1.000000000000000000, 0.0000000000000000000, 0.0000000000000000000 ) ) ;
#134 = DIMENSIONAL_EXPONENTS ( 1.000000000000000000, 0.0000000000000000000, 0.0000000000000000000, 0.0000000000000000000, 0.0000000000000000000, 0.0000000000000000000, 0.0000000000000000000 ) ;
#135 = AXIS2_PLACEMENT_3D ( 'NONE', #56, #122, #77 ) ;
#136 = AXIS2_PLACEMENT_3D ( 'NONE', #269, #293, #289 ) ;
#137 = DIRECTION ( 'NONE',  ( 0.1736481776669314969, 0.0000000000000000000, 0.9848077530122077983 ) ) ;
#138 = EDGE_CURVE ( 'NONE', #81, #36, #140, .T. ) ;
#139 = DIRECTION ( 'NONE',  ( 0.0000000000000000000, 0.0000000000000000000, -1.000000000000000000 ) ) ;
#140 = LINE ( 'NONE', #109, #119 ) ;
#141 = EDGE_CURVE ( 'NONE', #223, #72, #163, .T. ) ;
#142 = MECHANICAL_DESIGN_GEOMETRIC_PRESENTATION_REPRESENTATION (  '', ( #217 ), #61 ) ;
#143 = PRESENTATION_STYLE_ASSIGNMENT (( #296 ) ) ;
#144 = ORIENTED_EDGE ( 'NONE', *, *, #222, .F. ) ;
#145 = EDGE_CURVE ( 'NONE', #116, #223, #66, .T. ) ;
#146 = EDGE_LOOP ( 'NONE', ( #285, #196 ) ) ;
#147 = SURFACE_SIDE_STYLE ('',( #46 ) ) ;
#148 = CIRCLE ( 'NONE', #135, 0.01966531499999995408 ) ;
#149 = UNCERTAINTY_MEASURE_WITH_UNIT (LENGTH_MEASURE( 1.000000000000000082E-05 ), #277, 'distance_accuracy_value', 'NONE');
#150 =( NAMED_UNIT ( * ) SI_UNIT ( $, .STERADIAN. ) SOLID_ANGLE_UNIT ( ) );
#151 = ORIENTED_EDGE ( 'NONE', *, *, #246, .F. ) ;
#152 = FACE_OUTER_BOUND ( 'NONE', #155, .T. ) ;
#153 = AXIS2_PLACEMENT_3D ( 'NONE', #39, #185, #68 ) ;
#154 = LINE ( 'NONE', #241, #250 ) ;
#155 = EDGE_LOOP ( 'NONE', ( #234, #235, #262, #233 ) ) ;
#156 = EDGE_LOOP ( 'NONE', ( #260, #59, #243, #82 ) ) ;
#157 = AXIS2_PLACEMENT_3D ( 'NONE', #65, #13, #112 ) ;
#158 = AXIS2_PLACEMENT_3D ( 'NONE', #230, #64, #19 ) ;
#159 = CARTESIAN_POINT ( 'NONE',  ( 0.05905500000000002414, 7.232151672364696963E-18, 0.3415000044209671182 ) ) ;
#160 = CARTESIAN_POINT ( 'NONE',  ( 0.0000000000000000000, 0.0000000000000000000, 1.496062999999999921 ) ) ;
#161 = ADVANCED_FACE ( 'NONE', ( #203 ), #35, .T. ) ;
#162 = CARTESIAN_POINT ( 'NONE',  ( 4.182168873229443489E-17, 0.0000000000000000000, 0.3415000044209671182 ) ) ;
#163 = CIRCLE ( 'NONE', #60, 0.05905499999999998251 ) ;
#164 = PRODUCT_DEFINITION_FORMATION_WITH_SPECIFIED_SOURCE ( 'ANY', '', #27, .NOT_KNOWN. ) ;
#165 = DIRECTION ( 'NONE',  ( -1.224646799147352961E-16, -0.0000000000000000000, -1.000000000000000000 ) ) ;
#166 = DIRECTION ( 'NONE',  ( -1.224646799147352961E-16, -0.0000000000000000000, -1.000000000000000000 ) ) ;
#167 = EDGE_CURVE ( 'NONE', #81, #43, #206, .T. ) ;
#168 =( NAMED_UNIT ( * ) PLANE_ANGLE_UNIT ( ) SI_UNIT ( $, .RADIAN. ) );
#169 = CIRCLE ( 'NONE', #298, 0.04405500000000001082 ) ;
#170 = ORIENTED_EDGE ( 'NONE', *, *, #51, .F. ) ;
#171 = ADVANCED_FACE ( 'NONE', ( #20 ), #291, .T. ) ;
#172 = LENGTH_MEASURE_WITH_UNIT ( LENGTH_MEASURE( 0.02539999999999999897 ), #49 );
#173 = ORIENTED_EDGE ( 'NONE', *, *, #145, .F. ) ;
#174 = VECTOR ( 'NONE', #225, 39.37007874015748143 ) ;
#175 = ORIENTED_EDGE ( 'NONE', *, *, #215, .T. ) ;
#176 = DIRECTION ( 'NONE',  ( 0.0000000000000000000, 0.0000000000000000000, -1.000000000000000000 ) ) ;
#177 = DIRECTION ( 'NONE',  ( -1.224646799147352961E-16, -0.0000000000000000000, -1.000000000000000000 ) ) ;
#178 = CYLINDRICAL_SURFACE ( 'NONE', #190, 0.05905499999999998251 ) ;
#179 = CARTESIAN_POINT ( 'NONE',  ( 0.0000000000000000000, 0.0000000000000000000, 0.0000000000000000000 ) ) ;
#180 = CARTESIAN_POINT ( 'NONE',  ( 0.04405500000000001082, 6.313666573004179469E-18, 1.496062999999999921 ) ) ;
#181 = CIRCLE ( 'NONE', #259, 0.05905499999999998251 ) ;
#182 = DIRECTION ( 'NONE',  ( 1.000000000000000000, 0.0000000000000000000, 0.0000000000000000000 ) ) ;
#183 = DIRECTION ( 'NONE',  ( -0.0000000000000000000, -0.0000000000000000000, -1.000000000000000000 ) ) ;
#184 = CARTESIAN_POINT ( 'NONE',  ( 0.0000000000000000000, 0.0000000000000000000, 1.481063000000000240 ) ) ;
#185 = DIRECTION ( 'NONE',  ( -1.224646799147352961E-16, -0.0000000000000000000, -1.000000000000000000 ) ) ;
#186 = DIRECTION ( 'NONE',  ( 0.0000000000000000000, 0.0000000000000000000, -1.000000000000000000 ) ) ;
#187 = ORIENTED_EDGE ( 'NONE', *, *, #215, .F. ) ;
#188 = CONICAL_SURFACE ( 'NONE', #158, 0.01966531499999995408, 0.1745329251994340025 ) ;
#189 = LENGTH_MEASURE_WITH_UNIT ( LENGTH_MEASURE( 0.02539999999999999897 ), #212 );
#190 = AXIS2_PLACEMENT_3D ( 'NONE', #244, #8, #55 ) ;
#191 = ORIENTED_EDGE ( 'NONE', *, *, #242, .T. ) ;
#192 = EDGE_CURVE ( 'NONE', #74, #34, #17, .T. ) ;
#193 = AXIS2_PLACEMENT_3D ( 'NONE', #132, #165, #231 ) ;
#194 = FACE_OUTER_BOUND ( 'NONE', #220, .T. ) ;
#195 = DIRECTION ( 'NONE',  ( 0.0000000000000000000, 0.0000000000000000000, 1.000000000000000000 ) ) ;
#196 = ORIENTED_EDGE ( 'NONE', *, *, #246, .T. ) ;
#197 = DIRECTION ( 'NONE',  ( 0.0000000000000000000, 0.0000000000000000000, -1.000000000000000000 ) ) ;
#198 = CARTESIAN_POINT ( 'NONE',  ( 0.01966531499999996796, 0.0000000000000000000, 0.1181099999999999650 ) ) ;
#199 = DIRECTION ( 'NONE',  ( 1.000000000000000000, 0.0000000000000000000, 0.0000000000000000000 ) ) ;
#200 = EDGE_CURVE ( 'NONE', #36, #72, #88, .T. ) ;
#201 = STYLED_ITEM ( 'NONE', ( #143 ), #294 ) ;
#202 = CARTESIAN_POINT ( 'NONE',  ( 0.0000000000000000000, 0.0000000000000000000, 1.496062999999999921 ) ) ;
#203 = FACE_OUTER_BOUND ( 'NONE', #26, .T. ) ;
#204 = FACE_OUTER_BOUND ( 'NONE', #118, .T. ) ;
#205 = CLOSED_SHELL ( 'NONE', ( #171, #276, #161, #63, #290, #128, #98, #84, #57, #107 ) ) ;
#206 = CIRCLE ( 'NONE', #79, 0.04405500000000001082 ) ;
#207 = LINE ( 'NONE', #14, #245 ) ;
#208 = SURFACE_STYLE_FILL_AREA ( #117 ) ;
#209 = APPLICATION_CONTEXT ( 'automotive_design' ) ;
#210 = PRODUCT_DEFINITION_SHAPE ( 'NONE', 'NONE',  #295 ) ;
#211 = SURFACE_SIDE_STYLE ('',( #208 ) ) ;
#212 =( LENGTH_UNIT ( ) NAMED_UNIT ( * ) SI_UNIT ( $, .METRE. ) );
#213 = ORIENTED_EDGE ( 'NONE', *, *, #228, .F. ) ;
#214 = FILL_AREA_STYLE_COLOUR ( '', #69 ) ;
#215 = EDGE_CURVE ( 'NONE', #257, #72, #207, .T. ) ;
#216 = CARTESIAN_POINT ( 'NONE',  ( -0.05905499999999998251, 0.0000000000000000000, 1.481063000000000240 ) ) ;
#217 = STYLED_ITEM ( 'NONE', ( #99 ), #7 ) ;
#218 = APPLICATION_PROTOCOL_DEFINITION ( 'draft international standard', 'automotive_design', 1998, #209 ) ;
#219 = PLANE ( 'NONE',  #258 ) ;
#220 = EDGE_LOOP ( 'NONE', ( #170, #297, #30, #22 ) ) ;
#221 = FACE_OUTER_BOUND ( 'NONE', #280, .T. ) ;
#222 = EDGE_CURVE ( 'NONE', #257, #45, #123, .T. ) ;
#223 = VERTEX_POINT ( 'NONE', #159 ) ;
#224 = VECTOR ( 'NONE', #106, 39.37007874015748854 ) ;
#225 = DIRECTION ( 'NONE',  ( -1.224646799147352961E-16, -0.0000000000000000000, -1.000000000000000000 ) ) ;
#226 = PLANE ( 'NONE',  #157 ) ;
#227 = DIRECTION ( 'NONE',  ( -0.1736481776669312749, 2.126576849575784241E-17, 0.9848077530122077983 ) ) ;
#228 = EDGE_CURVE ( 'NONE', #36, #116, #237, .T. ) ;
#229 = DIMENSIONAL_EXPONENTS ( 1.000000000000000000, 0.0000000000000000000, 0.0000000000000000000, 0.0000000000000000000, 0.0000000000000000000, 0.0000000000000000000, 0.0000000000000000000 ) ;
#230 = CARTESIAN_POINT ( 'NONE',  ( 1.446430334472938160E-17, 0.0000000000000000000, 0.1181099999999999650 ) ) ;
#231 = DIRECTION ( 'NONE',  ( -1.000000000000000000, 0.0000000000000000000, 1.224646799147352714E-16 ) ) ;
#232 = APPLICATION_PROTOCOL_DEFINITION ( 'draft international standard', 'automotive_design', 1998, #44 ) ;
#233 = ORIENTED_EDGE ( 'NONE', *, *, #242, .F. ) ;
#234 = ORIENTED_EDGE ( 'NONE', *, *, #16, .F. ) ;
#235 = ORIENTED_EDGE ( 'NONE', *, *, #93, .T. ) ;
#236 = UNCERTAINTY_MEASURE_WITH_UNIT (LENGTH_MEASURE( 1.000000000000000082E-05 ), #28, 'distance_accuracy_value', 'NONE');
#237 = CIRCLE ( 'NONE', #105, 0.05905499999999998251 ) ;
#238 = DIRECTION ( 'NONE',  ( 1.000000000000000000, 0.0000000000000000000, 0.0000000000000000000 ) ) ;
#239 = AXIS2_PLACEMENT_3D ( 'NONE', #108, #197, #267 ) ;
#240 = CARTESIAN_POINT ( 'NONE',  ( -0.01966531499999995755, 0.0000000000000000000, 2.408306506897437709E-18 ) ) ;
#241 = CARTESIAN_POINT ( 'NONE',  ( 0.01966531499999996796, 0.0000000000000000000, 0.1181099999999999650 ) ) ;
#242 = EDGE_CURVE ( 'NONE', #34, #74, #4, .T. ) ;
#243 = ORIENTED_EDGE ( 'NONE', *, *, #192, .F. ) ;
#244 = CARTESIAN_POINT ( 'NONE',  ( 0.0000000000000000000, 0.0000000000000000000, 1.496062999999999921 ) ) ;
#245 = VECTOR ( 'NONE', #227, 39.37007874015748143 ) ;
#246 = EDGE_CURVE ( 'NONE', #43, #81, #169, .T. ) ;
#247 = FACE_OUTER_BOUND ( 'NONE', #92, .T. ) ;
#248 = CYLINDRICAL_SURFACE ( 'NONE', #31, 0.05905499999999998251 ) ;
#249 = DIRECTION ( 'NONE',  ( 1.000000000000000000, 0.0000000000000000000, 0.0000000000000000000 ) ) ;
#250 = VECTOR ( 'NONE', #137, 39.37007874015748143 ) ;
#251 = CARTESIAN_POINT ( 'NONE',  ( 0.0000000000000000000, 0.0000000000000000000, 1.496062999999999921 ) ) ;
#252 = DIRECTION ( 'NONE',  ( -1.000000000000000000, 0.0000000000000000000, 1.224646799147352714E-16 ) ) ;
#253 = CIRCLE ( 'NONE', #239, 0.05905499999999998251 ) ;
#254 = AXIS2_PLACEMENT_3D ( 'NONE', #124, #121, #76 ) ;
#255 = ORIENTED_EDGE ( 'NONE', *, *, #200, .T. ) ;
#256 = ORIENTED_EDGE ( 'NONE', *, *, #192, .T. ) ;
#257 = VERTEX_POINT ( 'NONE', #41 ) ;
#258 = AXIS2_PLACEMENT_3D ( 'NONE', #102, #195, #282 ) ;
#259 = AXIS2_PLACEMENT_3D ( 'NONE', #270, #87, #18 ) ;
#260 = ORIENTED_EDGE ( 'NONE', *, *, #222, .T. ) ;
#261 = ORIENTED_EDGE ( 'NONE', *, *, #264, .T. ) ;
#262 = ORIENTED_EDGE ( 'NONE', *, *, #6, .T. ) ;
#263 = DIRECTION ( 'NONE',  ( -1.000000000000000000, 0.0000000000000000000, 0.0000000000000000000 ) ) ;
#264 = EDGE_CURVE ( 'NONE', #72, #223, #181, .T. ) ;
#265 = ORIENTED_EDGE ( 'NONE', *, *, #264, .F. ) ;
#266 = CARTESIAN_POINT ( 'NONE',  ( 1.446430334472938160E-17, 0.0000000000000000000, 0.1181099999999999650 ) ) ;
#267 = DIRECTION ( 'NONE',  ( 1.000000000000000000, 0.0000000000000000000, 0.0000000000000000000 ) ) ;
#268 = FACE_OUTER_BOUND ( 'NONE', #104, .T. ) ;
#269 = CARTESIAN_POINT ( 'NONE',  ( 1.446430334472938160E-17, 0.0000000000000000000, 0.1181099999999999650 ) ) ;
#270 = CARTESIAN_POINT ( 'NONE',  ( 4.182168873229443489E-17, 0.0000000000000000000, 0.3415000044209671182 ) ) ;
#271 = CARTESIAN_POINT ( 'NONE',  ( 2.949324855037690456E-34, 0.0000000000000000000, 2.408306506897438479E-18 ) ) ;
#272 = VECTOR ( 'NONE', #101, 39.37007874015748143 ) ;
#273 = COLOUR_RGB ( '',0.7921568627450980005, 0.8196078431372548767, 0.9333333333333333481 ) ;
#274 = CARTESIAN_POINT ( 'NONE',  ( 0.05905499999999998251, 7.232151672364692341E-18, 1.481063000000000240 ) ) ;
#275 = DIRECTION ( 'NONE',  ( -1.224646799147352961E-16, -0.0000000000000000000, -1.000000000000000000 ) ) ;
#276 = ADVANCED_FACE ( 'NONE', ( #247 ), #188, .T. ) ;
#277 =( CONVERSION_BASED_UNIT ( 'INCH', #189 ) LENGTH_UNIT ( ) NAMED_UNIT ( #134 ) );
#278 = DIMENSIONAL_EXPONENTS ( 1.000000000000000000, 0.0000000000000000000, 0.0000000000000000000, 0.0000000000000000000, 0.0000000000000000000, 0.0000000000000000000, 0.0000000000000000000 ) ;
#279 = ORIENTED_EDGE ( 'NONE', *, *, #115, .F. ) ;
#280 = EDGE_LOOP ( 'NONE', ( #187, #24, #75, #97 ) ) ;
#281 = CARTESIAN_POINT ( 'NONE',  ( 0.0000000000000000000, 0.0000000000000000000, 1.496062999999999921 ) ) ;
#282 = DIRECTION ( 'NONE',  ( 1.000000000000000000, 0.0000000000000000000, -0.0000000000000000000 ) ) ;
#283 = CARTESIAN_POINT ( 'NONE',  ( -0.01966531499999996796, 0.0000000000000000000, 4.816613013794876958E-18 ) ) ;
#284 = PRODUCT_RELATED_PRODUCT_CATEGORY ( 'part', '', ( #27 ) ) ;
#285 = ORIENTED_EDGE ( 'NONE', *, *, #167, .T. ) ;
#286 = PRODUCT_DEFINITION_CONTEXT ( 'detailed design', #209, 'design' ) ;
#287 = ORIENTED_EDGE ( 'NONE', *, *, #138, .F. ) ;
#288 = DIRECTION ( 'NONE',  ( 0.0000000000000000000, 0.0000000000000000000, 1.000000000000000000 ) ) ;
#289 = DIRECTION ( 'NONE',  ( -1.000000000000000000, 0.0000000000000000000, 0.0000000000000000000 ) ) ;
#290 = ADVANCED_FACE ( 'NONE', ( #204 ), #248, .T. ) ;
#291 = CYLINDRICAL_SURFACE ( 'NONE', #153, 0.01966531499999995755 ) ;
#292 = FACE_OUTER_BOUND ( 'NONE', #146, .T. ) ;
#293 = DIRECTION ( 'NONE',  ( -1.224646799147352961E-16, -0.0000000000000000000, -1.000000000000000000 ) ) ;
#294 = MANIFOLD_SOLID_BREP ( 'Cut-Revolve1', #205 ) ;
#295 = PRODUCT_DEFINITION ( 'UNKNOWN', '', #164, #286 ) ;
#296 = SURFACE_STYLE_USAGE ( .BOTH. , #211 ) ;
#297 = ORIENTED_EDGE ( 'NONE', *, *, #167, .F. ) ;
#298 = AXIS2_PLACEMENT_3D ( 'NONE', #251, #288, #182 ) ;
#299 = FILL_AREA_STYLE_COLOUR ( '', #273 ) ;
ENDSEC;
END-ISO-10303-21;
