ISO-10303-21;
HEADER;
FILE_DESCRIPTION (( 'STEP AP214' ),
    '1' );
FILE_NAME ('Micro_BEMM-180-2X.STEP',
    '2021-09-03T13:37:22',
    ( '' ),
    ( '' ),
    'SwSTEP 2.0',
    'SolidWorks 2020',
    '' );
FILE_SCHEMA (( 'AUTOMOTIVE_DESIGN' ));
ENDSEC;

DATA;
#1 = VERTEX_POINT ( 'NONE', #108 ) ;
#2 = LINE ( 'NONE', #101, #282 ) ;
#3 = CLOSED_SHELL ( 'NONE', ( #225, #179, #313, #39, #286, #243, #139, #321, #307, #150, #119 ) ) ;
#4 = ORIENTED_EDGE ( 'NONE', *, *, #203, .F. ) ;
#5 = EDGE_LOOP ( 'NONE', ( #95, #276, #33, #254 ) ) ;
#6 = DIRECTION ( 'NONE',  ( -0.0000000000000000000, -0.0000000000000000000, -1.000000000000000000 ) ) ;
#7 = EDGE_CURVE ( 'NONE', #205, #147, #244, .T. ) ;
#8 = CIRCLE ( 'NONE', #159, 0.3539761694999999375 ) ;
#9 = ORIENTED_EDGE ( 'NONE', *, *, #295, .F. ) ;
#10 = DIRECTION ( 'NONE',  ( -1.000000000000000000, 0.0000000000000000000, 0.0000000000000000000 ) ) ;
#11 = DIRECTION ( 'NONE',  ( 0.7071067811865346942, 8.659560562354773853E-17, -0.7071067811865603403 ) ) ;
#12 = DIRECTION ( 'NONE',  ( 0.0000000000000000000, 0.0000000000000000000, -1.000000000000000000 ) ) ;
#13 = DIRECTION ( 'NONE',  ( 0.0000000000000000000, 0.0000000000000000000, -1.000000000000000000 ) ) ;
#14 = DIRECTION ( 'NONE',  ( 0.0000000000000000000, 0.0000000000000000000, -1.000000000000000000 ) ) ;
#15 = DIRECTION ( 'NONE',  ( 1.000000000000000000, 0.0000000000000000000, 0.0000000000000000000 ) ) ;
#16 = EDGE_CURVE ( 'NONE', #102, #76, #121, .T. ) ;
#17 = VECTOR ( 'NONE', #11, 39.37007874015748143 ) ;
#18 = AXIS2_PLACEMENT_3D ( 'NONE', #173, #75, #302 ) ;
#19 =( CONVERSION_BASED_UNIT ( 'INCH', #156 ) LENGTH_UNIT ( ) NAMED_UNIT ( #161 ) );
#20 = DIRECTION ( 'NONE',  ( 1.000000000000000000, 0.0000000000000000000, 0.0000000000000000000 ) ) ;
#21 = CIRCLE ( 'NONE', #317, 0.3539761694999999375 ) ;
#22 = AXIS2_PLACEMENT_3D ( 'NONE', #72, #277, #10 ) ;
#23 = ADVANCED_BREP_SHAPE_REPRESENTATION ( 'Micro_BEMM-180-2X', ( #178, #250 ), #82 ) ;
#24 =( CONVERSION_BASED_UNIT ( 'INCH', #27 ) LENGTH_UNIT ( ) NAMED_UNIT ( #296 ) );
#25 = ORIENTED_EDGE ( 'NONE', *, *, #214, .F. ) ;
#26 = SURFACE_SIDE_STYLE ('',( #255 ) ) ;
#27 = LENGTH_MEASURE_WITH_UNIT ( LENGTH_MEASURE( 0.02539999999999999897 ), #245 );
#28 = ORIENTED_EDGE ( 'NONE', *, *, #99, .T. ) ;
#29 = DIRECTION ( 'NONE',  ( -1.000000000000000000, 0.0000000000000000000, 1.224646799147352961E-16 ) ) ;
#30 = CARTESIAN_POINT ( 'NONE',  ( 4.334957829526159343E-17, 0.0000000000000000000, 0.3539761694999999930 ) ) ;
#31 = DIRECTION ( 'NONE',  ( 1.000000000000000000, 0.0000000000000000000, 0.0000000000000000000 ) ) ;
#32 = CARTESIAN_POINT ( 'NONE',  ( 4.334957829526159343E-17, 0.0000000000000000000, 0.3539761694999999930 ) ) ;
#33 = ORIENTED_EDGE ( 'NONE', *, *, #34, .F. ) ;
#34 = EDGE_CURVE ( 'NONE', #48, #263, #257, .T. ) ;
#35 = DIRECTION ( 'NONE',  ( -1.000000000000000000, 0.0000000000000000000, 0.0000000000000000000 ) ) ;
#36 = SURFACE_STYLE_FILL_AREA ( #136 ) ;
#37 = CONICAL_SURFACE ( 'NONE', #212, 0.3539761694999999375, 0.1745329251994339470 ) ;
#38 = FACE_OUTER_BOUND ( 'NONE', #182, .T. ) ;
#39 = ADVANCED_FACE ( 'NONE', ( #106 ), #204, .T. ) ;
#40 = CARTESIAN_POINT ( 'NONE',  ( 0.0000000000000000000, 0.0000000000000000000, 3.622047000000000239 ) ) ;
#41 = CARTESIAN_POINT ( 'NONE',  ( 2.169650400296604887E-16, 0.0000000000000000000, 1.771654000000000062 ) ) ;
#42 = VECTOR ( 'NONE', #216, 39.37007874015748143 ) ;
#43 = ORIENTED_EDGE ( 'NONE', *, *, #7, .T. ) ;
#44 = CARTESIAN_POINT ( 'NONE',  ( 0.3543304999999999927, 4.339297126652812347E-17, 3.607046999999999670 ) ) ;
#45 = VERTEX_POINT ( 'NONE', #80 ) ;
#46 = CARTESIAN_POINT ( 'NONE',  ( 0.3539761695000001041, 0.0000000000000000000, 1.771654000000000062 ) ) ;
#47 = CIRCLE ( 'NONE', #266, 0.3393305000000003124 ) ;
#48 = VERTEX_POINT ( 'NONE', #157 ) ;
#49 = EDGE_LOOP ( 'NONE', ( #25, #251, #28, #229 ) ) ;
#50 = ORIENTED_EDGE ( 'NONE', *, *, #281, .F. ) ;
#51 =( LENGTH_UNIT ( ) NAMED_UNIT ( * ) SI_UNIT ( $, .METRE. ) );
#52 = APPLICATION_CONTEXT ( 'automotive_design' ) ;
#53 =( LENGTH_UNIT ( ) NAMED_UNIT ( * ) SI_UNIT ( $, .METRE. ) );
#54 = STYLED_ITEM ( 'NONE', ( #104 ), #23 ) ;
#55 = DIRECTION ( 'NONE',  ( 1.224646799147353207E-16, 0.0000000000000000000, 1.000000000000000000 ) ) ;
#56 = DIRECTION ( 'NONE',  ( 1.000000000000000000, 0.0000000000000000000, 0.0000000000000000000 ) ) ;
#57 = APPLICATION_PROTOCOL_DEFINITION ( 'draft international standard', 'automotive_design', 1998, #233 ) ;
#58 = CARTESIAN_POINT ( 'NONE',  ( 0.0000000000000000000, 0.0000000000000000000, 3.607046999999999670 ) ) ;
#59 = PRODUCT_DEFINITION_SHAPE ( 'NONE', 'NONE',  #165 ) ;
#60 = VECTOR ( 'NONE', #247, 39.37007874015748143 ) ;
#61 = ORIENTED_EDGE ( 'NONE', *, *, #260, .T. ) ;
#62 = CARTESIAN_POINT ( 'NONE',  ( 0.3539761694999999930, 4.334957829526158110E-17, 0.3539761694999999375 ) ) ;
#63 = LINE ( 'NONE', #92, #325 ) ;
#64 = STYLED_ITEM ( 'NONE', ( #208 ), #178 ) ;
#65 = DIRECTION ( 'NONE',  ( -0.0000000000000000000, -0.0000000000000000000, -1.000000000000000000 ) ) ;
#66 = CYLINDRICAL_SURFACE ( 'NONE', #207, 0.3543304999999999927 ) ;
#67 = CARTESIAN_POINT ( 'NONE',  ( 6.502436744289238398E-17, 0.0000000000000000000, 0.0000000000000000000 ) ) ;
#68 = EDGE_CURVE ( 'NONE', #226, #45, #168, .T. ) ;
#69 = DIRECTION ( 'NONE',  ( -0.0000000000000000000, -0.0000000000000000000, -1.000000000000000000 ) ) ;
#70 = CARTESIAN_POINT ( 'NONE',  ( 4.334957829526159343E-17, 0.0000000000000000000, 0.3539761694999999930 ) ) ;
#71 = UNCERTAINTY_MEASURE_WITH_UNIT (LENGTH_MEASURE( 1.000000000000000082E-05 ), #129, 'distance_accuracy_value', 'NONE');
#72 = CARTESIAN_POINT ( 'NONE',  ( 0.0000000000000000000, 0.0000000000000000000, 3.622047000000000239 ) ) ;
#73 = EDGE_CURVE ( 'NONE', #263, #48, #114, .T. ) ;
#74 = ORIENTED_EDGE ( 'NONE', *, *, #203, .T. ) ;
#75 = DIRECTION ( 'NONE',  ( -0.0000000000000000000, -0.0000000000000000000, -1.000000000000000000 ) ) ;
#76 = VERTEX_POINT ( 'NONE', #287 ) ;
#77 = DIRECTION ( 'NONE',  ( 1.000000000000000000, 0.0000000000000000000, 0.0000000000000000000 ) ) ;
#78 = EDGE_LOOP ( 'NONE', ( #197, #256, #50 ) ) ;
#79 = DIRECTION ( 'NONE',  ( -1.224646799147353207E-16, -0.0000000000000000000, -1.000000000000000000 ) ) ;
#80 = CARTESIAN_POINT ( 'NONE',  ( -0.3543304999999997706, 0.0000000000000000000, 1.773663508122786725 ) ) ;
#81 = AXIS2_PLACEMENT_3D ( 'NONE', #58, #14, #209 ) ;
#82 =( GEOMETRIC_REPRESENTATION_CONTEXT ( 3 ) GLOBAL_UNCERTAINTY_ASSIGNED_CONTEXT ( ( #239 ) ) GLOBAL_UNIT_ASSIGNED_CONTEXT ( ( #24, #123, #224 ) ) REPRESENTATION_CONTEXT ( 'NONE', 'WORKASPACE' ) );
#83 = DIRECTION ( 'NONE',  ( -1.224646799147353207E-16, -0.0000000000000000000, -1.000000000000000000 ) ) ;
#84 = FILL_AREA_STYLE_COLOUR ( '', #262 ) ;
#85 = DIRECTION ( 'NONE',  ( 0.0000000000000000000, 0.0000000000000000000, 1.000000000000000000 ) ) ;
#86 = CARTESIAN_POINT ( 'NONE',  ( 0.3393305000000003124, 4.155600106780712238E-17, 3.622047000000000239 ) ) ;
#87 = CONICAL_SURFACE ( 'NONE', #220, 0.3539761694999999375, 0.1745329251994339470 ) ;
#88 = ORIENTED_EDGE ( 'NONE', *, *, #189, .F. ) ;
#89 = PRODUCT ( 'Micro_BEMM-180-2X', 'Micro_BEMM-180-2X', '', ( #284 ) ) ;
#90 = CARTESIAN_POINT ( 'NONE',  ( 0.3539761694999999375, 4.334957829526158110E-17, -4.334957829526158110E-17 ) ) ;
#91 = DIRECTION ( 'NONE',  ( 0.0000000000000000000, 1.000000000000000000, 0.0000000000000000000 ) ) ;
#92 = CARTESIAN_POINT ( 'NONE',  ( -0.3543304999999999927, 0.0000000000000000000, 3.622047000000000239 ) ) ;
#93 =( NAMED_UNIT ( * ) PLANE_ANGLE_UNIT ( ) SI_UNIT ( $, .RADIAN. ) );
#94 =( GEOMETRIC_REPRESENTATION_CONTEXT ( 3 ) GLOBAL_UNCERTAINTY_ASSIGNED_CONTEXT ( ( #253 ) ) GLOBAL_UNIT_ASSIGNED_CONTEXT ( ( #19, #93, #140 ) ) REPRESENTATION_CONTEXT ( 'NONE', 'WORKASPACE' ) );
#95 = ORIENTED_EDGE ( 'NONE', *, *, #153, .F. ) ;
#96 = AXIS2_PLACEMENT_3D ( 'NONE', #269, #91, #20 ) ;
#97 = EDGE_LOOP ( 'NONE', ( #149, #61, #132, #4 ) ) ;
#98 = LINE ( 'NONE', #46, #60 ) ;
#99 = EDGE_CURVE ( 'NONE', #303, #306, #211, .T. ) ;
#100 = ORIENTED_EDGE ( 'NONE', *, *, #219, .T. ) ;
#101 = CARTESIAN_POINT ( 'NONE',  ( 0.3543304999999999927, 4.339297126652812347E-17, 3.622047000000000239 ) ) ;
#102 = VERTEX_POINT ( 'NONE', #314 ) ;
#103 = FACE_OUTER_BOUND ( 'NONE', #124, .T. ) ;
#104 = PRESENTATION_STYLE_ASSIGNMENT (( #141 ) ) ;
#105 = CYLINDRICAL_SURFACE ( 'NONE', #196, 0.3539761694999999375 ) ;
#106 = FACE_OUTER_BOUND ( 'NONE', #5, .T. ) ;
#107 = MECHANICAL_DESIGN_GEOMETRIC_PRESENTATION_REPRESENTATION (  '', ( #64 ), #94 ) ;
#108 = CARTESIAN_POINT ( 'NONE',  ( 0.3539761695000001041, 0.0000000000000000000, 1.771654000000000062 ) ) ;
#109 =( NAMED_UNIT ( * ) PLANE_ANGLE_UNIT ( ) SI_UNIT ( $, .RADIAN. ) );
#110 = SURFACE_STYLE_USAGE ( .BOTH. , #195 ) ;
#111 = PRODUCT_RELATED_PRODUCT_CATEGORY ( 'part', '', ( #89 ) ) ;
#112 = DIRECTION ( 'NONE',  ( 1.000000000000000000, 0.0000000000000000000, 0.0000000000000000000 ) ) ;
#113 = DIRECTION ( 'NONE',  ( 1.000000000000000000, 0.0000000000000000000, 0.0000000000000000000 ) ) ;
#114 = CIRCLE ( 'NONE', #241, 0.3543304999999999927 ) ;
#115 = PRESENTATION_LAYER_ASSIGNMENT (  '', '', ( #54 ) ) ;
#116 = FACE_OUTER_BOUND ( 'NONE', #143, .T. ) ;
#117 = FACE_OUTER_BOUND ( 'NONE', #78, .T. ) ;
#118 = SPHERICAL_SURFACE ( 'NONE', #96, 0.3539761694999999930 ) ;
#119 = ADVANCED_FACE ( 'NONE', ( #236 ), #283, .T. ) ;
#120 = CARTESIAN_POINT ( 'NONE',  ( 0.3543305000000002147, 4.339297126652815429E-17, 1.773663508122786725 ) ) ;
#121 = CIRCLE ( 'NONE', #311, 0.3393305000000003124 ) ;
#122 = EDGE_LOOP ( 'NONE', ( #274, #145, #162, #299 ) ) ;
#123 =( NAMED_UNIT ( * ) PLANE_ANGLE_UNIT ( ) SI_UNIT ( $, .RADIAN. ) );
#124 = EDGE_LOOP ( 'NONE', ( #88, #221, #223, #280 ) ) ;
#125 = DIRECTION ( 'NONE',  ( -1.000000000000000000, 0.0000000000000000000, 0.0000000000000000000 ) ) ;
#126 = FACE_OUTER_BOUND ( 'NONE', #278, .T. ) ;
#127 = EDGE_CURVE ( 'NONE', #76, #263, #315, .T. ) ;
#128 = ORIENTED_EDGE ( 'NONE', *, *, #281, .T. ) ;
#129 =( CONVERSION_BASED_UNIT ( 'INCH', #316 ) LENGTH_UNIT ( ) NAMED_UNIT ( #142 ) );
#130 = ORIENTED_EDGE ( 'NONE', *, *, #99, .F. ) ;
#131 = EDGE_CURVE ( 'NONE', #306, #147, #21, .T. ) ;
#132 = ORIENTED_EDGE ( 'NONE', *, *, #219, .F. ) ;
#133 = CIRCLE ( 'NONE', #242, 0.3543304999999999927 ) ;
#134 = DIRECTION ( 'NONE',  ( 0.0000000000000000000, 0.0000000000000000000, -1.000000000000000000 ) ) ;
#135 = DIRECTION ( 'NONE',  ( -1.224646799147353207E-16, -0.0000000000000000000, -1.000000000000000000 ) ) ;
#136 = FILL_AREA_STYLE ('',( #84 ) ) ;
#137 = CARTESIAN_POINT ( 'NONE',  ( 0.0000000000000000000, 0.0000000000000000000, 0.0000000000000000000 ) ) ;
#138 = DIRECTION ( 'NONE',  ( -1.224646799147353207E-16, -0.0000000000000000000, -1.000000000000000000 ) ) ;
#139 = ADVANCED_FACE ( 'NONE', ( #238 ), #215, .T. ) ;
#140 =( NAMED_UNIT ( * ) SI_UNIT ( $, .STERADIAN. ) SOLID_ANGLE_UNIT ( ) );
#141 = SURFACE_STYLE_USAGE ( .BOTH. , #26 ) ;
#142 = DIMENSIONAL_EXPONENTS ( 1.000000000000000000, 0.0000000000000000000, 0.0000000000000000000, 0.0000000000000000000, 0.0000000000000000000, 0.0000000000000000000, 0.0000000000000000000 ) ;
#143 = EDGE_LOOP ( 'NONE', ( #151, #154, #74, #175 ) ) ;
#144 = FACE_OUTER_BOUND ( 'NONE', #97, .T. ) ;
#145 = ORIENTED_EDGE ( 'NONE', *, *, #16, .F. ) ;
#146 = CARTESIAN_POINT ( 'NONE',  ( 2.169650400296604887E-16, 0.0000000000000000000, 1.771654000000000062 ) ) ;
#147 = VERTEX_POINT ( 'NONE', #62 ) ;
#148 = FILL_AREA_STYLE ('',( #309 ) ) ;
#149 = ORIENTED_EDGE ( 'NONE', *, *, #34, .T. ) ;
#150 = ADVANCED_FACE ( 'NONE', ( #231 ), #105, .T. ) ;
#151 = ORIENTED_EDGE ( 'NONE', *, *, #260, .F. ) ;
#152 = CARTESIAN_POINT ( 'NONE',  ( -0.3539761694999999375, 0.0000000000000000000, 4.334957829526158110E-17 ) ) ;
#153 = EDGE_CURVE ( 'NONE', #76, #102, #47, .T. ) ;
#154 = ORIENTED_EDGE ( 'NONE', *, *, #73, .T. ) ;
#155 = SHAPE_DEFINITION_REPRESENTATION ( #59, #23 ) ;
#156 = LENGTH_MEASURE_WITH_UNIT ( LENGTH_MEASURE( 0.02539999999999999897 ), #53 );
#157 = CARTESIAN_POINT ( 'NONE',  ( -0.3543304999999999927, 0.0000000000000000000, 3.607046999999999670 ) ) ;
#158 = CIRCLE ( 'NONE', #298, 0.3539761694999999375 ) ;
#159 = AXIS2_PLACEMENT_3D ( 'NONE', #202, #79, #200 ) ;
#160 = DIRECTION ( 'NONE',  ( 0.0000000000000000000, 1.000000000000000000, 0.0000000000000000000 ) ) ;
#161 = DIMENSIONAL_EXPONENTS ( 1.000000000000000000, 0.0000000000000000000, 0.0000000000000000000, 0.0000000000000000000, 0.0000000000000000000, 0.0000000000000000000, 0.0000000000000000000 ) ;
#162 = ORIENTED_EDGE ( 'NONE', *, *, #249, .T. ) ;
#163 = VECTOR ( 'NONE', #222, 39.37007874015748143 ) ;
#164 = DIRECTION ( 'NONE',  ( -1.000000000000000000, 0.0000000000000000000, 1.224646799147352961E-16 ) ) ;
#165 = PRODUCT_DEFINITION ( 'UNKNOWN', '', #318, #265 ) ;
#166 = DIRECTION ( 'NONE',  ( -1.224646799147353207E-16, -0.0000000000000000000, -1.000000000000000000 ) ) ;
#167 = CARTESIAN_POINT ( 'NONE',  ( 2.172111337987036080E-16, 0.0000000000000000000, 1.773663508122786725 ) ) ;
#168 = CIRCLE ( 'NONE', #270, 0.3543304999999999927 ) ;
#169 = CIRCLE ( 'NONE', #184, 0.3539761694999999930 ) ;
#170 = DIRECTION ( 'NONE',  ( 1.000000000000000000, 0.0000000000000000000, 0.0000000000000000000 ) ) ;
#171 = ORIENTED_EDGE ( 'NONE', *, *, #189, .T. ) ;
#172 = DIRECTION ( 'NONE',  ( 1.224646799147353207E-16, 0.0000000000000000000, 1.000000000000000000 ) ) ;
#173 = CARTESIAN_POINT ( 'NONE',  ( 0.0000000000000000000, 0.0000000000000000000, 3.622047000000000239 ) ) ;
#174 = VECTOR ( 'NONE', #292, 39.37007874015748143 ) ;
#175 = ORIENTED_EDGE ( 'NONE', *, *, #68, .F. ) ;
#176 = FACE_OUTER_BOUND ( 'NONE', #122, .T. ) ;
#177 = MECHANICAL_DESIGN_GEOMETRIC_PRESENTATION_REPRESENTATION (  '', ( #54 ), #193 ) ;
#178 = MANIFOLD_SOLID_BREP ( 'Fillet1', #3 ) ;
#179 = ADVANCED_FACE ( 'NONE', ( #38 ), #322, .T. ) ;
#180 = ORIENTED_EDGE ( 'NONE', *, *, #153, .T. ) ;
#181 = DIRECTION ( 'NONE',  ( 1.224646799147353207E-16, 0.0000000000000000000, 1.000000000000000000 ) ) ;
#182 = EDGE_LOOP ( 'NONE', ( #199, #272, #128, #130 ) ) ;
#183 = CARTESIAN_POINT ( 'NONE',  ( 2.172111337987036080E-16, 0.0000000000000000000, 1.773663508122786725 ) ) ;
#184 = AXIS2_PLACEMENT_3D ( 'NONE', #267, #194, #323 ) ;
#185 = DIRECTION ( 'NONE',  ( 0.0000000000000000000, 0.0000000000000000000, 1.000000000000000000 ) ) ;
#186 = DIRECTION ( 'NONE',  ( 0.0000000000000000000, -1.000000000000000000, 0.0000000000000000000 ) ) ;
#187 = CARTESIAN_POINT ( 'NONE',  ( 4.334957829526159343E-17, 0.0000000000000000000, 0.3539761694999999930 ) ) ;
#188 = AXIS2_PLACEMENT_3D ( 'NONE', #70, #172, #304 ) ;
#189 = EDGE_CURVE ( 'NONE', #303, #45, #217, .T. ) ;
#190 = CARTESIAN_POINT ( 'NONE',  ( 0.0000000000000000000, 0.0000000000000000000, 3.622047000000000239 ) ) ;
#191 = LINE ( 'NONE', #90, #42 ) ;
#192 = EDGE_CURVE ( 'NONE', #1, #303, #158, .T. ) ;
#193 =( GEOMETRIC_REPRESENTATION_CONTEXT ( 3 ) GLOBAL_UNCERTAINTY_ASSIGNED_CONTEXT ( ( #71 ) ) GLOBAL_UNIT_ASSIGNED_CONTEXT ( ( #129, #109, #210 ) ) REPRESENTATION_CONTEXT ( 'NONE', 'WORKASPACE' ) );
#194 = DIRECTION ( 'NONE',  ( 1.224646799147353207E-16, 1.000000000000000000, -0.0000000000000000000 ) ) ;
#195 = SURFACE_SIDE_STYLE ('',( #36 ) ) ;
#196 = AXIS2_PLACEMENT_3D ( 'NONE', #258, #213, #29 ) ;
#197 = ORIENTED_EDGE ( 'NONE', *, *, #7, .F. ) ;
#198 = LINE ( 'NONE', #300, #163 ) ;
#199 = ORIENTED_EDGE ( 'NONE', *, *, #268, .T. ) ;
#200 = DIRECTION ( 'NONE',  ( -1.000000000000000000, 0.0000000000000000000, 0.0000000000000000000 ) ) ;
#201 = ORIENTED_EDGE ( 'NONE', *, *, #16, .T. ) ;
#202 = CARTESIAN_POINT ( 'NONE',  ( 2.169650400296604887E-16, 0.0000000000000000000, 1.771654000000000062 ) ) ;
#203 = EDGE_CURVE ( 'NONE', #48, #45, #63, .T. ) ;
#204 = CONICAL_SURFACE ( 'NONE', #228, 0.3393305000000003124, 0.7853981633974300713 ) ;
#205 = VERTEX_POINT ( 'NONE', #67 ) ;
#206 = DIRECTION ( 'NONE',  ( 1.224646799147353207E-16, 0.0000000000000000000, 1.000000000000000000 ) ) ;
#207 = AXIS2_PLACEMENT_3D ( 'NONE', #40, #69, #125 ) ;
#208 = PRESENTATION_STYLE_ASSIGNMENT (( #110 ) ) ;
#209 = DIRECTION ( 'NONE',  ( 1.000000000000000000, 0.0000000000000000000, 0.0000000000000000000 ) ) ;
#210 =( NAMED_UNIT ( * ) SI_UNIT ( $, .STERADIAN. ) SOLID_ANGLE_UNIT ( ) );
#211 = LINE ( 'NONE', #152, #248 ) ;
#212 = AXIS2_PLACEMENT_3D ( 'NONE', #230, #206, #77 ) ;
#213 = DIRECTION ( 'NONE',  ( -1.224646799147353207E-16, -0.0000000000000000000, -1.000000000000000000 ) ) ;
#214 = EDGE_CURVE ( 'NONE', #1, #147, #191, .T. ) ;
#215 = PLANE ( 'NONE',  #320 ) ;
#216 = DIRECTION ( 'NONE',  ( -1.224646799147353207E-16, -0.0000000000000000000, -1.000000000000000000 ) ) ;
#217 = LINE ( 'NONE', #319, #174 ) ;
#218 = DIRECTION ( 'NONE',  ( -1.000000000000000000, 0.0000000000000000000, 0.0000000000000000000 ) ) ;
#219 = EDGE_CURVE ( 'NONE', #45, #226, #133, .T. ) ;
#220 = AXIS2_PLACEMENT_3D ( 'NONE', #146, #181, #252 ) ;
#221 = ORIENTED_EDGE ( 'NONE', *, *, #192, .F. ) ;
#222 = DIRECTION ( 'NONE',  ( -0.7071067811865346942, 0.0000000000000000000, -0.7071067811865603403 ) ) ;
#223 = ORIENTED_EDGE ( 'NONE', *, *, #295, .T. ) ;
#224 =( NAMED_UNIT ( * ) SI_UNIT ( $, .STERADIAN. ) SOLID_ANGLE_UNIT ( ) );
#225 = ADVANCED_FACE ( 'NONE', ( #117 ), #118, .T. ) ;
#226 = VERTEX_POINT ( 'NONE', #120 ) ;
#227 = CARTESIAN_POINT ( 'NONE',  ( -0.3539761694999998265, 0.0000000000000000000, 0.3539761695000000485 ) ) ;
#228 = AXIS2_PLACEMENT_3D ( 'NONE', #310, #12, #35 ) ;
#229 = ORIENTED_EDGE ( 'NONE', *, *, #131, .T. ) ;
#230 = CARTESIAN_POINT ( 'NONE',  ( 2.169650400296604887E-16, 0.0000000000000000000, 1.771654000000000062 ) ) ;
#231 = FACE_OUTER_BOUND ( 'NONE', #49, .T. ) ;
#232 = CARTESIAN_POINT ( 'NONE',  ( 0.0000000000000000000, 0.0000000000000000000, 3.607046999999999670 ) ) ;
#233 = APPLICATION_CONTEXT ( 'automotive_design' ) ;
#234 = CARTESIAN_POINT ( 'NONE',  ( 0.0000000000000000000, 0.0000000000000000000, 3.622047000000000239 ) ) ;
#235 = PRESENTATION_LAYER_ASSIGNMENT (  '', '', ( #64 ) ) ;
#236 = FACE_OUTER_BOUND ( 'NONE', #301, .T. ) ;
#237 = EDGE_CURVE ( 'NONE', #205, #306, #169, .T. ) ;
#238 = FACE_OUTER_BOUND ( 'NONE', #246, .T. ) ;
#239 = UNCERTAINTY_MEASURE_WITH_UNIT (LENGTH_MEASURE( 1.000000000000000082E-05 ), #24, 'distance_accuracy_value', 'NONE');
#240 = DIRECTION ( 'NONE',  ( -1.224646799147353207E-16, -0.0000000000000000000, -1.000000000000000000 ) ) ;
#241 = AXIS2_PLACEMENT_3D ( 'NONE', #232, #134, #15 ) ;
#242 = AXIS2_PLACEMENT_3D ( 'NONE', #167, #240, #170 ) ;
#243 = ADVANCED_FACE ( 'NONE', ( #116 ), #66, .T. ) ;
#244 = CIRCLE ( 'NONE', #293, 0.3539761694999999930 ) ;
#245 =( LENGTH_UNIT ( ) NAMED_UNIT ( * ) SI_UNIT ( $, .METRE. ) );
#246 = EDGE_LOOP ( 'NONE', ( #201, #180 ) ) ;
#247 = DIRECTION ( 'NONE',  ( 0.1736481776669314414, 0.0000000000000000000, 0.9848077530122077983 ) ) ;
#248 = VECTOR ( 'NONE', #83, 39.37007874015748143 ) ;
#249 = EDGE_CURVE ( 'NONE', #102, #48, #198, .T. ) ;
#250 = AXIS2_PLACEMENT_3D ( 'NONE', #288, #85, #31 ) ;
#251 = ORIENTED_EDGE ( 'NONE', *, *, #192, .T. ) ;
#252 = DIRECTION ( 'NONE',  ( 1.000000000000000000, 0.0000000000000000000, 0.0000000000000000000 ) ) ;
#253 = UNCERTAINTY_MEASURE_WITH_UNIT (LENGTH_MEASURE( 1.000000000000000082E-05 ), #19, 'distance_accuracy_value', 'NONE');
#254 = ORIENTED_EDGE ( 'NONE', *, *, #249, .F. ) ;
#255 = SURFACE_STYLE_FILL_AREA ( #148 ) ;
#256 = ORIENTED_EDGE ( 'NONE', *, *, #237, .T. ) ;
#257 = CIRCLE ( 'NONE', #81, 0.3543304999999999927 ) ;
#258 = CARTESIAN_POINT ( 'NONE',  ( 0.0000000000000000000, 0.0000000000000000000, 0.0000000000000000000 ) ) ;
#259 = DIRECTION ( 'NONE',  ( 0.0000000000000000000, 0.0000000000000000000, 1.000000000000000000 ) ) ;
#260 = EDGE_CURVE ( 'NONE', #263, #226, #2, .T. ) ;
#261 = DIRECTION ( 'NONE',  ( 1.000000000000000000, 0.0000000000000000000, 0.0000000000000000000 ) ) ;
#262 = COLOUR_RGB ( '',0.7921568627450980005, 0.8196078431372548767, 0.9333333333333333481 ) ;
#263 = VERTEX_POINT ( 'NONE', #44 ) ;
#264 = ORIENTED_EDGE ( 'NONE', *, *, #131, .F. ) ;
#265 = PRODUCT_DEFINITION_CONTEXT ( 'detailed design', #233, 'design' ) ;
#266 = AXIS2_PLACEMENT_3D ( 'NONE', #234, #285, #56 ) ;
#267 = CARTESIAN_POINT ( 'NONE',  ( 4.334957829526159343E-17, 0.0000000000000000000, 0.3539761694999999930 ) ) ;
#268 = EDGE_CURVE ( 'NONE', #303, #1, #8, .T. ) ;
#269 = CARTESIAN_POINT ( 'NONE',  ( 4.334957829526159343E-17, 0.0000000000000000000, 0.3539761694999999930 ) ) ;
#270 = AXIS2_PLACEMENT_3D ( 'NONE', #183, #135, #261 ) ;
#271 = CIRCLE ( 'NONE', #188, 0.3539761694999999375 ) ;
#272 = ORIENTED_EDGE ( 'NONE', *, *, #214, .T. ) ;
#273 = CARTESIAN_POINT ( 'NONE',  ( -0.3539761694999997155, 4.337127478089485229E-17, 1.771654000000000062 ) ) ;
#274 = ORIENTED_EDGE ( 'NONE', *, *, #127, .F. ) ;
#275 = CYLINDRICAL_SURFACE ( 'NONE', #18, 0.3543304999999999927 ) ;
#276 = ORIENTED_EDGE ( 'NONE', *, *, #127, .T. ) ;
#277 = DIRECTION ( 'NONE',  ( 0.0000000000000000000, 0.0000000000000000000, -1.000000000000000000 ) ) ;
#278 = EDGE_LOOP ( 'NONE', ( #308, #171, #100, #9 ) ) ;
#279 = APPLICATION_PROTOCOL_DEFINITION ( 'draft international standard', 'automotive_design', 1998, #52 ) ;
#280 = ORIENTED_EDGE ( 'NONE', *, *, #68, .T. ) ;
#281 = EDGE_CURVE ( 'NONE', #147, #306, #271, .T. ) ;
#282 = VECTOR ( 'NONE', #6, 39.37007874015748143 ) ;
#283 = SPHERICAL_SURFACE ( 'NONE', #297, 0.3539761694999999930 ) ;
#284 = PRODUCT_CONTEXT ( 'NONE', #52, 'mechanical' ) ;
#285 = DIRECTION ( 'NONE',  ( 0.0000000000000000000, 0.0000000000000000000, 1.000000000000000000 ) ) ;
#286 = ADVANCED_FACE ( 'NONE', ( #144 ), #275, .T. ) ;
#287 = CARTESIAN_POINT ( 'NONE',  ( 0.3393305000000003124, 4.247448616716761677E-17, 3.622047000000000239 ) ) ;
#288 = CARTESIAN_POINT ( 'NONE',  ( 0.0000000000000000000, 0.0000000000000000000, 0.0000000000000000000 ) ) ;
#289 = CARTESIAN_POINT ( 'NONE',  ( 0.0000000000000000000, 0.0000000000000000000, 3.622047000000000239 ) ) ;
#290 = COLOUR_RGB ( '',0.7921568627450980005, 0.8196078431372548767, 0.9333333333333333481 ) ;
#291 = DIRECTION ( 'NONE',  ( 1.000000000000000000, 0.0000000000000000000, -0.0000000000000000000 ) ) ;
#292 = DIRECTION ( 'NONE',  ( -0.1736481776669312194, 2.126576849575783625E-17, 0.9848077530122077983 ) ) ;
#293 = AXIS2_PLACEMENT_3D ( 'NONE', #32, #186, #13 ) ;
#294 = CONICAL_SURFACE ( 'NONE', #22, 0.3393305000000003124, 0.7853981633974300713 ) ;
#295 = EDGE_CURVE ( 'NONE', #1, #226, #98, .T. ) ;
#296 = DIMENSIONAL_EXPONENTS ( 1.000000000000000000, 0.0000000000000000000, 0.0000000000000000000, 0.0000000000000000000, 0.0000000000000000000, 0.0000000000000000000, 0.0000000000000000000 ) ;
#297 = AXIS2_PLACEMENT_3D ( 'NONE', #30, #160, #113 ) ;
#298 = AXIS2_PLACEMENT_3D ( 'NONE', #41, #166, #218 ) ;
#299 = ORIENTED_EDGE ( 'NONE', *, *, #73, .F. ) ;
#300 = CARTESIAN_POINT ( 'NONE',  ( -0.3393305000000003124, 0.0000000000000000000, 3.622047000000000239 ) ) ;
#301 = EDGE_LOOP ( 'NONE', ( #324, #43, #264 ) ) ;
#302 = DIRECTION ( 'NONE',  ( -1.000000000000000000, 0.0000000000000000000, 0.0000000000000000000 ) ) ;
#303 = VERTEX_POINT ( 'NONE', #273 ) ;
#304 = DIRECTION ( 'NONE',  ( -1.000000000000000000, 0.0000000000000000000, 1.929401064994760691E-16 ) ) ;
#305 = AXIS2_PLACEMENT_3D ( 'NONE', #137, #138, #164 ) ;
#306 = VERTEX_POINT ( 'NONE', #227 ) ;
#307 = ADVANCED_FACE ( 'NONE', ( #103 ), #37, .T. ) ;
#308 = ORIENTED_EDGE ( 'NONE', *, *, #268, .F. ) ;
#309 = FILL_AREA_STYLE_COLOUR ( '', #290 ) ;
#310 = CARTESIAN_POINT ( 'NONE',  ( 0.0000000000000000000, 0.0000000000000000000, 3.622047000000000239 ) ) ;
#311 = AXIS2_PLACEMENT_3D ( 'NONE', #289, #259, #112 ) ;
#312 = DIRECTION ( 'NONE',  ( -1.000000000000000000, 0.0000000000000000000, 1.929401064994760691E-16 ) ) ;
#313 = ADVANCED_FACE ( 'NONE', ( #126 ), #87, .T. ) ;
#314 = CARTESIAN_POINT ( 'NONE',  ( -0.3393305000000003124, 0.0000000000000000000, 3.622047000000000239 ) ) ;
#315 = LINE ( 'NONE', #86, #17 ) ;
#316 = LENGTH_MEASURE_WITH_UNIT ( LENGTH_MEASURE( 0.02539999999999999897 ), #51 );
#317 = AXIS2_PLACEMENT_3D ( 'NONE', #187, #55, #312 ) ;
#318 = PRODUCT_DEFINITION_FORMATION_WITH_SPECIFIED_SOURCE ( 'ANY', '', #89, .NOT_KNOWN. ) ;
#319 = CARTESIAN_POINT ( 'NONE',  ( -0.3539761694999997155, 4.334957829526158110E-17, 1.771654000000000062 ) ) ;
#320 = AXIS2_PLACEMENT_3D ( 'NONE', #190, #185, #291 ) ;
#321 = ADVANCED_FACE ( 'NONE', ( #176 ), #294, .T. ) ;
#322 = CYLINDRICAL_SURFACE ( 'NONE', #305, 0.3539761694999999375 ) ;
#323 = DIRECTION ( 'NONE',  ( -1.000000000000000000, 1.224646799147353207E-16, 0.0000000000000000000 ) ) ;
#324 = ORIENTED_EDGE ( 'NONE', *, *, #237, .F. ) ;
#325 = VECTOR ( 'NONE', #65, 39.37007874015748143 ) ;
ENDSEC;
END-ISO-10303-21;
