ISO-10303-21;
HEADER;
FILE_DESCRIPTION (( 'STEP AP214' ),
    '1' );
FILE_NAME ('59511.STEP',
    '2023-07-24T15:08:26',
    ( '' ),
    ( '' ),
    'SwSTEP 2.0',
    'SolidWorks 2023',
    '' );
FILE_SCHEMA (( 'AUTOMOTIVE_DESIGN' ));
ENDSEC;

DATA;
#1 = DIRECTION ( 'NONE',  ( 0.000000000000000000, 0.000000000000000000, -1.000000000000000000 ) ) ;
#2 = MANIFOLD_SOLID_BREP ( 'Revolve - Cutting Edge', #217 ) ;
#3 = VECTOR ( 'NONE', #306, 1000.000000000000000 ) ;
#4 = SURFACE_SIDE_STYLE ('',( #321 ) ) ;
#5 = DIRECTION ( 'NONE',  ( -0.000000000000000000, -1.000000000000000000, -0.000000000000000000 ) ) ;
#6 = EDGE_CURVE ( 'NONE', #169, #314, #86, .T. ) ;
#7 = EDGE_LOOP ( 'NONE', ( #231, #197 ) ) ;
#8 = DIRECTION ( 'NONE',  ( -1.000000000000000000, 0.000000000000000000, 0.000000000000000000 ) ) ;
#9 = FACE_OUTER_BOUND ( 'NONE', #7, .T. ) ;
#10 = TOROIDAL_SURFACE ( 'NONE', #318, 2.499999999999998668, 0.5000000000000002220 ) ;
#11 = CARTESIAN_POINT ( 'NONE',  ( 0.000000000000000000, 0.000000000000000000, 0.000000000000000000 ) ) ;
#12 =( NAMED_UNIT ( * ) PLANE_ANGLE_UNIT ( ) SI_UNIT ( $, .RADIAN. ) );
#13 = DIRECTION ( 'NONE',  ( -0.000000000000000000, -1.000000000000000000, -0.000000000000000000 ) ) ;
#14 = CARTESIAN_POINT ( 'NONE',  ( 0.000000000000000000, 0.000000000000000000, 0.000000000000000000 ) ) ;
#15 = DIRECTION ( 'NONE',  ( -0.000000000000000000, -1.000000000000000000, -0.000000000000000000 ) ) ;
#16 = CARTESIAN_POINT ( 'NONE',  ( 2.999999999999999112, 63.00000000000000000, 0.000000000000000000 ) ) ;
#17 = COLOUR_RGB ( '',1.000000000000000000, 0.000000000000000000, 0.000000000000000000 ) ;
#18 = CYLINDRICAL_SURFACE ( 'NONE', #173, 2.999999999999988454 ) ;
#19 = DIRECTION ( 'NONE',  ( -0.000000000000000000, -1.000000000000000000, -0.000000000000000000 ) ) ;
#20 = ADVANCED_FACE ( 'NONE', ( #25 ), #227, .F. ) ;
#21 = STYLED_ITEM ( 'NONE', ( #193 ), #205 ) ;
#22 = AXIS2_PLACEMENT_3D ( 'NONE', #139, #203, #199 ) ;
#23 =( NAMED_UNIT ( * ) SI_UNIT ( $, .STERADIAN. ) SOLID_ANGLE_UNIT ( ) );
#24 = ORIENTED_EDGE ( 'NONE', *, *, #135, .F. ) ;
#25 = FACE_OUTER_BOUND ( 'NONE', #200, .T. ) ;
#26 = ADVANCED_FACE ( 'NONE', ( #291 ), #176, .T. ) ;
#27 = VERTEX_POINT ( 'NONE', #146 ) ;
#28 =( NAMED_UNIT ( * ) PLANE_ANGLE_UNIT ( ) SI_UNIT ( $, .RADIAN. ) );
#29 =( NAMED_UNIT ( * ) SI_UNIT ( $, .STERADIAN. ) SOLID_ANGLE_UNIT ( ) );
#30 = MECHANICAL_DESIGN_GEOMETRIC_PRESENTATION_REPRESENTATION (  '', ( #161 ), #237 ) ;
#31 = DIRECTION ( 'NONE',  ( -1.444848463910660280E-16, 1.000000000000000000, -0.000000000000000000 ) ) ;
#32 = VERTEX_POINT ( 'NONE', #266 ) ;
#33 = PRODUCT_CONTEXT ( 'NONE', #360, 'mechanical' ) ;
#34 = SURFACE_STYLE_USAGE ( .BOTH. , #229 ) ;
#35 = FILL_AREA_STYLE_COLOUR ( '', #340 ) ;
#36 = DIRECTION ( 'NONE',  ( 0.000000000000000000, 0.000000000000000000, -1.000000000000000000 ) ) ;
#37 = CARTESIAN_POINT ( 'NONE',  ( 7.592810154713587074E-15, 63.00000000000000000, 0.000000000000000000 ) ) ;
#38 = AXIS2_PLACEMENT_3D ( 'NONE', #88, #31, #182 ) ;
#39 = PRESENTATION_STYLE_ASSIGNMENT (( #152 ) ) ;
#40 = EDGE_CURVE ( 'NONE', #282, #313, #224, .T. ) ;
#41 = FACE_OUTER_BOUND ( 'NONE', #219, .T. ) ;
#42 = MECHANICAL_DESIGN_GEOMETRIC_PRESENTATION_REPRESENTATION (  '', ( #128 ), #189 ) ;
#43 = CARTESIAN_POINT ( 'NONE',  ( 0.000000000000000000, 18.00000000000000355, 0.000000000000000000 ) ) ;
#44 =( NAMED_UNIT ( * ) PLANE_ANGLE_UNIT ( ) SI_UNIT ( $, .RADIAN. ) );
#45 = FILL_AREA_STYLE ('',( #248 ) ) ;
#46 = STYLED_ITEM ( 'NONE', ( #297 ), #166 ) ;
#47 = CIRCLE ( 'NONE', #187, 2.999999999999991562 ) ;
#48 = EDGE_LOOP ( 'NONE', ( #369, #136, #348, #341 ) ) ;
#49 = DIRECTION ( 'NONE',  ( -1.000000000000000000, 0.000000000000000000, 0.000000000000000000 ) ) ;
#50 = EDGE_LOOP ( 'NONE', ( #165, #141 ) ) ;
#51 = VERTEX_POINT ( 'NONE', #241 ) ;
#52 = DIRECTION ( 'NONE',  ( 0.000000000000000000, -0.000000000000000000, 1.000000000000000000 ) ) ;
#53 = PRESENTATION_LAYER_ASSIGNMENT (  '', '', ( #161 ) ) ;
#54 = ORIENTED_EDGE ( 'NONE', *, *, #247, .F. ) ;
#55 = SURFACE_SIDE_STYLE ('',( #216 ) ) ;
#56 = AXIS2_PLACEMENT_3D ( 'NONE', #366, #337, #223 ) ;
#57 = EDGE_LOOP ( 'NONE', ( #253, #317 ) ) ;
#58 =( LENGTH_UNIT ( ) NAMED_UNIT ( * ) SI_UNIT ( .MILLI., .METRE. ) );
#59 =( NAMED_UNIT ( * ) PLANE_ANGLE_UNIT ( ) SI_UNIT ( $, .RADIAN. ) );
#60 = LINE ( 'NONE', #264, #137 ) ;
#61 = AXIS2_PLACEMENT_3D ( 'NONE', #209, #65, #347 ) ;
#62 = PLANE ( 'NONE',  #83 ) ;
#63 = ADVANCED_FACE ( 'NONE', ( #185 ), #150, .T. ) ;
#64 = DIRECTION ( 'NONE',  ( -1.444848463910660280E-16, 1.000000000000000000, -0.000000000000000000 ) ) ;
#65 = DIRECTION ( 'NONE',  ( -0.000000000000000000, -1.000000000000000000, -0.000000000000000000 ) ) ;
#66 = DIRECTION ( 'NONE',  ( -0.000000000000000000, -1.000000000000000000, -0.000000000000000000 ) ) ;
#67 = EDGE_CURVE ( 'NONE', #314, #169, #283, .T. ) ;
#68 = CIRCLE ( 'NONE', #202, 0.5000000000000004441 ) ;
#69 = PRESENTATION_LAYER_ASSIGNMENT (  '', '', ( #21 ) ) ;
#70 = CARTESIAN_POINT ( 'NONE',  ( 2.999999999999996003, 63.00000000000000000, 3.673940397442045077E-16 ) ) ;
#71 = VERTEX_POINT ( 'NONE', #331 ) ;
#72 = DIRECTION ( 'NONE',  ( -1.444848463910660280E-16, 1.000000000000000000, -0.000000000000000000 ) ) ;
#73 = CIRCLE ( 'NONE', #61, 2.499999999999998668 ) ;
#74 = UNCERTAINTY_MEASURE_WITH_UNIT (LENGTH_MEASURE( 1.000000000000000082E-05 ), #58, 'distance_accuracy_value', 'NONE');
#75 = CARTESIAN_POINT ( 'NONE',  ( 1.409462824231155764E-14, 18.00000000000000355, 0.000000000000000000 ) ) ;
#76 = AXIS2_PLACEMENT_3D ( 'NONE', #16, #362, #190 ) ;
#77 =( NAMED_UNIT ( * ) PLANE_ANGLE_UNIT ( ) SI_UNIT ( $, .RADIAN. ) );
#78 = MECHANICAL_DESIGN_GEOMETRIC_PRESENTATION_REPRESENTATION (  '', ( #280 ), #104 ) ;
#79 = VERTEX_POINT ( 'NONE', #328 ) ;
#80 = CARTESIAN_POINT ( 'NONE',  ( -2.999999999999970690, 18.00000000000000355, 0.000000000000000000 ) ) ;
#81 = ORIENTED_EDGE ( 'NONE', *, *, #135, .T. ) ;
#82 = ORIENTED_EDGE ( 'NONE', *, *, #107, .F. ) ;
#83 = AXIS2_PLACEMENT_3D ( 'NONE', #14, #295, #359 ) ;
#84 = ADVANCED_FACE ( 'NONE', ( #9 ), #62, .T. ) ;
#85 = PRESENTATION_STYLE_ASSIGNMENT (( #34 ) ) ;
#86 = CIRCLE ( 'NONE', #301, 2.999999999999999112 ) ;
#87 = SURFACE_STYLE_FILL_AREA ( #147 ) ;
#88 = CARTESIAN_POINT ( 'NONE',  ( 1.409462824231155764E-14, 18.00000000000000355, 0.000000000000000000 ) ) ;
#89 = ORIENTED_EDGE ( 'NONE', *, *, #131, .F. ) ;
#90 = CARTESIAN_POINT ( 'NONE',  ( 3.673940397442058882E-16, 0.000000000000000000, 2.999999999999999112 ) ) ;
#91 = AXIS2_PLACEMENT_3D ( 'NONE', #220, #19, #134 ) ;
#92 = CARTESIAN_POINT ( 'NONE',  ( 0.000000000000000000, 0.5000000000000000000, 0.000000000000000000 ) ) ;
#93 =( NAMED_UNIT ( * ) SI_UNIT ( $, .STERADIAN. ) SOLID_ANGLE_UNIT ( ) );
#94 = CARTESIAN_POINT ( 'NONE',  ( 0.000000000000000000, 0.000000000000000000, -2.499999999999998668 ) ) ;
#95 = DIRECTION ( 'NONE',  ( -1.000000000000000000, 0.000000000000000000, 0.000000000000000000 ) ) ;
#96 = COLOUR_RGB ( '',0.7921568627450980005, 0.8196078431372548767, 0.9333333333333333481 ) ;
#97 = PRODUCT_DEFINITION_FORMATION_WITH_SPECIFIED_SOURCE ( 'ANY', '', #304, .NOT_KNOWN. ) ;
#98 = STYLED_ITEM ( 'NONE', ( #263 ), #123 ) ;
#99 = DIRECTION ( 'NONE',  ( -1.444848463910660280E-16, 1.000000000000000000, -0.000000000000000000 ) ) ;
#100 = ORIENTED_EDGE ( 'NONE', *, *, #164, .T. ) ;
#101 = MECHANICAL_DESIGN_GEOMETRIC_PRESENTATION_REPRESENTATION (  '', ( #46 ), #242 ) ;
#102 = CARTESIAN_POINT ( 'NONE',  ( 0.000000000000000000, 0.000000000000000000, 0.000000000000000000 ) ) ;
#103 = EDGE_LOOP ( 'NONE', ( #24, #279, #246, #251 ) ) ;
#104 =( GEOMETRIC_REPRESENTATION_CONTEXT ( 3 ) GLOBAL_UNCERTAINTY_ASSIGNED_CONTEXT ( ( #350 ) ) GLOBAL_UNIT_ASSIGNED_CONTEXT ( ( #257, #28, #29 ) ) REPRESENTATION_CONTEXT ( 'NONE', 'WORKASPACE' ) );
#105 = PRESENTATION_STYLE_ASSIGNMENT (( #250 ) ) ;
#106 = FILL_AREA_STYLE_COLOUR ( '', #156 ) ;
#107 = EDGE_CURVE ( 'NONE', #313, #32, #47, .T. ) ;
#108 = FILL_AREA_STYLE_COLOUR ( '', #232 ) ;
#109 = AXIS2_PLACEMENT_3D ( 'NONE', #240, #8, #322 ) ;
#110 = PRESENTATION_STYLE_ASSIGNMENT (( #179 ) ) ;
#111 = MANIFOLD_SOLID_BREP ( 'Revolve - Tool Body (Straight Shanked)', #320 ) ;
#112 = CIRCLE ( 'NONE', #91, 2.999999999999999112 ) ;
#113 = DIRECTION ( 'NONE',  ( -0.000000000000000000, -1.000000000000000000, -0.000000000000000000 ) ) ;
#114 =( LENGTH_UNIT ( ) NAMED_UNIT ( * ) SI_UNIT ( .MILLI., .METRE. ) );
#115 = DIRECTION ( 'NONE',  ( 0.000000000000000000, 0.000000000000000000, -1.000000000000000000 ) ) ;
#116 = DIRECTION ( 'NONE',  ( -1.444848463910660280E-16, 1.000000000000000000, -0.000000000000000000 ) ) ;
#117 = CARTESIAN_POINT ( 'NONE',  ( 7.592810154713587074E-15, 63.00000000000000000, 0.000000000000000000 ) ) ;
#118 = STYLED_ITEM ( 'NONE', ( #39 ), #84 ) ;
#119 = DIRECTION ( 'NONE',  ( -0.000000000000000000, -1.000000000000000000, -0.000000000000000000 ) ) ;
#120 = AXIS2_PLACEMENT_3D ( 'NONE', #335, #188, #158 ) ;
#121 =( NAMED_UNIT ( * ) SI_UNIT ( $, .STERADIAN. ) SOLID_ANGLE_UNIT ( ) );
#122 = FACE_OUTER_BOUND ( 'NONE', #50, .T. ) ;
#123 = ADVANCED_FACE ( 'NONE', ( #143 ), #10, .T. ) ;
#124 = FILL_AREA_STYLE ('',( #236 ) ) ;
#125 = UNCERTAINTY_MEASURE_WITH_UNIT (LENGTH_MEASURE( 1.000000000000000082E-05 ), #299, 'distance_accuracy_value', 'NONE');
#126 = SURFACE_STYLE_FILL_AREA ( #245 ) ;
#127 = DIRECTION ( 'NONE',  ( 0.000000000000000000, 0.000000000000000000, -1.000000000000000000 ) ) ;
#128 = STYLED_ITEM ( 'NONE', ( #285 ), #2 ) ;
#129 = APPLICATION_CONTEXT ( 'automotive_design' ) ;
#130 = SHAPE_DEFINITION_REPRESENTATION ( #196, #342 ) ;
#131 = EDGE_CURVE ( 'NONE', #79, #51, #68, .T. ) ;
#132 = ORIENTED_EDGE ( 'NONE', *, *, #255, .T. ) ;
#133 = FACE_OUTER_BOUND ( 'NONE', #310, .T. ) ;
#134 = DIRECTION ( 'NONE',  ( 0.000000000000000000, 0.000000000000000000, -1.000000000000000000 ) ) ;
#135 = EDGE_CURVE ( 'NONE', #314, #79, #268, .T. ) ;
#136 = ORIENTED_EDGE ( 'NONE', *, *, #131, .T. ) ;
#137 = VECTOR ( 'NONE', #5, 1000.000000000000000 ) ;
#138 = DIRECTION ( 'NONE',  ( -1.000000000000000000, 0.000000000000000000, 0.000000000000000000 ) ) ;
#139 = CARTESIAN_POINT ( 'NONE',  ( 1.409462824231155764E-14, 18.00000000000000355, 0.000000000000000000 ) ) ;
#140 = AXIS2_PLACEMENT_3D ( 'NONE', #363, #66, #127 ) ;
#141 = ORIENTED_EDGE ( 'NONE', *, *, #247, .T. ) ;
#142 = UNCERTAINTY_MEASURE_WITH_UNIT (LENGTH_MEASURE( 1.000000000000000082E-05 ), #356, 'distance_accuracy_value', 'NONE');
#143 = FACE_OUTER_BOUND ( 'NONE', #48, .T. ) ;
#144 = CARTESIAN_POINT ( 'NONE',  ( 0.000000000000000000, 18.00000000000000355, 0.000000000000000000 ) ) ;
#145 =( LENGTH_UNIT ( ) NAMED_UNIT ( * ) SI_UNIT ( .MILLI., .METRE. ) );
#146 = CARTESIAN_POINT ( 'NONE',  ( 0.000000000000000000, 0.5000000000000000000, -2.999999999999999112 ) ) ;
#147 = FILL_AREA_STYLE ('',( #35 ) ) ;
#148 = DIRECTION ( 'NONE',  ( 1.000000000000000000, 0.000000000000000000, -1.224646799147353207E-16 ) ) ;
#149 = EDGE_CURVE ( 'NONE', #71, #282, #153, .T. ) ;
#150 = CYLINDRICAL_SURFACE ( 'NONE', #271, 2.999999999999988454 ) ;
#151 = DIRECTION ( 'NONE',  ( 0.000000000000000000, 0.000000000000000000, -1.000000000000000000 ) ) ;
#152 = SURFACE_STYLE_USAGE ( .BOTH. , #183 ) ;
#153 = CIRCLE ( 'NONE', #38, 2.999999999999984457 ) ;
#154 = SURFACE_STYLE_FILL_AREA ( #124 ) ;
#155 = FILL_AREA_STYLE_COLOUR ( '', #17 ) ;
#156 = COLOUR_RGB ( '',0.7921568627450980005, 0.8196078431372548767, 0.9333333333333333481 ) ;
#157 = CARTESIAN_POINT ( 'NONE',  ( 0.000000000000000000, 0.000000000000000000, 0.000000000000000000 ) ) ;
#158 = DIRECTION ( 'NONE',  ( 0.000000000000000000, 0.000000000000000000, -1.000000000000000000 ) ) ;
#159 = PRESENTATION_LAYER_ASSIGNMENT (  '', '', ( #354 ) ) ;
#160 = SURFACE_STYLE_USAGE ( .BOTH. , #213 ) ;
#161 = STYLED_ITEM ( 'NONE', ( #110 ), #111 ) ;
#162 = CARTESIAN_POINT ( 'NONE',  ( 7.592810154713587074E-15, 63.00000000000000000, 0.000000000000000000 ) ) ;
#163 = ORIENTED_EDGE ( 'NONE', *, *, #149, .F. ) ;
#164 = EDGE_CURVE ( 'NONE', #27, #175, #277, .T. ) ;
#165 = ORIENTED_EDGE ( 'NONE', *, *, #107, .T. ) ;
#166 = ADVANCED_FACE ( 'NONE', ( #41 ), #272, .T. ) ;
#167 = CARTESIAN_POINT ( 'NONE',  ( 3.673940397442058882E-16, 18.00000000000000355, 2.999999999999999112 ) ) ;
#168 = SURFACE_STYLE_USAGE ( .BOTH. , #4 ) ;
#169 = VERTEX_POINT ( 'NONE', #325 ) ;
#170 = PRESENTATION_LAYER_ASSIGNMENT (  '', '', ( #98 ) ) ;
#171 = FILL_AREA_STYLE ('',( #106 ) ) ;
#172 = ORIENTED_EDGE ( 'NONE', *, *, #6, .T. ) ;
#173 = AXIS2_PLACEMENT_3D ( 'NONE', #339, #218, #226 ) ;
#174 = PRODUCT_RELATED_PRODUCT_CATEGORY ( 'part', '', ( #304 ) ) ;
#175 = VERTEX_POINT ( 'NONE', #94 ) ;
#176 = PLANE ( 'NONE',  #260 ) ;
#177 = ORIENTED_EDGE ( 'NONE', *, *, #40, .T. ) ;
#178 = UNCERTAINTY_MEASURE_WITH_UNIT (LENGTH_MEASURE( 1.000000000000000082E-05 ), #353, 'distance_accuracy_value', 'NONE');
#179 = SURFACE_STYLE_USAGE ( .BOTH. , #351 ) ;
#180 = ORIENTED_EDGE ( 'NONE', *, *, #149, .T. ) ;
#181 = EDGE_CURVE ( 'NONE', #175, #51, #73, .T. ) ;
#182 = DIRECTION ( 'NONE',  ( -1.000000000000000000, 0.000000000000000000, 0.000000000000000000 ) ) ;
#183 = SURFACE_SIDE_STYLE ('',( #207 ) ) ;
#184 = EDGE_CURVE ( 'NONE', #51, #175, #275, .T. ) ;
#185 = FACE_OUTER_BOUND ( 'NONE', #364, .T. ) ;
#186 =( NAMED_UNIT ( * ) PLANE_ANGLE_UNIT ( ) SI_UNIT ( $, .RADIAN. ) );
#187 = AXIS2_PLACEMENT_3D ( 'NONE', #117, #208, #95 ) ;
#188 = DIRECTION ( 'NONE',  ( -0.000000000000000000, -1.000000000000000000, -0.000000000000000000 ) ) ;
#189 =( GEOMETRIC_REPRESENTATION_CONTEXT ( 3 ) GLOBAL_UNCERTAINTY_ASSIGNED_CONTEXT ( ( #74 ) ) GLOBAL_UNIT_ASSIGNED_CONTEXT ( ( #58, #77, #288 ) ) REPRESENTATION_CONTEXT ( 'NONE', 'WORKASPACE' ) );
#190 = DIRECTION ( 'NONE',  ( 1.000000000000000000, 1.444848463910660280E-16, 0.000000000000000000 ) ) ;
#191 = EDGE_CURVE ( 'NONE', #169, #27, #60, .T. ) ;
#192 = FILL_AREA_STYLE_COLOUR ( '', #238 ) ;
#193 = PRESENTATION_STYLE_ASSIGNMENT (( #160 ) ) ;
#194 = CARTESIAN_POINT ( 'NONE',  ( -2.999999999999983569, 63.00000000000000000, 0.000000000000000000 ) ) ;
#195 = EDGE_LOOP ( 'NONE', ( #89, #132, #100, #367 ) ) ;
#196 = PRODUCT_DEFINITION_SHAPE ( 'NONE', 'NONE',  #305 ) ;
#197 = ORIENTED_EDGE ( 'NONE', *, *, #184, .T. ) ;
#198 = DIRECTION ( 'NONE',  ( 0.000000000000000000, 0.000000000000000000, 1.000000000000000000 ) ) ;
#199 = DIRECTION ( 'NONE',  ( -1.000000000000000000, -1.444848463910660280E-16, 0.000000000000000000 ) ) ;
#200 = EDGE_LOOP ( 'NONE', ( #221, #163 ) ) ;
#201 = ADVANCED_FACE ( 'NONE', ( #233 ), #243, .T. ) ;
#202 = AXIS2_PLACEMENT_3D ( 'NONE', #230, #148, #355 ) ;
#203 = DIRECTION ( 'NONE',  ( -1.444848463910660280E-16, 1.000000000000000000, 0.000000000000000000 ) ) ;
#204 = ORIENTED_EDGE ( 'NONE', *, *, #258, .T. ) ;
#205 = ADVANCED_FACE ( 'NONE', ( #302 ), #244, .T. ) ;
#206 = AXIS2_PLACEMENT_3D ( 'NONE', #157, #15, #115 ) ;
#207 = SURFACE_STYLE_FILL_AREA ( #273 ) ;
#208 = DIRECTION ( 'NONE',  ( -1.444848463910660280E-16, 1.000000000000000000, -0.000000000000000000 ) ) ;
#209 = CARTESIAN_POINT ( 'NONE',  ( 0.000000000000000000, 0.000000000000000000, 0.000000000000000000 ) ) ;
#210 = COLOUR_RGB ( '',1.000000000000000000, 0.000000000000000000, 0.000000000000000000 ) ;
#211 = CIRCLE ( 'NONE', #309, 2.999999999999984457 ) ;
#212 = ADVANCED_FACE ( 'NONE', ( #122 ), #333, .F. ) ;
#213 = SURFACE_SIDE_STYLE ('',( #126 ) ) ;
#214 = AXIS2_PLACEMENT_3D ( 'NONE', #43, #269, #36 ) ;
#215 = CIRCLE ( 'NONE', #56, 2.999999999999999112 ) ;
#216 = SURFACE_STYLE_FILL_AREA ( #45 ) ;
#217 = CLOSED_SHELL ( 'NONE', ( #166, #123, #84, #205, #201, #26 ) ) ;
#218 = DIRECTION ( 'NONE',  ( -1.444848463910660280E-16, 1.000000000000000000, -0.000000000000000000 ) ) ;
#219 = EDGE_LOOP ( 'NONE', ( #172, #81, #265, #338 ) ) ;
#220 = CARTESIAN_POINT ( 'NONE',  ( 0.000000000000000000, 0.5000000000000000000, 0.000000000000000000 ) ) ;
#221 = ORIENTED_EDGE ( 'NONE', *, *, #311, .F. ) ;
#222 =( GEOMETRIC_REPRESENTATION_CONTEXT ( 3 ) GLOBAL_UNCERTAINTY_ASSIGNED_CONTEXT ( ( #261 ) ) GLOBAL_UNIT_ASSIGNED_CONTEXT ( ( #307, #252, #23 ) ) REPRESENTATION_CONTEXT ( 'NONE', 'WORKASPACE' ) );
#223 = DIRECTION ( 'NONE',  ( 0.000000000000000000, 0.000000000000000000, -1.000000000000000000 ) ) ;
#224 = LINE ( 'NONE', #343, #368 ) ;
#225 = ORIENTED_EDGE ( 'NONE', *, *, #311, .T. ) ;
#226 = DIRECTION ( 'NONE',  ( -1.000000000000000000, 0.000000000000000000, 0.000000000000000000 ) ) ;
#227 = PLANE ( 'NONE',  #22 ) ;
#228 = MECHANICAL_DESIGN_GEOMETRIC_PRESENTATION_REPRESENTATION (  '', ( #118 ), #345 ) ;
#229 = SURFACE_SIDE_STYLE ('',( #349 ) ) ;
#230 = CARTESIAN_POINT ( 'NONE',  ( 3.061616997868381662E-16, 0.5000000000000000000, 2.499999999999998668 ) ) ;
#231 = ORIENTED_EDGE ( 'NONE', *, *, #181, .T. ) ;
#232 = COLOUR_RGB ( '',1.000000000000000000, 0.000000000000000000, 0.000000000000000000 ) ;
#233 = FACE_OUTER_BOUND ( 'NONE', #103, .T. ) ;
#234 = FILL_AREA_STYLE ('',( #300 ) ) ;
#235 = UNCERTAINTY_MEASURE_WITH_UNIT (LENGTH_MEASURE( 1.000000000000000082E-05 ), #276, 'distance_accuracy_value', 'NONE');
#236 = FILL_AREA_STYLE_COLOUR ( '', #210 ) ;
#237 =( GEOMETRIC_REPRESENTATION_CONTEXT ( 3 ) GLOBAL_UNCERTAINTY_ASSIGNED_CONTEXT ( ( #326 ) ) GLOBAL_UNIT_ASSIGNED_CONTEXT ( ( #114, #259, #323 ) ) REPRESENTATION_CONTEXT ( 'NONE', 'WORKASPACE' ) );
#238 = COLOUR_RGB ( '',1.000000000000000000, 0.000000000000000000, 0.000000000000000000 ) ;
#239 =( NAMED_UNIT ( * ) SI_UNIT ( $, .STERADIAN. ) SOLID_ANGLE_UNIT ( ) );
#240 = CARTESIAN_POINT ( 'NONE',  ( 0.000000000000000000, 0.5000000000000000000, -2.499999999999998668 ) ) ;
#241 = CARTESIAN_POINT ( 'NONE',  ( 3.367778697655220026E-16, 0.000000000000000000, 2.499999999999998668 ) ) ;
#242 =( GEOMETRIC_REPRESENTATION_CONTEXT ( 3 ) GLOBAL_UNCERTAINTY_ASSIGNED_CONTEXT ( ( #292 ) ) GLOBAL_UNIT_ASSIGNED_CONTEXT ( ( #145, #327, #274 ) ) REPRESENTATION_CONTEXT ( 'NONE', 'WORKASPACE' ) );
#243 = CYLINDRICAL_SURFACE ( 'NONE', #140, 2.999999999999999112 ) ;
#244 = TOROIDAL_SURFACE ( 'NONE', #120, 2.499999999999998668, 0.5000000000000002220 ) ;
#245 = FILL_AREA_STYLE ('',( #192 ) ) ;
#246 = ORIENTED_EDGE ( 'NONE', *, *, #191, .T. ) ;
#247 = EDGE_CURVE ( 'NONE', #32, #313, #346, .T. ) ;
#248 = FILL_AREA_STYLE_COLOUR ( '', #324 ) ;
#249 = ORIENTED_EDGE ( 'NONE', *, *, #258, .F. ) ;
#250 = SURFACE_STYLE_USAGE ( .BOTH. , #55 ) ;
#251 = ORIENTED_EDGE ( 'NONE', *, *, #255, .F. ) ;
#252 =( NAMED_UNIT ( * ) PLANE_ANGLE_UNIT ( ) SI_UNIT ( $, .RADIAN. ) );
#253 = ORIENTED_EDGE ( 'NONE', *, *, #6, .F. ) ;
#254 = MECHANICAL_DESIGN_GEOMETRIC_PRESENTATION_REPRESENTATION (  '', ( #354 ), #336 ) ;
#255 = EDGE_CURVE ( 'NONE', #79, #27, #112, .T. ) ;
#256 = CARTESIAN_POINT ( 'NONE',  ( 0.000000000000000000, 18.00000000000000355, 0.000000000000000000 ) ) ;
#257 =( LENGTH_UNIT ( ) NAMED_UNIT ( * ) SI_UNIT ( .MILLI., .METRE. ) );
#258 = EDGE_CURVE ( 'NONE', #71, #32, #315, .T. ) ;
#259 =( NAMED_UNIT ( * ) PLANE_ANGLE_UNIT ( ) SI_UNIT ( $, .RADIAN. ) );
#260 = AXIS2_PLACEMENT_3D ( 'NONE', #144, #316, #52 ) ;
#261 = UNCERTAINTY_MEASURE_WITH_UNIT (LENGTH_MEASURE( 1.000000000000000082E-05 ), #307, 'distance_accuracy_value', 'NONE');
#262 = AXIS2_PLACEMENT_3D ( 'NONE', #102, #198, #312 ) ;
#263 = PRESENTATION_STYLE_ASSIGNMENT (( #287 ) ) ;
#264 = CARTESIAN_POINT ( 'NONE',  ( 0.000000000000000000, 0.000000000000000000, -2.999999999999999112 ) ) ;
#265 = ORIENTED_EDGE ( 'NONE', *, *, #296, .F. ) ;
#266 = CARTESIAN_POINT ( 'NONE',  ( 2.999999999999999556, 63.00000000000000000, 3.673940397442047542E-16 ) ) ;
#267 = SURFACE_SIDE_STYLE ('',( #87 ) ) ;
#268 = LINE ( 'NONE', #90, #308 ) ;
#269 = DIRECTION ( 'NONE',  ( -0.000000000000000000, -1.000000000000000000, -0.000000000000000000 ) ) ;
#270 = SURFACE_SIDE_STYLE ('',( #154 ) ) ;
#271 = AXIS2_PLACEMENT_3D ( 'NONE', #37, #116, #329 ) ;
#272 = CYLINDRICAL_SURFACE ( 'NONE', #289, 2.999999999999999112 ) ;
#273 = FILL_AREA_STYLE ('',( #155 ) ) ;
#274 =( NAMED_UNIT ( * ) SI_UNIT ( $, .STERADIAN. ) SOLID_ANGLE_UNIT ( ) );
#275 = CIRCLE ( 'NONE', #206, 2.499999999999998668 ) ;
#276 =( LENGTH_UNIT ( ) NAMED_UNIT ( * ) SI_UNIT ( .MILLI., .METRE. ) );
#277 = CIRCLE ( 'NONE', #109, 0.5000000000000004441 ) ;
#278 = MECHANICAL_DESIGN_GEOMETRIC_PRESENTATION_REPRESENTATION (  '', ( #21 ), #370 ) ;
#279 = ORIENTED_EDGE ( 'NONE', *, *, #67, .T. ) ;
#280 = STYLED_ITEM ( 'NONE', ( #85 ), #26 ) ;
#281 = APPLICATION_PROTOCOL_DEFINITION ( 'draft international standard', 'automotive_design', 1998, #360 ) ;
#282 = VERTEX_POINT ( 'NONE', #80 ) ;
#283 = CIRCLE ( 'NONE', #214, 2.999999999999999112 ) ;
#284 = ADVANCED_FACE ( 'NONE', ( #133 ), #18, .T. ) ;
#285 = PRESENTATION_STYLE_ASSIGNMENT (( #168 ) ) ;
#286 = PRODUCT_DEFINITION_CONTEXT ( 'detailed design', #129, 'design' ) ;
#287 = SURFACE_STYLE_USAGE ( .BOTH. , #267 ) ;
#288 =( NAMED_UNIT ( * ) SI_UNIT ( $, .STERADIAN. ) SOLID_ANGLE_UNIT ( ) );
#289 = AXIS2_PLACEMENT_3D ( 'NONE', #11, #119, #358 ) ;
#290 = SURFACE_STYLE_USAGE ( .BOTH. , #270 ) ;
#291 = FACE_OUTER_BOUND ( 'NONE', #57, .T. ) ;
#292 = UNCERTAINTY_MEASURE_WITH_UNIT (LENGTH_MEASURE( 1.000000000000000082E-05 ), #145, 'distance_accuracy_value', 'NONE');
#293 = AXIS2_PLACEMENT_3D ( 'NONE', #162, #99, #49 ) ;
#294 = DIRECTION ( 'NONE',  ( -0.000000000000000000, -1.000000000000000000, -0.000000000000000000 ) ) ;
#295 = DIRECTION ( 'NONE',  ( 0.000000000000000000, -1.000000000000000000, -0.000000000000000000 ) ) ;
#296 = EDGE_CURVE ( 'NONE', #27, #79, #215, .T. ) ;
#297 = PRESENTATION_STYLE_ASSIGNMENT (( #290 ) ) ;
#298 = MECHANICAL_DESIGN_GEOMETRIC_PRESENTATION_REPRESENTATION (  '', ( #98 ), #303 ) ;
#299 =( LENGTH_UNIT ( ) NAMED_UNIT ( * ) SI_UNIT ( .MILLI., .METRE. ) );
#300 = FILL_AREA_STYLE_COLOUR ( '', #96 ) ;
#301 = AXIS2_PLACEMENT_3D ( 'NONE', #256, #113, #1 ) ;
#302 = FACE_OUTER_BOUND ( 'NONE', #195, .T. ) ;
#303 =( GEOMETRIC_REPRESENTATION_CONTEXT ( 3 ) GLOBAL_UNCERTAINTY_ASSIGNED_CONTEXT ( ( #178 ) ) GLOBAL_UNIT_ASSIGNED_CONTEXT ( ( #353, #59, #357 ) ) REPRESENTATION_CONTEXT ( 'NONE', 'WORKASPACE' ) );
#304 = PRODUCT ( '59511', '59511', '', ( #33 ) ) ;
#305 = PRODUCT_DEFINITION ( 'UNKNOWN', '', #97, #286 ) ;
#306 = DIRECTION ( 'NONE',  ( -1.444848463910660280E-16, 1.000000000000000000, -0.000000000000000000 ) ) ;
#307 =( LENGTH_UNIT ( ) NAMED_UNIT ( * ) SI_UNIT ( .MILLI., .METRE. ) );
#308 = VECTOR ( 'NONE', #294, 1000.000000000000000 ) ;
#309 = AXIS2_PLACEMENT_3D ( 'NONE', #75, #72, #138 ) ;
#310 = EDGE_LOOP ( 'NONE', ( #225, #204, #82, #344 ) ) ;
#311 = EDGE_CURVE ( 'NONE', #282, #71, #211, .T. ) ;
#312 = DIRECTION ( 'NONE',  ( 1.000000000000000000, 0.000000000000000000, 0.000000000000000000 ) ) ;
#313 = VERTEX_POINT ( 'NONE', #194 ) ;
#314 = VERTEX_POINT ( 'NONE', #167 ) ;
#315 = LINE ( 'NONE', #70, #3 ) ;
#316 = DIRECTION ( 'NONE',  ( 0.000000000000000000, 1.000000000000000000, 0.000000000000000000 ) ) ;
#317 = ORIENTED_EDGE ( 'NONE', *, *, #67, .F. ) ;
#318 = AXIS2_PLACEMENT_3D ( 'NONE', #92, #13, #151 ) ;
#319 = FILL_AREA_STYLE ('',( #108 ) ) ;
#320 = CLOSED_SHELL ( 'NONE', ( #284, #20, #63, #212 ) ) ;
#321 = SURFACE_STYLE_FILL_AREA ( #171 ) ;
#322 = DIRECTION ( 'NONE',  ( 0.000000000000000000, 0.000000000000000000, 1.000000000000000000 ) ) ;
#323 =( NAMED_UNIT ( * ) SI_UNIT ( $, .STERADIAN. ) SOLID_ANGLE_UNIT ( ) );
#324 = COLOUR_RGB ( '',1.000000000000000000, 0.000000000000000000, 0.000000000000000000 ) ;
#325 = CARTESIAN_POINT ( 'NONE',  ( 0.000000000000000000, 18.00000000000000355, -2.999999999999999112 ) ) ;
#326 = UNCERTAINTY_MEASURE_WITH_UNIT (LENGTH_MEASURE( 1.000000000000000082E-05 ), #114, 'distance_accuracy_value', 'NONE');
#327 =( NAMED_UNIT ( * ) PLANE_ANGLE_UNIT ( ) SI_UNIT ( $, .RADIAN. ) );
#328 = CARTESIAN_POINT ( 'NONE',  ( 3.673940397442058389E-16, 0.5000000000000000000, 2.999999999999999112 ) ) ;
#329 = DIRECTION ( 'NONE',  ( -1.000000000000000000, 0.000000000000000000, 0.000000000000000000 ) ) ;
#330 = PRESENTATION_LAYER_ASSIGNMENT (  '', '', ( #118 ) ) ;
#331 = CARTESIAN_POINT ( 'NONE',  ( 2.999999999999999112, 18.00000000000000355, 3.673940397442046556E-16 ) ) ;
#332 = APPLICATION_PROTOCOL_DEFINITION ( 'draft international standard', 'automotive_design', 1998, #129 ) ;
#333 = PLANE ( 'NONE',  #76 ) ;
#334 = PRESENTATION_LAYER_ASSIGNMENT (  '', '', ( #280 ) ) ;
#335 = CARTESIAN_POINT ( 'NONE',  ( 0.000000000000000000, 0.5000000000000000000, 0.000000000000000000 ) ) ;
#336 =( GEOMETRIC_REPRESENTATION_CONTEXT ( 3 ) GLOBAL_UNCERTAINTY_ASSIGNED_CONTEXT ( ( #235 ) ) GLOBAL_UNIT_ASSIGNED_CONTEXT ( ( #276, #44, #239 ) ) REPRESENTATION_CONTEXT ( 'NONE', 'WORKASPACE' ) );
#337 = DIRECTION ( 'NONE',  ( -0.000000000000000000, -1.000000000000000000, -0.000000000000000000 ) ) ;
#338 = ORIENTED_EDGE ( 'NONE', *, *, #191, .F. ) ;
#339 = CARTESIAN_POINT ( 'NONE',  ( 7.592810154713587074E-15, 63.00000000000000000, 0.000000000000000000 ) ) ;
#340 = COLOUR_RGB ( '',1.000000000000000000, 0.000000000000000000, 0.000000000000000000 ) ;
#341 = ORIENTED_EDGE ( 'NONE', *, *, #164, .F. ) ;
#342 = ADVANCED_BREP_SHAPE_REPRESENTATION ( '59511', ( #2, #111, #262 ), #222 ) ;
#343 = CARTESIAN_POINT ( 'NONE',  ( -2.999999999999980460, 63.00000000000000000, 0.000000000000000000 ) ) ;
#344 = ORIENTED_EDGE ( 'NONE', *, *, #40, .F. ) ;
#345 =( GEOMETRIC_REPRESENTATION_CONTEXT ( 3 ) GLOBAL_UNCERTAINTY_ASSIGNED_CONTEXT ( ( #142 ) ) GLOBAL_UNIT_ASSIGNED_CONTEXT ( ( #356, #12, #121 ) ) REPRESENTATION_CONTEXT ( 'NONE', 'WORKASPACE' ) );
#346 = CIRCLE ( 'NONE', #293, 2.999999999999991562 ) ;
#347 = DIRECTION ( 'NONE',  ( 0.000000000000000000, 0.000000000000000000, -1.000000000000000000 ) ) ;
#348 = ORIENTED_EDGE ( 'NONE', *, *, #181, .F. ) ;
#349 = SURFACE_STYLE_FILL_AREA ( #319 ) ;
#350 = UNCERTAINTY_MEASURE_WITH_UNIT (LENGTH_MEASURE( 1.000000000000000082E-05 ), #257, 'distance_accuracy_value', 'NONE');
#351 = SURFACE_SIDE_STYLE ('',( #352 ) ) ;
#352 = SURFACE_STYLE_FILL_AREA ( #234 ) ;
#353 =( LENGTH_UNIT ( ) NAMED_UNIT ( * ) SI_UNIT ( .MILLI., .METRE. ) );
#354 = STYLED_ITEM ( 'NONE', ( #105 ), #201 ) ;
#355 = DIRECTION ( 'NONE',  ( -1.224646799147352468E-16, 0.000000000000000000, -1.000000000000000000 ) ) ;
#356 =( LENGTH_UNIT ( ) NAMED_UNIT ( * ) SI_UNIT ( .MILLI., .METRE. ) );
#357 =( NAMED_UNIT ( * ) SI_UNIT ( $, .STERADIAN. ) SOLID_ANGLE_UNIT ( ) );
#358 = DIRECTION ( 'NONE',  ( 0.000000000000000000, 0.000000000000000000, -1.000000000000000000 ) ) ;
#359 = DIRECTION ( 'NONE',  ( 0.000000000000000000, 0.000000000000000000, -1.000000000000000000 ) ) ;
#360 = APPLICATION_CONTEXT ( 'automotive_design' ) ;
#361 = PRESENTATION_LAYER_ASSIGNMENT (  '', '', ( #46 ) ) ;
#362 = DIRECTION ( 'NONE',  ( 1.444848463910660280E-16, -1.000000000000000000, 0.000000000000000000 ) ) ;
#363 = CARTESIAN_POINT ( 'NONE',  ( 0.000000000000000000, 0.000000000000000000, 0.000000000000000000 ) ) ;
#364 = EDGE_LOOP ( 'NONE', ( #249, #180, #177, #54 ) ) ;
#365 = PRESENTATION_LAYER_ASSIGNMENT (  '', '', ( #128 ) ) ;
#366 = CARTESIAN_POINT ( 'NONE',  ( 0.000000000000000000, 0.5000000000000000000, 0.000000000000000000 ) ) ;
#367 = ORIENTED_EDGE ( 'NONE', *, *, #184, .F. ) ;
#368 = VECTOR ( 'NONE', #64, 1000.000000000000000 ) ;
#369 = ORIENTED_EDGE ( 'NONE', *, *, #296, .T. ) ;
#370 =( GEOMETRIC_REPRESENTATION_CONTEXT ( 3 ) GLOBAL_UNCERTAINTY_ASSIGNED_CONTEXT ( ( #125 ) ) GLOBAL_UNIT_ASSIGNED_CONTEXT ( ( #299, #186, #93 ) ) REPRESENTATION_CONTEXT ( 'NONE', 'WORKASPACE' ) );
ENDSEC;
END-ISO-10303-21;
