ISO-10303-21;
HEADER;
FILE_DESCRIPTION (( 'STEP AP214' ),
    '1' );
FILE_NAME ('83415.STEP',
    '2023-06-30T23:12:57',
    ( '' ),
    ( '' ),
    'SwSTEP 2.0',
    'SolidWorks 2023',
    '' );
FILE_SCHEMA (( 'AUTOMOTIVE_DESIGN' ));
ENDSEC;

DATA;
#1 = DIRECTION ( 'NONE',  ( -0.000000000000000000, -1.000000000000000000, -0.000000000000000000 ) ) ;
#2 = FACE_OUTER_BOUND ( 'NONE', #301, .T. ) ;
#3 = ADVANCED_FACE ( 'NONE', ( #180 ), #356, .F. ) ;
#4 = STYLED_ITEM ( 'NONE', ( #196 ), #271 ) ;
#5 = SURFACE_STYLE_FILL_AREA ( #138 ) ;
#6 = EDGE_CURVE ( 'NONE', #250, #97, #263, .T. ) ;
#7 = AXIS2_PLACEMENT_3D ( 'NONE', #342, #27, #163 ) ;
#8 = FILL_AREA_STYLE_COLOUR ( '', #121 ) ;
#9 = DIRECTION ( 'NONE',  ( 1.224646799147353207E-16, -0.000000000000000000, 1.000000000000000000 ) ) ;
#10 = ORIENTED_EDGE ( 'NONE', *, *, #6, .T. ) ;
#11 = ADVANCED_BREP_SHAPE_REPRESENTATION ( '83415', ( #271, #137, #296 ), #170 ) ;
#12 = DIRECTION ( 'NONE',  ( 0.000000000000000000, 0.000000000000000000, -1.000000000000000000 ) ) ;
#13 = ORIENTED_EDGE ( 'NONE', *, *, #148, .F. ) ;
#14 = FACE_OUTER_BOUND ( 'NONE', #125, .T. ) ;
#15 = PRODUCT_DEFINITION_FORMATION_WITH_SPECIFIED_SOURCE ( 'ANY', '', #166, .NOT_KNOWN. ) ;
#16 = ORIENTED_EDGE ( 'NONE', *, *, #117, .T. ) ;
#17 = DIRECTION ( 'NONE',  ( 1.000000000000000000, 0.000000000000000000, -1.224646799147353207E-16 ) ) ;
#18 = DIRECTION ( 'NONE',  ( -0.000000000000000000, -1.000000000000000000, -0.000000000000000000 ) ) ;
#19 = VERTEX_POINT ( 'NONE', #219 ) ;
#20 = STYLED_ITEM ( 'NONE', ( #186 ), #61 ) ;
#21 = FACE_OUTER_BOUND ( 'NONE', #312, .T. ) ;
#22 = LENGTH_MEASURE_WITH_UNIT ( LENGTH_MEASURE( 0.02539999999999999897 ), #255 );
#23 = DIRECTION ( 'NONE',  ( -1.000000000000000000, 0.000000000000000000, 0.000000000000000000 ) ) ;
#24 = CARTESIAN_POINT ( 'NONE',  ( 0.000000000000000000, 1.000000000000000000, 0.000000000000000000 ) ) ;
#25 = LENGTH_MEASURE_WITH_UNIT ( LENGTH_MEASURE( 0.02539999999999999897 ), #370 );
#26 =( NAMED_UNIT ( * ) PLANE_ANGLE_UNIT ( ) SI_UNIT ( $, .RADIAN. ) );
#27 = DIRECTION ( 'NONE',  ( 0.000000000000000000, 0.000000000000000000, 1.000000000000000000 ) ) ;
#28 = CLOSED_SHELL ( 'NONE', ( #66, #3, #179, #50 ) ) ;
#29 = AXIS2_PLACEMENT_3D ( 'NONE', #209, #111, #239 ) ;
#30 = EDGE_CURVE ( 'NONE', #181, #178, #133, .T. ) ;
#31 = UNCERTAINTY_MEASURE_WITH_UNIT (LENGTH_MEASURE( 1.000000000000000082E-05 ), #259, 'distance_accuracy_value', 'NONE');
#32 = FILL_AREA_STYLE_COLOUR ( '', #227 ) ;
#33 = PRODUCT_CONTEXT ( 'NONE', #205, 'mechanical' ) ;
#34 = AXIS2_PLACEMENT_3D ( 'NONE', #248, #275, #42 ) ;
#35 =( CONVERSION_BASED_UNIT ( 'INCH', #142 ) LENGTH_UNIT ( ) NAMED_UNIT ( #145 ) );
#36 = VECTOR ( 'NONE', #64, 39.37007874015748143 ) ;
#37 = EDGE_LOOP ( 'NONE', ( #10, #331 ) ) ;
#38 = LINE ( 'NONE', #330, #36 ) ;
#39 = ORIENTED_EDGE ( 'NONE', *, *, #30, .F. ) ;
#40 = EDGE_LOOP ( 'NONE', ( #175, #65, #241, #279 ) ) ;
#41 =( CONVERSION_BASED_UNIT ( 'INCH', #96 ) LENGTH_UNIT ( ) NAMED_UNIT ( #150 ) );
#42 = DIRECTION ( 'NONE',  ( 0.000000000000000000, 0.000000000000000000, -1.000000000000000000 ) ) ;
#43 = ORIENTED_EDGE ( 'NONE', *, *, #268, .T. ) ;
#44 = EDGE_CURVE ( 'NONE', #181, #329, #105, .T. ) ;
#45 =( NAMED_UNIT ( * ) SI_UNIT ( $, .STERADIAN. ) SOLID_ANGLE_UNIT ( ) );
#46 = CARTESIAN_POINT ( 'NONE',  ( -6.123233995736766036E-17, 2.500000000000000000, 0.000000000000000000 ) ) ;
#47 = DIRECTION ( 'NONE',  ( -1.224646799147353207E-16, 1.000000000000000000, -0.000000000000000000 ) ) ;
#48 = PLANE ( 'NONE',  #174 ) ;
#49 = FACE_OUTER_BOUND ( 'NONE', #361, .T. ) ;
#50 = ADVANCED_FACE ( 'NONE', ( #75 ), #48, .F. ) ;
#51 = SPHERICAL_SURFACE ( 'NONE', #7, 0.09374999999999998612 ) ;
#52 =( LENGTH_UNIT ( ) NAMED_UNIT ( * ) SI_UNIT ( $, .METRE. ) );
#53 =( NAMED_UNIT ( * ) PLANE_ANGLE_UNIT ( ) SI_UNIT ( $, .RADIAN. ) );
#54 = AXIS2_PLACEMENT_3D ( 'NONE', #46, #159, #127 ) ;
#55 = CIRCLE ( 'NONE', #165, 0.09374999999999998612 ) ;
#56 =( NAMED_UNIT ( * ) SI_UNIT ( $, .STERADIAN. ) SOLID_ANGLE_UNIT ( ) );
#57 = EDGE_CURVE ( 'NONE', #178, #181, #240, .T. ) ;
#58 = PRODUCT_RELATED_PRODUCT_CATEGORY ( 'part', '', ( #166 ) ) ;
#59 = DIRECTION ( 'NONE',  ( 1.000000000000000000, 0.000000000000000000, 0.000000000000000000 ) ) ;
#60 = ORIENTED_EDGE ( 'NONE', *, *, #352, .F. ) ;
#61 = ADVANCED_FACE ( 'NONE', ( #108 ), #51, .T. ) ;
#62 = STYLED_ITEM ( 'NONE', ( #249 ), #137 ) ;
#63 = COLOUR_RGB ( '',0.7921568627450980005, 0.8196078431372548767, 0.9333333333333333481 ) ;
#64 = DIRECTION ( 'NONE',  ( -1.224646799147353207E-16, 1.000000000000000000, -0.000000000000000000 ) ) ;
#65 = ORIENTED_EDGE ( 'NONE', *, *, #287, .T. ) ;
#66 = ADVANCED_FACE ( 'NONE', ( #21 ), #135, .T. ) ;
#67 =( NAMED_UNIT ( * ) PLANE_ANGLE_UNIT ( ) SI_UNIT ( $, .RADIAN. ) );
#68 = ORIENTED_EDGE ( 'NONE', *, *, #117, .F. ) ;
#69 = ORIENTED_EDGE ( 'NONE', *, *, #183, .T. ) ;
#70 = MECHANICAL_DESIGN_GEOMETRIC_PRESENTATION_REPRESENTATION (  '', ( #4 ), #91 ) ;
#71 = ORIENTED_EDGE ( 'NONE', *, *, #183, .F. ) ;
#72 = LINE ( 'NONE', #278, #233 ) ;
#73 = FILL_AREA_STYLE_COLOUR ( '', #82 ) ;
#74 =( NAMED_UNIT ( * ) SI_UNIT ( $, .STERADIAN. ) SOLID_ANGLE_UNIT ( ) );
#75 = FACE_OUTER_BOUND ( 'NONE', #37, .T. ) ;
#76 = SURFACE_STYLE_USAGE ( .BOTH. , #341 ) ;
#77 = DIMENSIONAL_EXPONENTS ( 1.000000000000000000, 0.000000000000000000, 0.000000000000000000, 0.000000000000000000, 0.000000000000000000, 0.000000000000000000, 0.000000000000000000 ) ;
#78 = PRESENTATION_LAYER_ASSIGNMENT (  '', '', ( #20 ) ) ;
#79 = DIRECTION ( 'NONE',  ( -1.000000000000000000, 0.000000000000000000, 0.000000000000000000 ) ) ;
#80 =( CONVERSION_BASED_UNIT ( 'INCH', #22 ) LENGTH_UNIT ( ) NAMED_UNIT ( #284 ) );
#81 = PRODUCT_DEFINITION ( 'UNKNOWN', '', #15, #245 ) ;
#82 = COLOUR_RGB ( '',1.000000000000000000, 0.000000000000000000, 0.000000000000000000 ) ;
#83 = AXIS2_PLACEMENT_3D ( 'NONE', #214, #136, #347 ) ;
#84 = DIRECTION ( 'NONE',  ( -1.000000000000000000, 0.000000000000000000, 0.000000000000000000 ) ) ;
#85 = CIRCLE ( 'NONE', #134, 0.09374999999999998612 ) ;
#86 =( NAMED_UNIT ( * ) PLANE_ANGLE_UNIT ( ) SI_UNIT ( $, .RADIAN. ) );
#87 = CARTESIAN_POINT ( 'NONE',  ( -1.148106374200643401E-17, 0.09374999999999998612, 0.000000000000000000 ) ) ;
#88 = ORIENTED_EDGE ( 'NONE', *, *, #30, .T. ) ;
#89 = DIMENSIONAL_EXPONENTS ( 1.000000000000000000, 0.000000000000000000, 0.000000000000000000, 0.000000000000000000, 0.000000000000000000, 0.000000000000000000, 0.000000000000000000 ) ;
#90 =( NAMED_UNIT ( * ) PLANE_ANGLE_UNIT ( ) SI_UNIT ( $, .RADIAN. ) );
#91 =( GEOMETRIC_REPRESENTATION_CONTEXT ( 3 ) GLOBAL_UNCERTAINTY_ASSIGNED_CONTEXT ( ( #153 ) ) GLOBAL_UNIT_ASSIGNED_CONTEXT ( ( #80, #128, #74 ) ) REPRESENTATION_CONTEXT ( 'NONE', 'WORKASPACE' ) );
#92 =( CONVERSION_BASED_UNIT ( 'INCH', #304 ) LENGTH_UNIT ( ) NAMED_UNIT ( #77 ) );
#93 = ORIENTED_EDGE ( 'NONE', *, *, #207, .F. ) ;
#94 =( LENGTH_UNIT ( ) NAMED_UNIT ( * ) SI_UNIT ( $, .METRE. ) );
#95 = ORIENTED_EDGE ( 'NONE', *, *, #57, .T. ) ;
#96 = LENGTH_MEASURE_WITH_UNIT ( LENGTH_MEASURE( 0.02539999999999999897 ), #151 );
#97 = VERTEX_POINT ( 'NONE', #345 ) ;
#98 = CIRCLE ( 'NONE', #323, 0.09374999999999998612 ) ;
#99 = AXIS2_PLACEMENT_3D ( 'NONE', #190, #47, #288 ) ;
#100 = MECHANICAL_DESIGN_GEOMETRIC_PRESENTATION_REPRESENTATION (  '', ( #242 ), #228 ) ;
#101 = DIRECTION ( 'NONE',  ( -1.000000000000000000, 0.000000000000000000, 0.000000000000000000 ) ) ;
#102 = PLANE ( 'NONE',  #200 ) ;
#103 = DIRECTION ( 'NONE',  ( 0.000000000000000000, 0.000000000000000000, -1.000000000000000000 ) ) ;
#104 = LENGTH_MEASURE_WITH_UNIT ( LENGTH_MEASURE( 0.02539999999999999897 ), #52 );
#105 = LINE ( 'NONE', #286, #232 ) ;
#106 = FILL_AREA_STYLE_COLOUR ( '', #192 ) ;
#107 = STYLED_ITEM ( 'NONE', ( #362 ), #201 ) ;
#108 = FACE_OUTER_BOUND ( 'NONE', #122, .T. ) ;
#109 =( NAMED_UNIT ( * ) PLANE_ANGLE_UNIT ( ) SI_UNIT ( $, .RADIAN. ) );
#110 = DIRECTION ( 'NONE',  ( -1.224646799147353207E-16, 1.000000000000000000, -0.000000000000000000 ) ) ;
#111 = DIRECTION ( 'NONE',  ( -0.000000000000000000, -1.000000000000000000, -0.000000000000000000 ) ) ;
#112 = DIRECTION ( 'NONE',  ( -1.000000000000000000, 0.000000000000000000, 0.000000000000000000 ) ) ;
#113 = DIRECTION ( 'NONE',  ( 0.000000000000000000, 0.000000000000000000, 1.000000000000000000 ) ) ;
#114 =( GEOMETRIC_REPRESENTATION_CONTEXT ( 3 ) GLOBAL_UNCERTAINTY_ASSIGNED_CONTEXT ( ( #313 ) ) GLOBAL_UNIT_ASSIGNED_CONTEXT ( ( #41, #90, #218 ) ) REPRESENTATION_CONTEXT ( 'NONE', 'WORKASPACE' ) );
#115 = CARTESIAN_POINT ( 'NONE',  ( -6.123233995736766036E-17, 2.500000000000000000, 0.000000000000000000 ) ) ;
#116 = CARTESIAN_POINT ( 'NONE',  ( 0.000000000000000000, 0.09375000000000001388, 0.000000000000000000 ) ) ;
#117 = EDGE_CURVE ( 'NONE', #329, #19, #98, .T. ) ;
#118 = ORIENTED_EDGE ( 'NONE', *, *, #223, .T. ) ;
#119 = DIRECTION ( 'NONE',  ( -1.224646799147353207E-16, 1.000000000000000000, -0.000000000000000000 ) ) ;
#120 = ORIENTED_EDGE ( 'NONE', *, *, #57, .F. ) ;
#121 = COLOUR_RGB ( '',1.000000000000000000, 0.000000000000000000, 0.000000000000000000 ) ;
#122 = EDGE_LOOP ( 'NONE', ( #281, #215, #71, #211 ) ) ;
#123 = FILL_AREA_STYLE ('',( #307 ) ) ;
#124 = DIRECTION ( 'NONE',  ( -0.000000000000000000, -1.000000000000000000, -0.000000000000000000 ) ) ;
#125 = EDGE_LOOP ( 'NONE', ( #333, #95, #247, #60, #93 ) ) ;
#126 = FILL_AREA_STYLE_COLOUR ( '', #63 ) ;
#127 = DIRECTION ( 'NONE',  ( -1.000000000000000000, 0.000000000000000000, 0.000000000000000000 ) ) ;
#128 =( NAMED_UNIT ( * ) PLANE_ANGLE_UNIT ( ) SI_UNIT ( $, .RADIAN. ) );
#129 = DIRECTION ( 'NONE',  ( -0.000000000000000000, -1.000000000000000000, -0.000000000000000000 ) ) ;
#130 = PRODUCT_DEFINITION_SHAPE ( 'NONE', 'NONE',  #81 ) ;
#131 = DIRECTION ( 'NONE',  ( 0.000000000000000000, 0.000000000000000000, -1.000000000000000000 ) ) ;
#132 = CARTESIAN_POINT ( 'NONE',  ( 0.09374999999999987510, 1.000000000000000000, 1.148106374200642476E-17 ) ) ;
#133 = CIRCLE ( 'NONE', #251, 0.09374999999999988898 ) ;
#134 = AXIS2_PLACEMENT_3D ( 'NONE', #158, #9, #17 ) ;
#135 = CYLINDRICAL_SURFACE ( 'NONE', #54, 0.09374999999999984734 ) ;
#136 = DIRECTION ( 'NONE',  ( -0.000000000000000000, -1.000000000000000000, -0.000000000000000000 ) ) ;
#137 = MANIFOLD_SOLID_BREP ( 'Revolve - Tool Body (Straight Shanked)', #28 ) ;
#138 = FILL_AREA_STYLE ('',( #32 ) ) ;
#139 = UNCERTAINTY_MEASURE_WITH_UNIT (LENGTH_MEASURE( 1.000000000000000082E-05 ), #332, 'distance_accuracy_value', 'NONE');
#140 = MECHANICAL_DESIGN_GEOMETRIC_PRESENTATION_REPRESENTATION (  '', ( #62 ), #144 ) ;
#141 = CIRCLE ( 'NONE', #29, 0.09374999999999998612 ) ;
#142 = LENGTH_MEASURE_WITH_UNIT ( LENGTH_MEASURE( 0.02539999999999999897 ), #269 );
#143 = COLOUR_RGB ( '',0.7921568627450980005, 0.8196078431372548767, 0.9333333333333333481 ) ;
#144 =( GEOMETRIC_REPRESENTATION_CONTEXT ( 3 ) GLOBAL_UNCERTAINTY_ASSIGNED_CONTEXT ( ( #292 ) ) GLOBAL_UNIT_ASSIGNED_CONTEXT ( ( #261, #26, #221 ) ) REPRESENTATION_CONTEXT ( 'NONE', 'WORKASPACE' ) );
#145 = DIMENSIONAL_EXPONENTS ( 1.000000000000000000, 0.000000000000000000, 0.000000000000000000, 0.000000000000000000, 0.000000000000000000, 0.000000000000000000, 0.000000000000000000 ) ;
#146 = VERTEX_POINT ( 'NONE', #346 ) ;
#147 = CARTESIAN_POINT ( 'NONE',  ( -0.09375000000000002776, 2.500000000000000000, 0.000000000000000000 ) ) ;
#148 = EDGE_CURVE ( 'NONE', #19, #335, #252, .T. ) ;
#149 = EDGE_LOOP ( 'NONE', ( #303, #184 ) ) ;
#150 = DIMENSIONAL_EXPONENTS ( 1.000000000000000000, 0.000000000000000000, 0.000000000000000000, 0.000000000000000000, 0.000000000000000000, 0.000000000000000000, 0.000000000000000000 ) ;
#151 =( LENGTH_UNIT ( ) NAMED_UNIT ( * ) SI_UNIT ( $, .METRE. ) );
#152 = CARTESIAN_POINT ( 'NONE',  ( 1.224646799147353207E-16, 1.000000000000000000, 0.000000000000000000 ) ) ;
#153 = UNCERTAINTY_MEASURE_WITH_UNIT (LENGTH_MEASURE( 1.000000000000000082E-05 ), #80, 'distance_accuracy_value', 'NONE');
#154 = COLOUR_RGB ( '',1.000000000000000000, 0.000000000000000000, 0.000000000000000000 ) ;
#155 = CARTESIAN_POINT ( 'NONE',  ( -6.123233995736766036E-17, 2.500000000000000000, 0.000000000000000000 ) ) ;
#156 = SURFACE_STYLE_FILL_AREA ( #254 ) ;
#157 = ORIENTED_EDGE ( 'NONE', *, *, #6, .F. ) ;
#158 = CARTESIAN_POINT ( 'NONE',  ( -1.148106374200643401E-17, 0.09374999999999998612, 0.000000000000000000 ) ) ;
#159 = DIRECTION ( 'NONE',  ( -1.224646799147353207E-16, 1.000000000000000000, -0.000000000000000000 ) ) ;
#160 = APPLICATION_CONTEXT ( 'automotive_design' ) ;
#161 = FILL_AREA_STYLE ('',( #106 ) ) ;
#162 = AXIS2_PLACEMENT_3D ( 'NONE', #115, #264, #112 ) ;
#163 = DIRECTION ( 'NONE',  ( 1.000000000000000000, 0.000000000000000000, 0.000000000000000000 ) ) ;
#164 =( CONVERSION_BASED_UNIT ( 'INCH', #229 ) LENGTH_UNIT ( ) NAMED_UNIT ( #243 ) );
#165 = AXIS2_PLACEMENT_3D ( 'NONE', #116, #124, #334 ) ;
#166 = PRODUCT ( '83415', '83415', '', ( #33 ) ) ;
#167 = ADVANCED_FACE ( 'NONE', ( #2 ), #350, .T. ) ;
#168 = SURFACE_SIDE_STYLE ('',( #204 ) ) ;
#169 = STYLED_ITEM ( 'NONE', ( #310 ), #187 ) ;
#170 =( GEOMETRIC_REPRESENTATION_CONTEXT ( 3 ) GLOBAL_UNCERTAINTY_ASSIGNED_CONTEXT ( ( #139 ) ) GLOBAL_UNIT_ASSIGNED_CONTEXT ( ( #332, #262, #203 ) ) REPRESENTATION_CONTEXT ( 'NONE', 'WORKASPACE' ) );
#171 = FACE_OUTER_BOUND ( 'NONE', #40, .T. ) ;
#172 = DIRECTION ( 'NONE',  ( 0.000000000000000000, 0.000000000000000000, -1.000000000000000000 ) ) ;
#173 = DIRECTION ( 'NONE',  ( 0.000000000000000000, 0.000000000000000000, 1.000000000000000000 ) ) ;
#174 = AXIS2_PLACEMENT_3D ( 'NONE', #372, #222, #225 ) ;
#175 = ORIENTED_EDGE ( 'NONE', *, *, #223, .F. ) ;
#176 = MECHANICAL_DESIGN_GEOMETRIC_PRESENTATION_REPRESENTATION (  '', ( #107 ), #267 ) ;
#177 = PRESENTATION_LAYER_ASSIGNMENT (  '', '', ( #242 ) ) ;
#178 = VERTEX_POINT ( 'NONE', #290 ) ;
#179 = ADVANCED_FACE ( 'NONE', ( #171 ), #297, .T. ) ;
#180 = FACE_OUTER_BOUND ( 'NONE', #149, .T. ) ;
#181 = VERTEX_POINT ( 'NONE', #235 ) ;
#182 = MECHANICAL_DESIGN_GEOMETRIC_PRESENTATION_REPRESENTATION (  '', ( #169 ), #114 ) ;
#183 = EDGE_CURVE ( 'NONE', #19, #365, #298, .T. ) ;
#184 = ORIENTED_EDGE ( 'NONE', *, *, #287, .F. ) ;
#185 = SURFACE_SIDE_STYLE ('',( #246 ) ) ;
#186 = PRESENTATION_STYLE_ASSIGNMENT (( #256 ) ) ;
#187 = ADVANCED_FACE ( 'NONE', ( #325 ), #291, .T. ) ;
#188 = DIRECTION ( 'NONE',  ( 0.000000000000000000, 1.000000000000000000, 0.000000000000000000 ) ) ;
#189 = CARTESIAN_POINT ( 'NONE',  ( 0.000000000000000000, 1.000000000000000000, 0.000000000000000000 ) ) ;
#190 = CARTESIAN_POINT ( 'NONE',  ( 1.224646799147353454E-16, 1.000000000000000000, 0.000000000000000000 ) ) ;
#191 = AXIS2_PLACEMENT_3D ( 'NONE', #24, #129, #131 ) ;
#192 = COLOUR_RGB ( '',1.000000000000000000, 0.000000000000000000, 0.000000000000000000 ) ;
#193 =( NAMED_UNIT ( * ) SI_UNIT ( $, .STERADIAN. ) SOLID_ANGLE_UNIT ( ) );
#194 = CARTESIAN_POINT ( 'NONE',  ( -6.123233995736766036E-17, 2.500000000000000000, 0.000000000000000000 ) ) ;
#195 =( LENGTH_UNIT ( ) NAMED_UNIT ( * ) SI_UNIT ( $, .METRE. ) );
#196 = PRESENTATION_STYLE_ASSIGNMENT (( #76 ) ) ;
#197 = DIRECTION ( 'NONE',  ( -1.224646799147353207E-16, 1.000000000000000000, -0.000000000000000000 ) ) ;
#198 = AXIS2_PLACEMENT_3D ( 'NONE', #155, #110, #101 ) ;
#199 = AXIS2_PLACEMENT_3D ( 'NONE', #194, #321, #79 ) ;
#200 = AXIS2_PLACEMENT_3D ( 'NONE', #220, #188, #371 ) ;
#201 = ADVANCED_FACE ( 'NONE', ( #14 ), #280, .T. ) ;
#202 =( LENGTH_UNIT ( ) NAMED_UNIT ( * ) SI_UNIT ( $, .METRE. ) );
#203 =( NAMED_UNIT ( * ) SI_UNIT ( $, .STERADIAN. ) SOLID_ANGLE_UNIT ( ) );
#204 = SURFACE_STYLE_FILL_AREA ( #328 ) ;
#205 = APPLICATION_CONTEXT ( 'automotive_design' ) ;
#206 = PRESENTATION_LAYER_ASSIGNMENT (  '', '', ( #169 ) ) ;
#207 = EDGE_CURVE ( 'NONE', #335, #237, #55, .T. ) ;
#208 = EDGE_CURVE ( 'NONE', #178, #335, #72, .T. ) ;
#209 = CARTESIAN_POINT ( 'NONE',  ( 0.000000000000000000, 0.09375000000000001388, 0.000000000000000000 ) ) ;
#210 = ORIENTED_EDGE ( 'NONE', *, *, #295, .F. ) ;
#211 = ORIENTED_EDGE ( 'NONE', *, *, #148, .T. ) ;
#212 = APPLICATION_PROTOCOL_DEFINITION ( 'draft international standard', 'automotive_design', 1998, #160 ) ;
#213 = CARTESIAN_POINT ( 'NONE',  ( 0.000000000000000000, 0.000000000000000000, 0.000000000000000000 ) ) ;
#214 = CARTESIAN_POINT ( 'NONE',  ( 0.000000000000000000, 0.09375000000000001388, 0.000000000000000000 ) ) ;
#215 = ORIENTED_EDGE ( 'NONE', *, *, #236, .T. ) ;
#216 = EDGE_LOOP ( 'NONE', ( #88, #363, #13, #68, #270 ) ) ;
#217 = CIRCLE ( 'NONE', #99, 0.09374999999999976408 ) ;
#218 =( NAMED_UNIT ( * ) SI_UNIT ( $, .STERADIAN. ) SOLID_ANGLE_UNIT ( ) );
#219 = CARTESIAN_POINT ( 'NONE',  ( 0.09374999999999998612, 0.09375000000000001388, 0.000000000000000000 ) ) ;
#220 = CARTESIAN_POINT ( 'NONE',  ( 0.000000000000000000, 1.000000000000000000, 0.000000000000000000 ) ) ;
#221 =( NAMED_UNIT ( * ) SI_UNIT ( $, .STERADIAN. ) SOLID_ANGLE_UNIT ( ) );
#222 = DIRECTION ( 'NONE',  ( 1.224646799147353207E-16, -1.000000000000000000, 0.000000000000000000 ) ) ;
#223 = EDGE_CURVE ( 'NONE', #338, #97, #38, .T. ) ;
#224 = CARTESIAN_POINT ( 'NONE',  ( -0.09374999999999991673, 2.500000000000000000, 0.000000000000000000 ) ) ;
#225 = DIRECTION ( 'NONE',  ( 1.000000000000000000, 1.224646799147353207E-16, 0.000000000000000000 ) ) ;
#226 = SURFACE_SIDE_STYLE ('',( #282 ) ) ;
#227 = COLOUR_RGB ( '',1.000000000000000000, 0.000000000000000000, 0.000000000000000000 ) ;
#228 =( GEOMETRIC_REPRESENTATION_CONTEXT ( 3 ) GLOBAL_UNCERTAINTY_ASSIGNED_CONTEXT ( ( #31 ) ) GLOBAL_UNIT_ASSIGNED_CONTEXT ( ( #259, #109, #56 ) ) REPRESENTATION_CONTEXT ( 'NONE', 'WORKASPACE' ) );
#229 = LENGTH_MEASURE_WITH_UNIT ( LENGTH_MEASURE( 0.02539999999999999897 ), #195 );
#230 = PRESENTATION_STYLE_ASSIGNMENT (( #322 ) ) ;
#231 = SHAPE_DEFINITION_REPRESENTATION ( #130, #11 ) ;
#232 = VECTOR ( 'NONE', #366, 39.37007874015748143 ) ;
#233 = VECTOR ( 'NONE', #314, 39.37007874015748143 ) ;
#234 = AXIS2_PLACEMENT_3D ( 'NONE', #272, #119, #23 ) ;
#235 = CARTESIAN_POINT ( 'NONE',  ( 0.000000000000000000, 1.000000000000000000, -0.09374999999999988898 ) ) ;
#236 = EDGE_CURVE ( 'NONE', #237, #365, #85, .T. ) ;
#237 = VERTEX_POINT ( 'NONE', #302 ) ;
#238 = SURFACE_STYLE_USAGE ( .BOTH. , #185 ) ;
#239 = DIRECTION ( 'NONE',  ( 0.000000000000000000, 0.000000000000000000, -1.000000000000000000 ) ) ;
#240 = CIRCLE ( 'NONE', #191, 0.09374999999999988898 ) ;
#241 = ORIENTED_EDGE ( 'NONE', *, *, #295, .T. ) ;
#242 = STYLED_ITEM ( 'NONE', ( #230 ), #339 ) ;
#243 = DIMENSIONAL_EXPONENTS ( 1.000000000000000000, 0.000000000000000000, 0.000000000000000000, 0.000000000000000000, 0.000000000000000000, 0.000000000000000000, 0.000000000000000000 ) ;
#244 = DIRECTION ( 'NONE',  ( -1.224646799147353207E-16, 1.000000000000000000, 0.000000000000000000 ) ) ;
#245 = PRODUCT_DEFINITION_CONTEXT ( 'detailed design', #160, 'design' ) ;
#246 = SURFACE_STYLE_FILL_AREA ( #123 ) ;
#247 = ORIENTED_EDGE ( 'NONE', *, *, #44, .T. ) ;
#248 = CARTESIAN_POINT ( 'NONE',  ( 0.000000000000000000, 0.000000000000000000, 0.000000000000000000 ) ) ;
#249 = PRESENTATION_STYLE_ASSIGNMENT (( #358 ) ) ;
#250 = VERTEX_POINT ( 'NONE', #147 ) ;
#251 = AXIS2_PLACEMENT_3D ( 'NONE', #189, #318, #258 ) ;
#252 = CIRCLE ( 'NONE', #83, 0.09374999999999998612 ) ;
#253 = CARTESIAN_POINT ( 'NONE',  ( 0.000000000000000000, 0.09375000000000001388, -0.09374999999999998612 ) ) ;
#254 = FILL_AREA_STYLE ('',( #311 ) ) ;
#255 =( LENGTH_UNIT ( ) NAMED_UNIT ( * ) SI_UNIT ( $, .METRE. ) );
#256 = SURFACE_STYLE_USAGE ( .BOTH. , #340 ) ;
#257 = LINE ( 'NONE', #224, #324 ) ;
#258 = DIRECTION ( 'NONE',  ( 0.000000000000000000, 0.000000000000000000, -1.000000000000000000 ) ) ;
#259 =( CONVERSION_BASED_UNIT ( 'INCH', #25 ) LENGTH_UNIT ( ) NAMED_UNIT ( #315 ) );
#260 = SURFACE_STYLE_FILL_AREA ( #285 ) ;
#261 =( CONVERSION_BASED_UNIT ( 'INCH', #104 ) LENGTH_UNIT ( ) NAMED_UNIT ( #89 ) );
#262 =( NAMED_UNIT ( * ) PLANE_ANGLE_UNIT ( ) SI_UNIT ( $, .RADIAN. ) );
#263 = CIRCLE ( 'NONE', #198, 0.09374999999999995837 ) ;
#264 = DIRECTION ( 'NONE',  ( -1.224646799147353207E-16, 1.000000000000000000, -0.000000000000000000 ) ) ;
#265 = PRESENTATION_LAYER_ASSIGNMENT (  '', '', ( #107 ) ) ;
#266 =( NAMED_UNIT ( * ) SI_UNIT ( $, .STERADIAN. ) SOLID_ANGLE_UNIT ( ) );
#267 =( GEOMETRIC_REPRESENTATION_CONTEXT ( 3 ) GLOBAL_UNCERTAINTY_ASSIGNED_CONTEXT ( ( #306 ) ) GLOBAL_UNIT_ASSIGNED_CONTEXT ( ( #92, #67, #45 ) ) REPRESENTATION_CONTEXT ( 'NONE', 'WORKASPACE' ) );
#268 = EDGE_CURVE ( 'NONE', #146, #338, #353, .T. ) ;
#269 =( LENGTH_UNIT ( ) NAMED_UNIT ( * ) SI_UNIT ( $, .METRE. ) );
#270 = ORIENTED_EDGE ( 'NONE', *, *, #44, .F. ) ;
#271 = MANIFOLD_SOLID_BREP ( 'Revolve - Cutting Edge', #357 ) ;
#272 = CARTESIAN_POINT ( 'NONE',  ( 1.224646799147353454E-16, 1.000000000000000000, 0.000000000000000000 ) ) ;
#273 = CARTESIAN_POINT ( 'NONE',  ( -5.740531871003217003E-18, 0.000000000000000000, 0.000000000000000000 ) ) ;
#274 = UNCERTAINTY_MEASURE_WITH_UNIT (LENGTH_MEASURE( 1.000000000000000082E-05 ), #35, 'distance_accuracy_value', 'NONE');
#275 = DIRECTION ( 'NONE',  ( -0.000000000000000000, -1.000000000000000000, -0.000000000000000000 ) ) ;
#276 = ORIENTED_EDGE ( 'NONE', *, *, #352, .T. ) ;
#277 = AXIS2_PLACEMENT_3D ( 'NONE', #87, #172, #84 ) ;
#278 = CARTESIAN_POINT ( 'NONE',  ( 1.148106374200642938E-17, 0.000000000000000000, 0.09374999999999994449 ) ) ;
#279 = ORIENTED_EDGE ( 'NONE', *, *, #320, .F. ) ;
#280 = CYLINDRICAL_SURFACE ( 'NONE', #359, 0.09374999999999994449 ) ;
#281 = ORIENTED_EDGE ( 'NONE', *, *, #207, .T. ) ;
#282 = SURFACE_STYLE_FILL_AREA ( #161 ) ;
#283 =( GEOMETRIC_REPRESENTATION_CONTEXT ( 3 ) GLOBAL_UNCERTAINTY_ASSIGNED_CONTEXT ( ( #274 ) ) GLOBAL_UNIT_ASSIGNED_CONTEXT ( ( #35, #86, #266 ) ) REPRESENTATION_CONTEXT ( 'NONE', 'WORKASPACE' ) );
#284 = DIMENSIONAL_EXPONENTS ( 1.000000000000000000, 0.000000000000000000, 0.000000000000000000, 0.000000000000000000, 0.000000000000000000, 0.000000000000000000, 0.000000000000000000 ) ;
#285 = FILL_AREA_STYLE ('',( #73 ) ) ;
#286 = CARTESIAN_POINT ( 'NONE',  ( 0.000000000000000000, 0.000000000000000000, -0.09374999999999994449 ) ) ;
#287 = EDGE_CURVE ( 'NONE', #338, #146, #217, .T. ) ;
#288 = DIRECTION ( 'NONE',  ( -1.000000000000000000, 0.000000000000000000, 0.000000000000000000 ) ) ;
#289 = PRESENTATION_LAYER_ASSIGNMENT (  '', '', ( #4 ) ) ;
#290 = CARTESIAN_POINT ( 'NONE',  ( 1.148106374200642476E-17, 1.000000000000000000, 0.09374999999999988898 ) ) ;
#291 = CYLINDRICAL_SURFACE ( 'NONE', #34, 0.09374999999999994449 ) ;
#292 = UNCERTAINTY_MEASURE_WITH_UNIT (LENGTH_MEASURE( 1.000000000000000082E-05 ), #261, 'distance_accuracy_value', 'NONE');
#293 = MECHANICAL_DESIGN_GEOMETRIC_PRESENTATION_REPRESENTATION (  '', ( #20 ), #337 ) ;
#294 = CARTESIAN_POINT ( 'NONE',  ( -1.148106374200643401E-17, 0.09374999999999998612, 0.000000000000000000 ) ) ;
#295 = EDGE_CURVE ( 'NONE', #146, #250, #257, .T. ) ;
#296 = AXIS2_PLACEMENT_3D ( 'NONE', #348, #173, #300 ) ;
#297 = CYLINDRICAL_SURFACE ( 'NONE', #162, 0.09374999999999984734 ) ;
#298 = CIRCLE ( 'NONE', #277, 0.09374999999999998612 ) ;
#299 = PRESENTATION_LAYER_ASSIGNMENT (  '', '', ( #344 ) ) ;
#300 = DIRECTION ( 'NONE',  ( 1.000000000000000000, 0.000000000000000000, 0.000000000000000000 ) ) ;
#301 = EDGE_LOOP ( 'NONE', ( #305, #276, #16, #69 ) ) ;
#302 = CARTESIAN_POINT ( 'NONE',  ( -0.09374999999999998612, 0.09375000000000001388, 1.148106374200643247E-17 ) ) ;
#303 = ORIENTED_EDGE ( 'NONE', *, *, #268, .F. ) ;
#304 = LENGTH_MEASURE_WITH_UNIT ( LENGTH_MEASURE( 0.02539999999999999897 ), #94 );
#305 = ORIENTED_EDGE ( 'NONE', *, *, #236, .F. ) ;
#306 = UNCERTAINTY_MEASURE_WITH_UNIT (LENGTH_MEASURE( 1.000000000000000082E-05 ), #92, 'distance_accuracy_value', 'NONE');
#307 = FILL_AREA_STYLE_COLOUR ( '', #154 ) ;
#308 = AXIS2_PLACEMENT_3D ( 'NONE', #152, #244, #309 ) ;
#309 = DIRECTION ( 'NONE',  ( -1.000000000000000000, -1.224646799147353207E-16, 0.000000000000000000 ) ) ;
#310 = PRESENTATION_STYLE_ASSIGNMENT (( #364 ) ) ;
#311 = FILL_AREA_STYLE_COLOUR ( '', #143 ) ;
#312 = EDGE_LOOP ( 'NONE', ( #43, #118, #157, #210 ) ) ;
#313 = UNCERTAINTY_MEASURE_WITH_UNIT (LENGTH_MEASURE( 1.000000000000000082E-05 ), #41, 'distance_accuracy_value', 'NONE');
#314 = DIRECTION ( 'NONE',  ( -0.000000000000000000, -1.000000000000000000, -0.000000000000000000 ) ) ;
#315 = DIMENSIONAL_EXPONENTS ( 1.000000000000000000, 0.000000000000000000, 0.000000000000000000, 0.000000000000000000, 0.000000000000000000, 0.000000000000000000, 0.000000000000000000 ) ;
#316 = SURFACE_SIDE_STYLE ('',( #156 ) ) ;
#317 = SURFACE_STYLE_FILL_AREA ( #368 ) ;
#318 = DIRECTION ( 'NONE',  ( -0.000000000000000000, -1.000000000000000000, -0.000000000000000000 ) ) ;
#319 = CARTESIAN_POINT ( 'NONE',  ( 1.148106374200643401E-17, 0.09375000000000001388, 0.09374999999999997224 ) ) ;
#320 = EDGE_CURVE ( 'NONE', #97, #250, #367, .T. ) ;
#321 = DIRECTION ( 'NONE',  ( -1.224646799147353207E-16, 1.000000000000000000, -0.000000000000000000 ) ) ;
#322 = SURFACE_STYLE_USAGE ( .BOTH. , #226 ) ;
#323 = AXIS2_PLACEMENT_3D ( 'NONE', #369, #1, #103 ) ;
#324 = VECTOR ( 'NONE', #197, 39.37007874015748143 ) ;
#325 = FACE_OUTER_BOUND ( 'NONE', #216, .T. ) ;
#326 = PRESENTATION_STYLE_ASSIGNMENT (( #354 ) ) ;
#327 = PRESENTATION_LAYER_ASSIGNMENT (  '', '', ( #62 ) ) ;
#328 = FILL_AREA_STYLE ('',( #8 ) ) ;
#329 = VERTEX_POINT ( 'NONE', #253 ) ;
#330 = CARTESIAN_POINT ( 'NONE',  ( 0.09374999999999979183, 2.500000000000000000, 1.148106374200641860E-17 ) ) ;
#331 = ORIENTED_EDGE ( 'NONE', *, *, #320, .T. ) ;
#332 =( CONVERSION_BASED_UNIT ( 'INCH', #360 ) LENGTH_UNIT ( ) NAMED_UNIT ( #343 ) );
#333 = ORIENTED_EDGE ( 'NONE', *, *, #208, .F. ) ;
#334 = DIRECTION ( 'NONE',  ( 0.000000000000000000, 0.000000000000000000, -1.000000000000000000 ) ) ;
#335 = VERTEX_POINT ( 'NONE', #319 ) ;
#336 = UNCERTAINTY_MEASURE_WITH_UNIT (LENGTH_MEASURE( 1.000000000000000082E-05 ), #164, 'distance_accuracy_value', 'NONE');
#337 =( GEOMETRIC_REPRESENTATION_CONTEXT ( 3 ) GLOBAL_UNCERTAINTY_ASSIGNED_CONTEXT ( ( #336 ) ) GLOBAL_UNIT_ASSIGNED_CONTEXT ( ( #164, #53, #193 ) ) REPRESENTATION_CONTEXT ( 'NONE', 'WORKASPACE' ) );
#338 = VERTEX_POINT ( 'NONE', #132 ) ;
#339 = ADVANCED_FACE ( 'NONE', ( #49 ), #102, .T. ) ;
#340 = SURFACE_SIDE_STYLE ('',( #260 ) ) ;
#341 = SURFACE_SIDE_STYLE ('',( #317 ) ) ;
#342 = CARTESIAN_POINT ( 'NONE',  ( -1.148106374200643401E-17, 0.09374999999999998612, 0.000000000000000000 ) ) ;
#343 = DIMENSIONAL_EXPONENTS ( 1.000000000000000000, 0.000000000000000000, 0.000000000000000000, 0.000000000000000000, 0.000000000000000000, 0.000000000000000000, 0.000000000000000000 ) ;
#344 = STYLED_ITEM ( 'NONE', ( #326 ), #167 ) ;
#345 = CARTESIAN_POINT ( 'NONE',  ( 0.09374999999999987510, 2.500000000000000000, 1.148106374200642476E-17 ) ) ;
#346 = CARTESIAN_POINT ( 'NONE',  ( -0.09374999999999965306, 1.000000000000000000, 0.000000000000000000 ) ) ;
#347 = DIRECTION ( 'NONE',  ( 0.000000000000000000, 0.000000000000000000, -1.000000000000000000 ) ) ;
#348 = CARTESIAN_POINT ( 'NONE',  ( 0.000000000000000000, 0.000000000000000000, 0.000000000000000000 ) ) ;
#349 = AXIS2_PLACEMENT_3D ( 'NONE', #294, #113, #59 ) ;
#350 = SPHERICAL_SURFACE ( 'NONE', #349, 0.09374999999999998612 ) ;
#351 = SURFACE_SIDE_STYLE ('',( #5 ) ) ;
#352 = EDGE_CURVE ( 'NONE', #237, #329, #141, .T. ) ;
#353 = CIRCLE ( 'NONE', #234, 0.09374999999999976408 ) ;
#354 = SURFACE_STYLE_USAGE ( .BOTH. , #168 ) ;
#355 = APPLICATION_PROTOCOL_DEFINITION ( 'draft international standard', 'automotive_design', 1998, #205 ) ;
#356 = PLANE ( 'NONE',  #308 ) ;
#357 = CLOSED_SHELL ( 'NONE', ( #61, #187, #339, #201, #167 ) ) ;
#358 = SURFACE_STYLE_USAGE ( .BOTH. , #316 ) ;
#359 = AXIS2_PLACEMENT_3D ( 'NONE', #213, #18, #12 ) ;
#360 = LENGTH_MEASURE_WITH_UNIT ( LENGTH_MEASURE( 0.02539999999999999897 ), #202 );
#361 = EDGE_LOOP ( 'NONE', ( #39, #120 ) ) ;
#362 = PRESENTATION_STYLE_ASSIGNMENT (( #238 ) ) ;
#363 = ORIENTED_EDGE ( 'NONE', *, *, #208, .T. ) ;
#364 = SURFACE_STYLE_USAGE ( .BOTH. , #351 ) ;
#365 = VERTEX_POINT ( 'NONE', #273 ) ;
#366 = DIRECTION ( 'NONE',  ( -0.000000000000000000, -1.000000000000000000, -0.000000000000000000 ) ) ;
#367 = CIRCLE ( 'NONE', #199, 0.09374999999999995837 ) ;
#368 = FILL_AREA_STYLE ('',( #126 ) ) ;
#369 = CARTESIAN_POINT ( 'NONE',  ( 0.000000000000000000, 0.09375000000000001388, 0.000000000000000000 ) ) ;
#370 =( LENGTH_UNIT ( ) NAMED_UNIT ( * ) SI_UNIT ( $, .METRE. ) );
#371 = DIRECTION ( 'NONE',  ( 0.000000000000000000, -0.000000000000000000, 1.000000000000000000 ) ) ;
#372 = CARTESIAN_POINT ( 'NONE',  ( 0.09374999999999988898, 2.500000000000000000, 0.000000000000000000 ) ) ;
#373 = MECHANICAL_DESIGN_GEOMETRIC_PRESENTATION_REPRESENTATION (  '', ( #344 ), #283 ) ;
ENDSEC;
END-ISO-10303-21;
