ISO-10303-21;
HEADER;
FILE_DESCRIPTION (( 'STEP AP214' ),
    '1' );
FILE_NAME ('59778.STEP',
    '2023-07-24T15:57:26',
    ( '' ),
    ( '' ),
    'SwSTEP 2.0',
    'SolidWorks 2023',
    '' );
FILE_SCHEMA (( 'AUTOMOTIVE_DESIGN' ));
ENDSEC;

DATA;
#1 =( GEOMETRIC_REPRESENTATION_CONTEXT ( 3 ) GLOBAL_UNCERTAINTY_ASSIGNED_CONTEXT ( ( #85 ) ) GLOBAL_UNIT_ASSIGNED_CONTEXT ( ( #283, #107, #200 ) ) REPRESENTATION_CONTEXT ( 'NONE', 'WORKASPACE' ) );
#2 = SURFACE_STYLE_USAGE ( .BOTH. , #22 ) ;
#3 = FACE_OUTER_BOUND ( 'NONE', #257, .T. ) ;
#4 = DIRECTION ( 'NONE',  ( 0.000000000000000000, 0.000000000000000000, -1.000000000000000000 ) ) ;
#5 = FILL_AREA_STYLE_COLOUR ( '', #20 ) ;
#6 = DIRECTION ( 'NONE',  ( -1.000000000000000000, 0.000000000000000000, 0.000000000000000000 ) ) ;
#7 = COLOUR_RGB ( '',0.7921568627450980005, 0.8196078431372548767, 0.9333333333333333481 ) ;
#8 = EDGE_CURVE ( 'NONE', #211, #169, #205, .T. ) ;
#9 = SURFACE_STYLE_FILL_AREA ( #228 ) ;
#10 = DIRECTION ( 'NONE',  ( -0.000000000000000000, -1.000000000000000000, -0.000000000000000000 ) ) ;
#11 = VERTEX_POINT ( 'NONE', #62 ) ;
#12 = CARTESIAN_POINT ( 'NONE',  ( -1.714505518806293849E-15, 89.00000000000000000, 0.000000000000000000 ) ) ;
#13 = EDGE_LOOP ( 'NONE', ( #272, #249, #93, #187 ) ) ;
#14 =( GEOMETRIC_REPRESENTATION_CONTEXT ( 3 ) GLOBAL_UNCERTAINTY_ASSIGNED_CONTEXT ( ( #64 ) ) GLOBAL_UNIT_ASSIGNED_CONTEXT ( ( #251, #54, #70 ) ) REPRESENTATION_CONTEXT ( 'NONE', 'WORKASPACE' ) );
#15 =( GEOMETRIC_REPRESENTATION_CONTEXT ( 3 ) GLOBAL_UNCERTAINTY_ASSIGNED_CONTEXT ( ( #108 ) ) GLOBAL_UNIT_ASSIGNED_CONTEXT ( ( #75, #190, #78 ) ) REPRESENTATION_CONTEXT ( 'NONE', 'WORKASPACE' ) );
#16 = ORIENTED_EDGE ( 'NONE', *, *, #136, .T. ) ;
#17 = DIRECTION ( 'NONE',  ( 0.000000000000000000, 0.000000000000000000, 1.000000000000000000 ) ) ;
#18 = CARTESIAN_POINT ( 'NONE',  ( -8.000000000000000000, 40.00000000000000000, 0.000000000000000000 ) ) ;
#19 = EDGE_CURVE ( 'NONE', #11, #211, #33, .T. ) ;
#20 = COLOUR_RGB ( '',1.000000000000000000, 0.000000000000000000, 0.000000000000000000 ) ;
#21 = SURFACE_STYLE_USAGE ( .BOTH. , #89 ) ;
#22 = SURFACE_SIDE_STYLE ('',( #266 ) ) ;
#23 = FACE_OUTER_BOUND ( 'NONE', #171, .T. ) ;
#24 = CYLINDRICAL_SURFACE ( 'NONE', #180, 8.000000000000000000 ) ;
#25 = SURFACE_STYLE_USAGE ( .BOTH. , #168 ) ;
#26 = MANIFOLD_SOLID_BREP ( 'Revolve - Cutting Edge', #157 ) ;
#27 = FACE_OUTER_BOUND ( 'NONE', #119, .T. ) ;
#28 = FILL_AREA_STYLE_COLOUR ( '', #7 ) ;
#29 =( LENGTH_UNIT ( ) NAMED_UNIT ( * ) SI_UNIT ( .MILLI., .METRE. ) );
#30 = ORIENTED_EDGE ( 'NONE', *, *, #163, .T. ) ;
#31 = CARTESIAN_POINT ( 'NONE',  ( -8.000000000000003553, 89.00000000000000000, 0.000000000000000000 ) ) ;
#32 = MECHANICAL_DESIGN_GEOMETRIC_PRESENTATION_REPRESENTATION (  '', ( #223 ), #130 ) ;
#33 = CIRCLE ( 'NONE', #244, 8.000000000000000000 ) ;
#34 = CARTESIAN_POINT ( 'NONE',  ( 9.797174393178825657E-16, 0.000000000000000000, 8.000000000000000000 ) ) ;
#35 = AXIS2_PLACEMENT_3D ( 'NONE', #230, #146, #261 ) ;
#36 = LINE ( 'NONE', #34, #68 ) ;
#37 = ADVANCED_FACE ( 'NONE', ( #143 ), #179, .T. ) ;
#38 = AXIS2_PLACEMENT_3D ( 'NONE', #97, #227, #6 ) ;
#39 = SURFACE_STYLE_USAGE ( .BOTH. , #102 ) ;
#40 = FILL_AREA_STYLE ('',( #243 ) ) ;
#41 = STYLED_ITEM ( 'NONE', ( #165 ), #286 ) ;
#42 = UNCERTAINTY_MEASURE_WITH_UNIT (LENGTH_MEASURE( 1.000000000000000082E-05 ), #106, 'distance_accuracy_value', 'NONE');
#43 = APPLICATION_CONTEXT ( 'automotive_design' ) ;
#44 =( NAMED_UNIT ( * ) SI_UNIT ( $, .STERADIAN. ) SOLID_ANGLE_UNIT ( ) );
#45 = FACE_OUTER_BOUND ( 'NONE', #13, .T. ) ;
#46 = PLANE ( 'NONE',  #262 ) ;
#47 = FACE_OUTER_BOUND ( 'NONE', #235, .T. ) ;
#48 = CARTESIAN_POINT ( 'NONE',  ( 1.925929944387235853E-31, 40.00000000000000000, 0.000000000000000000 ) ) ;
#49 = DIRECTION ( 'NONE',  ( -0.000000000000000000, -1.000000000000000000, -0.000000000000000000 ) ) ;
#50 = ORIENTED_EDGE ( 'NONE', *, *, #8, .F. ) ;
#51 = LINE ( 'NONE', #58, #61 ) ;
#52 = PRESENTATION_STYLE_ASSIGNMENT (( #210 ) ) ;
#53 = EDGE_LOOP ( 'NONE', ( #208, #123 ) ) ;
#54 =( NAMED_UNIT ( * ) PLANE_ANGLE_UNIT ( ) SI_UNIT ( $, .RADIAN. ) );
#55 = EDGE_LOOP ( 'NONE', ( #16, #259 ) ) ;
#56 = PRESENTATION_STYLE_ASSIGNMENT (( #25 ) ) ;
#57 = VERTEX_POINT ( 'NONE', #95 ) ;
#58 = CARTESIAN_POINT ( 'NONE',  ( 7.999999999999998224, 89.00000000000000000, 9.797174393178825657E-16 ) ) ;
#59 = VECTOR ( 'NONE', #209, 1000.000000000000000 ) ;
#60 = PRESENTATION_LAYER_ASSIGNMENT (  '', '', ( #105 ) ) ;
#61 = VECTOR ( 'NONE', #231, 1000.000000000000000 ) ;
#62 = CARTESIAN_POINT ( 'NONE',  ( 9.797174393178825657E-16, 40.00000000000000000, 8.000000000000000000 ) ) ;
#63 =( NAMED_UNIT ( * ) PLANE_ANGLE_UNIT ( ) SI_UNIT ( $, .RADIAN. ) );
#64 = UNCERTAINTY_MEASURE_WITH_UNIT (LENGTH_MEASURE( 1.000000000000000082E-05 ), #251, 'distance_accuracy_value', 'NONE');
#65 = PRESENTATION_STYLE_ASSIGNMENT (( #39 ) ) ;
#66 = CARTESIAN_POINT ( 'NONE',  ( 8.000000000000000000, 89.00000000000000000, 0.000000000000000000 ) ) ;
#67 = ADVANCED_FACE ( 'NONE', ( #47 ), #112, .T. ) ;
#68 = VECTOR ( 'NONE', #219, 1000.000000000000000 ) ;
#69 = CARTESIAN_POINT ( 'NONE',  ( 0.000000000000000000, 0.000000000000000000, -8.000000000000000000 ) ) ;
#70 =( NAMED_UNIT ( * ) SI_UNIT ( $, .STERADIAN. ) SOLID_ANGLE_UNIT ( ) );
#71 = DIRECTION ( 'NONE',  ( -1.000000000000000000, 0.000000000000000000, 0.000000000000000000 ) ) ;
#72 = SHAPE_DEFINITION_REPRESENTATION ( #98, #133 ) ;
#73 = DIRECTION ( 'NONE',  ( -0.000000000000000000, -1.000000000000000000, -0.000000000000000000 ) ) ;
#74 = VERTEX_POINT ( 'NONE', #204 ) ;
#75 =( LENGTH_UNIT ( ) NAMED_UNIT ( * ) SI_UNIT ( .MILLI., .METRE. ) );
#76 = ORIENTED_EDGE ( 'NONE', *, *, #225, .T. ) ;
#77 = CIRCLE ( 'NONE', #148, 8.000000000000000000 ) ;
#78 =( NAMED_UNIT ( * ) SI_UNIT ( $, .STERADIAN. ) SOLID_ANGLE_UNIT ( ) );
#79 = EDGE_LOOP ( 'NONE', ( #277, #191, #151, #256 ) ) ;
#80 = DIRECTION ( 'NONE',  ( -3.498990854706722745E-17, 1.000000000000000000, 0.000000000000000000 ) ) ;
#81 = EDGE_CURVE ( 'NONE', #233, #215, #176, .T. ) ;
#82 = DIRECTION ( 'NONE',  ( -0.000000000000000000, -1.000000000000000000, -0.000000000000000000 ) ) ;
#83 =( GEOMETRIC_REPRESENTATION_CONTEXT ( 3 ) GLOBAL_UNCERTAINTY_ASSIGNED_CONTEXT ( ( #42 ) ) GLOBAL_UNIT_ASSIGNED_CONTEXT ( ( #106, #183, #137 ) ) REPRESENTATION_CONTEXT ( 'NONE', 'WORKASPACE' ) );
#84 = AXIS2_PLACEMENT_3D ( 'NONE', #121, #17, #212 ) ;
#85 = UNCERTAINTY_MEASURE_WITH_UNIT (LENGTH_MEASURE( 1.000000000000000082E-05 ), #283, 'distance_accuracy_value', 'NONE');
#86 = PRODUCT_DEFINITION ( 'UNKNOWN', '', #161, #135 ) ;
#87 = DIRECTION ( 'NONE',  ( -3.498990854706722745E-17, 1.000000000000000000, -0.000000000000000000 ) ) ;
#88 =( LENGTH_UNIT ( ) NAMED_UNIT ( * ) SI_UNIT ( .MILLI., .METRE. ) );
#89 = SURFACE_SIDE_STYLE ('',( #222 ) ) ;
#90 = LINE ( 'NONE', #226, #59 ) ;
#91 = DIRECTION ( 'NONE',  ( -1.000000000000000000, 0.000000000000000000, 0.000000000000000000 ) ) ;
#92 = MECHANICAL_DESIGN_GEOMETRIC_PRESENTATION_REPRESENTATION (  '', ( #105 ), #116 ) ;
#93 = ORIENTED_EDGE ( 'NONE', *, *, #8, .T. ) ;
#94 = CARTESIAN_POINT ( 'NONE',  ( 0.000000000000000000, 0.000000000000000000, 0.000000000000000000 ) ) ;
#95 = CARTESIAN_POINT ( 'NONE',  ( 9.797174393178825657E-16, 0.000000000000000000, 8.000000000000000000 ) ) ;
#96 = VERTEX_POINT ( 'NONE', #31 ) ;
#97 = CARTESIAN_POINT ( 'NONE',  ( -1.714505518806293849E-15, 89.00000000000000000, 0.000000000000000000 ) ) ;
#98 = PRODUCT_DEFINITION_SHAPE ( 'NONE', 'NONE',  #86 ) ;
#99 = COLOUR_RGB ( '',1.000000000000000000, 0.000000000000000000, 0.000000000000000000 ) ;
#100 = DIRECTION ( 'NONE',  ( -3.498990854706722745E-17, 1.000000000000000000, -0.000000000000000000 ) ) ;
#101 = APPLICATION_PROTOCOL_DEFINITION ( 'draft international standard', 'automotive_design', 1998, #156 ) ;
#102 = SURFACE_SIDE_STYLE ('',( #276 ) ) ;
#103 = ADVANCED_FACE ( 'NONE', ( #27 ), #270, .T. ) ;
#104 = AXIS2_PLACEMENT_3D ( 'NONE', #167, #49, #203 ) ;
#105 = STYLED_ITEM ( 'NONE', ( #221 ), #26 ) ;
#106 =( LENGTH_UNIT ( ) NAMED_UNIT ( * ) SI_UNIT ( .MILLI., .METRE. ) );
#107 =( NAMED_UNIT ( * ) PLANE_ANGLE_UNIT ( ) SI_UNIT ( $, .RADIAN. ) );
#108 = UNCERTAINTY_MEASURE_WITH_UNIT (LENGTH_MEASURE( 1.000000000000000082E-05 ), #75, 'distance_accuracy_value', 'NONE');
#109 = DIRECTION ( 'NONE',  ( -1.000000000000000000, 0.000000000000000000, 0.000000000000000000 ) ) ;
#110 = DIRECTION ( 'NONE',  ( 3.498990854706722745E-17, -1.000000000000000000, 0.000000000000000000 ) ) ;
#111 = CARTESIAN_POINT ( 'NONE',  ( 0.000000000000000000, 0.000000000000000000, 0.000000000000000000 ) ) ;
#112 = CYLINDRICAL_SURFACE ( 'NONE', #38, 8.000000000000000000 ) ;
#113 =( NAMED_UNIT ( * ) SI_UNIT ( $, .STERADIAN. ) SOLID_ANGLE_UNIT ( ) );
#114 = SURFACE_STYLE_FILL_AREA ( #122 ) ;
#115 = ORIENTED_EDGE ( 'NONE', *, *, #195, .F. ) ;
#116 =( GEOMETRIC_REPRESENTATION_CONTEXT ( 3 ) GLOBAL_UNCERTAINTY_ASSIGNED_CONTEXT ( ( #287 ) ) GLOBAL_UNIT_ASSIGNED_CONTEXT ( ( #88, #63, #44 ) ) REPRESENTATION_CONTEXT ( 'NONE', 'WORKASPACE' ) );
#117 = CARTESIAN_POINT ( 'NONE',  ( 4.897174800528513241E-33, 40.00000000000000000, 0.000000000000000000 ) ) ;
#118 = CARTESIAN_POINT ( 'NONE',  ( 0.000000000000000000, 0.000000000000000000, 0.000000000000000000 ) ) ;
#119 = EDGE_LOOP ( 'NONE', ( #229, #30 ) ) ;
#120 = CARTESIAN_POINT ( 'NONE',  ( 0.000000000000000000, 40.00000000000000000, 0.000000000000000000 ) ) ;
#121 = CARTESIAN_POINT ( 'NONE',  ( 0.000000000000000000, 0.000000000000000000, 0.000000000000000000 ) ) ;
#122 = FILL_AREA_STYLE ('',( #149 ) ) ;
#123 = ORIENTED_EDGE ( 'NONE', *, *, #19, .F. ) ;
#124 = EDGE_CURVE ( 'NONE', #74, #96, #166, .T. ) ;
#125 = AXIS2_PLACEMENT_3D ( 'NONE', #12, #232, #71 ) ;
#126 = MANIFOLD_SOLID_BREP ( 'Revolve - Tool Body (Straight Shanked)', #265 ) ;
#127 = FACE_OUTER_BOUND ( 'NONE', #55, .T. ) ;
#128 = COLOUR_RGB ( '',1.000000000000000000, 0.000000000000000000, 0.000000000000000000 ) ;
#129 = PRESENTATION_LAYER_ASSIGNMENT (  '', '', ( #238 ) ) ;
#130 =( GEOMETRIC_REPRESENTATION_CONTEXT ( 3 ) GLOBAL_UNCERTAINTY_ASSIGNED_CONTEXT ( ( #245 ) ) GLOBAL_UNIT_ASSIGNED_CONTEXT ( ( #142, #206, #113 ) ) REPRESENTATION_CONTEXT ( 'NONE', 'WORKASPACE' ) );
#131 = DIRECTION ( 'NONE',  ( -0.000000000000000000, -1.000000000000000000, -0.000000000000000000 ) ) ;
#132 = CARTESIAN_POINT ( 'NONE',  ( 0.000000000000000000, 40.00000000000000000, 0.000000000000000000 ) ) ;
#133 = ADVANCED_BREP_SHAPE_REPRESENTATION ( '59778', ( #26, #126, #84 ), #15 ) ;
#134 = CARTESIAN_POINT ( 'NONE',  ( -1.714505518806293849E-15, 89.00000000000000000, 0.000000000000000000 ) ) ;
#135 = PRODUCT_DEFINITION_CONTEXT ( 'detailed design', #43, 'design' ) ;
#136 = EDGE_CURVE ( 'NONE', #96, #74, #255, .T. ) ;
#137 =( NAMED_UNIT ( * ) SI_UNIT ( $, .STERADIAN. ) SOLID_ANGLE_UNIT ( ) );
#138 = DIRECTION ( 'NONE',  ( 0.000000000000000000, 0.000000000000000000, -1.000000000000000000 ) ) ;
#139 = FACE_OUTER_BOUND ( 'NONE', #79, .T. ) ;
#140 = FILL_AREA_STYLE ('',( #147 ) ) ;
#141 = DIRECTION ( 'NONE',  ( -3.498990854706722745E-17, 1.000000000000000000, -0.000000000000000000 ) ) ;
#142 =( LENGTH_UNIT ( ) NAMED_UNIT ( * ) SI_UNIT ( .MILLI., .METRE. ) );
#143 = FACE_OUTER_BOUND ( 'NONE', #53, .T. ) ;
#144 = ORIENTED_EDGE ( 'NONE', *, *, #81, .F. ) ;
#145 = EDGE_CURVE ( 'NONE', #215, #96, #90, .T. ) ;
#146 = DIRECTION ( 'NONE',  ( -3.498990854706722745E-17, 1.000000000000000000, -0.000000000000000000 ) ) ;
#147 = FILL_AREA_STYLE_COLOUR ( '', #285 ) ;
#148 = AXIS2_PLACEMENT_3D ( 'NONE', #224, #10, #138 ) ;
#149 = FILL_AREA_STYLE_COLOUR ( '', #128 ) ;
#150 = ORIENTED_EDGE ( 'NONE', *, *, #237, .T. ) ;
#151 = ORIENTED_EDGE ( 'NONE', *, *, #136, .F. ) ;
#152 = ORIENTED_EDGE ( 'NONE', *, *, #172, .F. ) ;
#153 = AXIS2_PLACEMENT_3D ( 'NONE', #48, #87, #164 ) ;
#154 = DIRECTION ( 'NONE',  ( -1.000000000000000000, -3.498990854706722745E-17, 0.000000000000000000 ) ) ;
#155 = DIRECTION ( 'NONE',  ( 1.000000000000000000, 3.498990854706722745E-17, 0.000000000000000000 ) ) ;
#156 = APPLICATION_CONTEXT ( 'automotive_design' ) ;
#157 = CLOSED_SHELL ( 'NONE', ( #193, #37, #286, #103 ) ) ;
#158 = PRESENTATION_LAYER_ASSIGNMENT (  '', '', ( #178 ) ) ;
#159 = DIRECTION ( 'NONE',  ( -0.000000000000000000, -1.000000000000000000, -0.000000000000000000 ) ) ;
#160 = MECHANICAL_DESIGN_GEOMETRIC_PRESENTATION_REPRESENTATION (  '', ( #238 ), #14 ) ;
#161 = PRODUCT_DEFINITION_FORMATION_WITH_SPECIFIED_SOURCE ( 'ANY', '', #192, .NOT_KNOWN. ) ;
#162 = FILL_AREA_STYLE ('',( #28 ) ) ;
#163 = EDGE_CURVE ( 'NONE', #57, #169, #77, .T. ) ;
#164 = DIRECTION ( 'NONE',  ( -1.000000000000000000, 0.000000000000000000, 0.000000000000000000 ) ) ;
#165 = PRESENTATION_STYLE_ASSIGNMENT (( #2 ) ) ;
#166 = CIRCLE ( 'NONE', #125, 8.000000000000001776 ) ;
#167 = CARTESIAN_POINT ( 'NONE',  ( 0.000000000000000000, 0.000000000000000000, 0.000000000000000000 ) ) ;
#168 = SURFACE_SIDE_STYLE ('',( #207 ) ) ;
#169 = VERTEX_POINT ( 'NONE', #69 ) ;
#170 = DIRECTION ( 'NONE',  ( 0.000000000000000000, 0.000000000000000000, -1.000000000000000000 ) ) ;
#171 = EDGE_LOOP ( 'NONE', ( #174, #144 ) ) ;
#172 = EDGE_CURVE ( 'NONE', #169, #57, #280, .T. ) ;
#173 = CARTESIAN_POINT ( 'NONE',  ( 1.925929944387235853E-31, 40.00000000000000000, 0.000000000000000000 ) ) ;
#174 = ORIENTED_EDGE ( 'NONE', *, *, #240, .F. ) ;
#175 = PRODUCT_CONTEXT ( 'NONE', #156, 'mechanical' ) ;
#176 = CIRCLE ( 'NONE', #252, 8.000000000000000000 ) ;
#177 = CARTESIAN_POINT ( 'NONE',  ( 0.000000000000000000, 40.00000000000000000, 0.000000000000000000 ) ) ;
#178 = STYLED_ITEM ( 'NONE', ( #65 ), #126 ) ;
#179 = PLANE ( 'NONE',  #263 ) ;
#180 = AXIS2_PLACEMENT_3D ( 'NONE', #111, #202, #4 ) ;
#181 = FILL_AREA_STYLE ('',( #288 ) ) ;
#182 = AXIS2_PLACEMENT_3D ( 'NONE', #94, #73, #250 ) ;
#183 =( NAMED_UNIT ( * ) PLANE_ANGLE_UNIT ( ) SI_UNIT ( $, .RADIAN. ) );
#184 = SURFACE_SIDE_STYLE ('',( #114 ) ) ;
#185 = AXIS2_PLACEMENT_3D ( 'NONE', #134, #141, #109 ) ;
#186 = VECTOR ( 'NONE', #131, 1000.000000000000000 ) ;
#187 = ORIENTED_EDGE ( 'NONE', *, *, #163, .F. ) ;
#188 = ORIENTED_EDGE ( 'NONE', *, *, #145, .T. ) ;
#189 =( NAMED_UNIT ( * ) PLANE_ANGLE_UNIT ( ) SI_UNIT ( $, .RADIAN. ) );
#190 =( NAMED_UNIT ( * ) PLANE_ANGLE_UNIT ( ) SI_UNIT ( $, .RADIAN. ) );
#191 = ORIENTED_EDGE ( 'NONE', *, *, #195, .T. ) ;
#192 = PRODUCT ( '59778', '59778', '', ( #175 ) ) ;
#193 = ADVANCED_FACE ( 'NONE', ( #3 ), #269, .T. ) ;
#194 = AXIS2_PLACEMENT_3D ( 'NONE', #132, #82, #246 ) ;
#195 = EDGE_CURVE ( 'NONE', #233, #74, #51, .T. ) ;
#196 = MECHANICAL_DESIGN_GEOMETRIC_PRESENTATION_REPRESENTATION (  '', ( #253 ), #284 ) ;
#197 = UNCERTAINTY_MEASURE_WITH_UNIT (LENGTH_MEASURE( 1.000000000000000082E-05 ), #29, 'distance_accuracy_value', 'NONE');
#198 = AXIS2_PLACEMENT_3D ( 'NONE', #66, #110, #155 ) ;
#199 = CYLINDRICAL_SURFACE ( 'NONE', #185, 8.000000000000000000 ) ;
#200 =( NAMED_UNIT ( * ) SI_UNIT ( $, .STERADIAN. ) SOLID_ANGLE_UNIT ( ) );
#201 = ADVANCED_FACE ( 'NONE', ( #23 ), #46, .F. ) ;
#202 = DIRECTION ( 'NONE',  ( -0.000000000000000000, -1.000000000000000000, -0.000000000000000000 ) ) ;
#203 = DIRECTION ( 'NONE',  ( 0.000000000000000000, 0.000000000000000000, -1.000000000000000000 ) ) ;
#204 = CARTESIAN_POINT ( 'NONE',  ( 8.000000000000000000, 89.00000000000000000, 9.797174393178825657E-16 ) ) ;
#205 = LINE ( 'NONE', #281, #186 ) ;
#206 =( NAMED_UNIT ( * ) PLANE_ANGLE_UNIT ( ) SI_UNIT ( $, .RADIAN. ) );
#207 = SURFACE_STYLE_FILL_AREA ( #140 ) ;
#208 = ORIENTED_EDGE ( 'NONE', *, *, #237, .F. ) ;
#209 = DIRECTION ( 'NONE',  ( -3.498990854706722745E-17, 1.000000000000000000, -0.000000000000000000 ) ) ;
#210 = SURFACE_STYLE_USAGE ( .BOTH. , #184 ) ;
#211 = VERTEX_POINT ( 'NONE', #239 ) ;
#212 = DIRECTION ( 'NONE',  ( 1.000000000000000000, 0.000000000000000000, 0.000000000000000000 ) ) ;
#213 = ORIENTED_EDGE ( 'NONE', *, *, #124, .F. ) ;
#214 = CIRCLE ( 'NONE', #153, 8.000000000000000000 ) ;
#215 = VERTEX_POINT ( 'NONE', #18 ) ;
#216 = ADVANCED_FACE ( 'NONE', ( #127 ), #217, .F. ) ;
#217 = PLANE ( 'NONE',  #198 ) ;
#218 = DIRECTION ( 'NONE',  ( 0.000000000000000000, 0.000000000000000000, -1.000000000000000000 ) ) ;
#219 = DIRECTION ( 'NONE',  ( -0.000000000000000000, -1.000000000000000000, -0.000000000000000000 ) ) ;
#220 = PRESENTATION_LAYER_ASSIGNMENT (  '', '', ( #41 ) ) ;
#221 = PRESENTATION_STYLE_ASSIGNMENT (( #21 ) ) ;
#222 = SURFACE_STYLE_FILL_AREA ( #40 ) ;
#223 = STYLED_ITEM ( 'NONE', ( #247 ), #193 ) ;
#224 = CARTESIAN_POINT ( 'NONE',  ( 0.000000000000000000, 0.000000000000000000, 0.000000000000000000 ) ) ;
#225 = EDGE_CURVE ( 'NONE', #11, #57, #36, .T. ) ;
#226 = CARTESIAN_POINT ( 'NONE',  ( -8.000000000000001776, 89.00000000000000000, 0.000000000000000000 ) ) ;
#227 = DIRECTION ( 'NONE',  ( -3.498990854706722745E-17, 1.000000000000000000, -0.000000000000000000 ) ) ;
#228 = FILL_AREA_STYLE ('',( #5 ) ) ;
#229 = ORIENTED_EDGE ( 'NONE', *, *, #172, .T. ) ;
#230 = CARTESIAN_POINT ( 'NONE',  ( -1.714505518806293849E-15, 89.00000000000000000, 0.000000000000000000 ) ) ;
#231 = DIRECTION ( 'NONE',  ( -3.498990854706722745E-17, 1.000000000000000000, -0.000000000000000000 ) ) ;
#232 = DIRECTION ( 'NONE',  ( -3.498990854706722745E-17, 1.000000000000000000, -0.000000000000000000 ) ) ;
#233 = VERTEX_POINT ( 'NONE', #282 ) ;
#234 = DIRECTION ( 'NONE',  ( 0.000000000000000000, 1.000000000000000000, 0.000000000000000000 ) ) ;
#235 = EDGE_LOOP ( 'NONE', ( #115, #278, #188, #213 ) ) ;
#236 = AXIS2_PLACEMENT_3D ( 'NONE', #118, #273, #170 ) ;
#237 = EDGE_CURVE ( 'NONE', #211, #11, #267, .T. ) ;
#238 = STYLED_ITEM ( 'NONE', ( #56 ), #37 ) ;
#239 = CARTESIAN_POINT ( 'NONE',  ( 0.000000000000000000, 40.00000000000000000, -8.000000000000000000 ) ) ;
#240 = EDGE_CURVE ( 'NONE', #215, #233, #214, .T. ) ;
#241 = PRESENTATION_LAYER_ASSIGNMENT (  '', '', ( #253 ) ) ;
#242 = PRESENTATION_LAYER_ASSIGNMENT (  '', '', ( #223 ) ) ;
#243 = FILL_AREA_STYLE_COLOUR ( '', #254 ) ;
#244 = AXIS2_PLACEMENT_3D ( 'NONE', #177, #159, #218 ) ;
#245 = UNCERTAINTY_MEASURE_WITH_UNIT (LENGTH_MEASURE( 1.000000000000000082E-05 ), #142, 'distance_accuracy_value', 'NONE');
#246 = DIRECTION ( 'NONE',  ( 0.000000000000000000, 0.000000000000000000, -1.000000000000000000 ) ) ;
#247 = PRESENTATION_STYLE_ASSIGNMENT (( #268 ) ) ;
#248 = DIRECTION ( 'NONE',  ( 0.000000000000000000, -0.000000000000000000, 1.000000000000000000 ) ) ;
#249 = ORIENTED_EDGE ( 'NONE', *, *, #19, .T. ) ;
#250 = DIRECTION ( 'NONE',  ( 0.000000000000000000, 0.000000000000000000, -1.000000000000000000 ) ) ;
#251 =( LENGTH_UNIT ( ) NAMED_UNIT ( * ) SI_UNIT ( .MILLI., .METRE. ) );
#252 = AXIS2_PLACEMENT_3D ( 'NONE', #173, #100, #91 ) ;
#253 = STYLED_ITEM ( 'NONE', ( #52 ), #103 ) ;
#254 = COLOUR_RGB ( '',0.7921568627450980005, 0.8196078431372548767, 0.9333333333333333481 ) ;
#255 = CIRCLE ( 'NONE', #35, 8.000000000000001776 ) ;
#256 = ORIENTED_EDGE ( 'NONE', *, *, #145, .F. ) ;
#257 = EDGE_LOOP ( 'NONE', ( #150, #76, #152, #50 ) ) ;
#258 = ADVANCED_FACE ( 'NONE', ( #139 ), #199, .T. ) ;
#259 = ORIENTED_EDGE ( 'NONE', *, *, #124, .T. ) ;
#260 = APPLICATION_PROTOCOL_DEFINITION ( 'draft international standard', 'automotive_design', 1998, #43 ) ;
#261 = DIRECTION ( 'NONE',  ( -1.000000000000000000, 0.000000000000000000, 0.000000000000000000 ) ) ;
#262 = AXIS2_PLACEMENT_3D ( 'NONE', #117, #80, #154 ) ;
#263 = AXIS2_PLACEMENT_3D ( 'NONE', #120, #234, #248 ) ;
#264 = MECHANICAL_DESIGN_GEOMETRIC_PRESENTATION_REPRESENTATION (  '', ( #178 ), #1 ) ;
#265 = CLOSED_SHELL ( 'NONE', ( #258, #201, #67, #216 ) ) ;
#266 = SURFACE_STYLE_FILL_AREA ( #181 ) ;
#267 = CIRCLE ( 'NONE', #194, 8.000000000000000000 ) ;
#268 = SURFACE_STYLE_USAGE ( .BOTH. , #279 ) ;
#269 = CYLINDRICAL_SURFACE ( 'NONE', #182, 8.000000000000000000 ) ;
#270 = PLANE ( 'NONE',  #236 ) ;
#271 = PRODUCT_RELATED_PRODUCT_CATEGORY ( 'part', '', ( #192 ) ) ;
#272 = ORIENTED_EDGE ( 'NONE', *, *, #225, .F. ) ;
#273 = DIRECTION ( 'NONE',  ( 0.000000000000000000, -1.000000000000000000, -0.000000000000000000 ) ) ;
#274 =( NAMED_UNIT ( * ) SI_UNIT ( $, .STERADIAN. ) SOLID_ANGLE_UNIT ( ) );
#275 = MECHANICAL_DESIGN_GEOMETRIC_PRESENTATION_REPRESENTATION (  '', ( #41 ), #83 ) ;
#276 = SURFACE_STYLE_FILL_AREA ( #162 ) ;
#277 = ORIENTED_EDGE ( 'NONE', *, *, #240, .T. ) ;
#278 = ORIENTED_EDGE ( 'NONE', *, *, #81, .T. ) ;
#279 = SURFACE_SIDE_STYLE ('',( #9 ) ) ;
#280 = CIRCLE ( 'NONE', #104, 8.000000000000000000 ) ;
#281 = CARTESIAN_POINT ( 'NONE',  ( 0.000000000000000000, 0.000000000000000000, -8.000000000000000000 ) ) ;
#282 = CARTESIAN_POINT ( 'NONE',  ( 8.000000000000000000, 40.00000000000000000, 9.797174393178825657E-16 ) ) ;
#283 =( LENGTH_UNIT ( ) NAMED_UNIT ( * ) SI_UNIT ( .MILLI., .METRE. ) );
#284 =( GEOMETRIC_REPRESENTATION_CONTEXT ( 3 ) GLOBAL_UNCERTAINTY_ASSIGNED_CONTEXT ( ( #197 ) ) GLOBAL_UNIT_ASSIGNED_CONTEXT ( ( #29, #189, #274 ) ) REPRESENTATION_CONTEXT ( 'NONE', 'WORKASPACE' ) );
#285 = COLOUR_RGB ( '',1.000000000000000000, 0.000000000000000000, 0.000000000000000000 ) ;
#286 = ADVANCED_FACE ( 'NONE', ( #45 ), #24, .T. ) ;
#287 = UNCERTAINTY_MEASURE_WITH_UNIT (LENGTH_MEASURE( 1.000000000000000082E-05 ), #88, 'distance_accuracy_value', 'NONE');
#288 = FILL_AREA_STYLE_COLOUR ( '', #99 ) ;
ENDSEC;
END-ISO-10303-21;
