ISO-10303-21;
HEADER;
FILE_DESCRIPTION (( 'STEP AP214' ),
    '1' );
FILE_NAME ('Micro_GEM-250-3X.STEP',
    '2021-09-01T20:18:12',
    ( '' ),
    ( '' ),
    'SwSTEP 2.0',
    'SolidWorks 2020',
    '' );
FILE_SCHEMA (( 'AUTOMOTIVE_DESIGN' ));
ENDSEC;

DATA;
#1 =( NAMED_UNIT ( * ) SI_UNIT ( $, .STERADIAN. ) SOLID_ANGLE_UNIT ( ) );
#2 = LINE ( 'NONE', #187, #161 ) ;
#3 = MANIFOLD_SOLID_BREP ( 'Cut-Revolve1', #188 ) ;
#4 = AXIS2_PLACEMENT_3D ( 'NONE', #288, #52, #96 ) ;
#5 =( CONVERSION_BASED_UNIT ( 'INCH', #254 ) LENGTH_UNIT ( ) NAMED_UNIT ( #40 ) );
#6 = EDGE_LOOP ( 'NONE', ( #87, #41, #259, #283 ) ) ;
#7 = ORIENTED_EDGE ( 'NONE', *, *, #191, .F. ) ;
#8 = EDGE_CURVE ( 'NONE', #159, #194, #263, .T. ) ;
#9 =( NAMED_UNIT ( * ) SI_UNIT ( $, .STERADIAN. ) SOLID_ANGLE_UNIT ( ) );
#10 =( NAMED_UNIT ( * ) SI_UNIT ( $, .STERADIAN. ) SOLID_ANGLE_UNIT ( ) );
#11 = ORIENTED_EDGE ( 'NONE', *, *, #158, .T. ) ;
#12 = AXIS2_PLACEMENT_3D ( 'NONE', #271, #61, #103 ) ;
#13 = DIRECTION ( 'NONE',  ( 0.0000000000000000000, 0.0000000000000000000, -1.000000000000000000 ) ) ;
#14 = PRODUCT_DEFINITION_CONTEXT ( 'detailed design', #91, 'design' ) ;
#15 = LINE ( 'NONE', #152, #296 ) ;
#16 = PLANE ( 'NONE',  #12 ) ;
#17 = AXIS2_PLACEMENT_3D ( 'NONE', #39, #36, #81 ) ;
#18 = MECHANICAL_DESIGN_GEOMETRIC_PRESENTATION_REPRESENTATION (  '', ( #236 ), #135 ) ;
#19 = CARTESIAN_POINT ( 'NONE',  ( 0.0000000000000000000, 0.0000000000000000000, 2.500000000000000000 ) ) ;
#20 = FACE_OUTER_BOUND ( 'NONE', #65, .T. ) ;
#21 = DIRECTION ( 'NONE',  ( -1.000000000000000000, 0.0000000000000000000, 1.224646799147353454E-16 ) ) ;
#22 = AXIS2_PLACEMENT_3D ( 'NONE', #83, #184, #272 ) ;
#23 = CARTESIAN_POINT ( 'NONE',  ( 0.1248750000000000970, 0.0000000000000000000, 0.7500000000000001110 ) ) ;
#24 = PRODUCT_DEFINITION ( 'UNKNOWN', '', #231, #14 ) ;
#25 = LINE ( 'NONE', #23, #125 ) ;
#26 = ORIENTED_EDGE ( 'NONE', *, *, #151, .T. ) ;
#27 = ORIENTED_EDGE ( 'NONE', *, *, #191, .T. ) ;
#28 = CARTESIAN_POINT ( 'NONE',  ( 0.0000000000000000000, 0.0000000000000000000, 2.500000000000000000 ) ) ;
#29 = VERTEX_POINT ( 'NONE', #289 ) ;
#30 = ORIENTED_EDGE ( 'NONE', *, *, #281, .T. ) ;
#31 = FILL_AREA_STYLE ('',( #219 ) ) ;
#32 = CARTESIAN_POINT ( 'NONE',  ( 0.0000000000000000000, 0.0000000000000000000, 2.500000000000000000 ) ) ;
#33 = CYLINDRICAL_SURFACE ( 'NONE', #185, 0.1250000000000000000 ) ;
#34 = CARTESIAN_POINT ( 'NONE',  ( -0.1100000000000001948, 0.0000000000000000000, 2.500000000000000000 ) ) ;
#35 = DIRECTION ( 'NONE',  ( -1.224646799147353207E-16, -0.0000000000000000000, -1.000000000000000000 ) ) ;
#36 = DIRECTION ( 'NONE',  ( 1.224646799147353207E-16, 0.0000000000000000000, 1.000000000000000000 ) ) ;
#37 = AXIS2_PLACEMENT_3D ( 'NONE', #190, #109, #256 ) ;
#38 = DIRECTION ( 'NONE',  ( 0.0000000000000000000, 0.0000000000000000000, 1.000000000000000000 ) ) ;
#39 = CARTESIAN_POINT ( 'NONE',  ( 9.184850993605150903E-17, 0.0000000000000000000, 0.7500000000000001110 ) ) ;
#40 = DIMENSIONAL_EXPONENTS ( 1.000000000000000000, 0.0000000000000000000, 0.0000000000000000000, 0.0000000000000000000, 0.0000000000000000000, 0.0000000000000000000, 0.0000000000000000000 ) ;
#41 = ORIENTED_EDGE ( 'NONE', *, *, #153, .T. ) ;
#42 =( LENGTH_UNIT ( ) NAMED_UNIT ( * ) SI_UNIT ( $, .METRE. ) );
#43 = ORIENTED_EDGE ( 'NONE', *, *, #8, .T. ) ;
#44 = LINE ( 'NONE', #214, #104 ) ;
#45 = ORIENTED_EDGE ( 'NONE', *, *, #158, .F. ) ;
#46 = APPLICATION_CONTEXT ( 'automotive_design' ) ;
#47 = ADVANCED_FACE ( 'NONE', ( #70 ), #33, .T. ) ;
#48 = EDGE_LOOP ( 'NONE', ( #7, #30, #255, #251 ) ) ;
#49 =( GEOMETRIC_REPRESENTATION_CONTEXT ( 3 ) GLOBAL_UNCERTAINTY_ASSIGNED_CONTEXT ( ( #292 ) ) GLOBAL_UNIT_ASSIGNED_CONTEXT ( ( #147, #172, #10 ) ) REPRESENTATION_CONTEXT ( 'NONE', 'WORKASPACE' ) );
#50 = PRESENTATION_STYLE_ASSIGNMENT (( #223 ) ) ;
#51 = SURFACE_STYLE_FILL_AREA ( #221 ) ;
#52 = DIRECTION ( 'NONE',  ( 0.0000000000000000000, 0.0000000000000000000, 1.000000000000000000 ) ) ;
#53 = ADVANCED_FACE ( 'NONE', ( #264 ), #55, .T. ) ;
#54 = PRODUCT_CONTEXT ( 'NONE', #46, 'mechanical' ) ;
#55 = CYLINDRICAL_SURFACE ( 'NONE', #176, 0.1250000000000000000 ) ;
#56 = DIRECTION ( 'NONE',  ( -1.224646799147353207E-16, -0.0000000000000000000, -1.000000000000000000 ) ) ;
#57 = DIRECTION ( 'NONE',  ( -1.224646799147353207E-16, -0.0000000000000000000, -1.000000000000000000 ) ) ;
#58 = CARTESIAN_POINT ( 'NONE',  ( 9.184850993605150903E-17, 0.0000000000000000000, 0.7500000000000001110 ) ) ;
#59 = DIRECTION ( 'NONE',  ( 0.0000000000000000000, 0.0000000000000000000, -1.000000000000000000 ) ) ;
#60 = VECTOR ( 'NONE', #181, 39.37007874015748143 ) ;
#61 = DIRECTION ( 'NONE',  ( 0.0000000000000000000, 0.0000000000000000000, 1.000000000000000000 ) ) ;
#62 = ORIENTED_EDGE ( 'NONE', *, *, #217, .T. ) ;
#63 = CARTESIAN_POINT ( 'NONE',  ( 0.0000000000000000000, 0.0000000000000000000, 2.500000000000000000 ) ) ;
#64 = CARTESIAN_POINT ( 'NONE',  ( -0.1250000000000000000, 0.0000000000000000000, 2.500000000000000000 ) ) ;
#65 = EDGE_LOOP ( 'NONE', ( #45, #239, #26, #92 ) ) ;
#66 = STYLED_ITEM ( 'NONE', ( #50 ), #3 ) ;
#67 = DIRECTION ( 'NONE',  ( -1.000000000000000000, 0.0000000000000000000, 0.0000000000000000000 ) ) ;
#68 =( LENGTH_UNIT ( ) NAMED_UNIT ( * ) SI_UNIT ( $, .METRE. ) );
#69 = VECTOR ( 'NONE', #162, 39.37007874015748143 ) ;
#70 = FACE_OUTER_BOUND ( 'NONE', #142, .T. ) ;
#71 = ORIENTED_EDGE ( 'NONE', *, *, #114, .T. ) ;
#72 = ORIENTED_EDGE ( 'NONE', *, *, #151, .F. ) ;
#73 = ADVANCED_BREP_SHAPE_REPRESENTATION ( 'Micro_GEM-250-3X', ( #3, #193 ), #155 ) ;
#74 = AXIS2_PLACEMENT_3D ( 'NONE', #123, #148, #78 ) ;
#75 = AXIS2_PLACEMENT_3D ( 'NONE', #247, #38, #210 ) ;
#76 = ORIENTED_EDGE ( 'NONE', *, *, #286, .T. ) ;
#77 = EDGE_CURVE ( 'NONE', #129, #168, #163, .T. ) ;
#78 = DIRECTION ( 'NONE',  ( -1.000000000000000000, 0.0000000000000000000, 0.0000000000000000000 ) ) ;
#79 = DIRECTION ( 'NONE',  ( 1.000000000000000000, 0.0000000000000000000, 0.0000000000000000000 ) ) ;
#80 = CIRCLE ( 'NONE', #144, 0.1250000000000000000 ) ;
#81 = DIRECTION ( 'NONE',  ( 1.000000000000000000, 0.0000000000000000000, 0.0000000000000000000 ) ) ;
#82 = DIRECTION ( 'NONE',  ( -1.000000000000000000, 0.0000000000000000000, 1.224646799147353454E-16 ) ) ;
#83 = CARTESIAN_POINT ( 'NONE',  ( 1.872825028598994811E-33, 0.0000000000000000000, 1.529277690435257475E-17 ) ) ;
#84 = CONICAL_SURFACE ( 'NONE', #17, 0.1248749999999999999, 0.1745329251994339192 ) ;
#85 = DIRECTION ( 'NONE',  ( 1.000000000000000000, 0.0000000000000000000, -0.0000000000000000000 ) ) ;
#86 = DIRECTION ( 'NONE',  ( 0.7071067811865499042, 8.659560562354961208E-17, -0.7071067811865451302 ) ) ;
#87 = ORIENTED_EDGE ( 'NONE', *, *, #286, .F. ) ;
#88 = VERTEX_POINT ( 'NONE', #285 ) ;
#89 = MECHANICAL_DESIGN_GEOMETRIC_PRESENTATION_REPRESENTATION (  '', ( #66 ), #49 ) ;
#90 = FACE_OUTER_BOUND ( 'NONE', #48, .T. ) ;
#91 = APPLICATION_CONTEXT ( 'automotive_design' ) ;
#92 = ORIENTED_EDGE ( 'NONE', *, *, #213, .F. ) ;
#93 = AXIS2_PLACEMENT_3D ( 'NONE', #19, #59, #154 ) ;
#94 = APPLICATION_PROTOCOL_DEFINITION ( 'draft international standard', 'automotive_design', 1998, #91 ) ;
#95 = ADVANCED_FACE ( 'NONE', ( #171 ), #84, .T. ) ;
#96 = DIRECTION ( 'NONE',  ( 1.000000000000000000, 0.0000000000000000000, 0.0000000000000000000 ) ) ;
#97 = DIRECTION ( 'NONE',  ( -1.000000000000000000, 0.0000000000000000000, 0.0000000000000000000 ) ) ;
#98 = ADVANCED_FACE ( 'NONE', ( #106 ), #215, .T. ) ;
#99 = CIRCLE ( 'NONE', #133, 0.1248749999999999999 ) ;
#100 = DIRECTION ( 'NONE',  ( 1.000000000000000000, 0.0000000000000000000, 0.0000000000000000000 ) ) ;
#101 = CARTESIAN_POINT ( 'NONE',  ( -0.1100000000000001948, 0.0000000000000000000, 2.500000000000000000 ) ) ;
#102 = UNCERTAINTY_MEASURE_WITH_UNIT (LENGTH_MEASURE( 1.000000000000000082E-05 ), #5, 'distance_accuracy_value', 'NONE');
#103 = DIRECTION ( 'NONE',  ( 1.000000000000000000, 0.0000000000000000000, -0.0000000000000000000 ) ) ;
#104 = VECTOR ( 'NONE', #86, 39.37007874015748143 ) ;
#105 = EDGE_CURVE ( 'NONE', #159, #129, #268, .T. ) ;
#106 = FACE_OUTER_BOUND ( 'NONE', #110, .T. ) ;
#107 = CARTESIAN_POINT ( 'NONE',  ( 0.1250000000000000000, 1.530808498934191509E-17, 2.485000000000000320 ) ) ;
#108 = EDGE_CURVE ( 'NONE', #88, #257, #80, .T. ) ;
#109 = DIRECTION ( 'NONE',  ( -1.224646799147353207E-16, -0.0000000000000000000, -1.000000000000000000 ) ) ;
#110 = EDGE_LOOP ( 'NONE', ( #242, #130, #116, #160 ) ) ;
#111 = AXIS2_PLACEMENT_3D ( 'NONE', #58, #293, #178 ) ;
#112 = FACE_OUTER_BOUND ( 'NONE', #238, .T. ) ;
#113 = SURFACE_STYLE_FILL_AREA ( #31 ) ;
#114 = EDGE_CURVE ( 'NONE', #192, #29, #248, .T. ) ;
#115 = EDGE_LOOP ( 'NONE', ( #277, #253, #218, #62 ) ) ;
#116 = ORIENTED_EDGE ( 'NONE', *, *, #108, .T. ) ;
#117 = PRESENTATION_STYLE_ASSIGNMENT (( #224 ) ) ;
#118 = CARTESIAN_POINT ( 'NONE',  ( 0.0000000000000000000, 0.0000000000000000000, 2.485000000000000320 ) ) ;
#119 = AXIS2_PLACEMENT_3D ( 'NONE', #167, #234, #85 ) ;
#120 = UNCERTAINTY_MEASURE_WITH_UNIT (LENGTH_MEASURE( 1.000000000000000082E-05 ), #140, 'distance_accuracy_value', 'NONE');
#121 = CARTESIAN_POINT ( 'NONE',  ( 0.1248749999999999999, 1.529277690435257475E-17, -1.529277690435257475E-17 ) ) ;
#122 = CYLINDRICAL_SURFACE ( 'NONE', #204, 0.1248749999999999999 ) ;
#123 = CARTESIAN_POINT ( 'NONE',  ( 9.184850993605150903E-17, 0.0000000000000000000, 0.7500000000000001110 ) ) ;
#124 = AXIS2_PLACEMENT_3D ( 'NONE', #118, #13, #100 ) ;
#125 = VECTOR ( 'NONE', #216, 39.37007874015748143 ) ;
#126 = FACE_OUTER_BOUND ( 'NONE', #203, .T. ) ;
#127 = CARTESIAN_POINT ( 'NONE',  ( -0.1250000000000000000, 0.0000000000000000000, 2.485000000000000320 ) ) ;
#128 = DIRECTION ( 'NONE',  ( 1.000000000000000000, 0.0000000000000000000, 0.0000000000000000000 ) ) ;
#129 = VERTEX_POINT ( 'NONE', #127 ) ;
#130 = ORIENTED_EDGE ( 'NONE', *, *, #132, .T. ) ;
#131 = ORIENTED_EDGE ( 'NONE', *, *, #179, .F. ) ;
#132 = EDGE_CURVE ( 'NONE', #192, #88, #15, .T. ) ;
#133 = AXIS2_PLACEMENT_3D ( 'NONE', #182, #209, #229 ) ;
#134 =( NAMED_UNIT ( * ) PLANE_ANGLE_UNIT ( ) SI_UNIT ( $, .RADIAN. ) );
#135 =( GEOMETRIC_REPRESENTATION_CONTEXT ( 3 ) GLOBAL_UNCERTAINTY_ASSIGNED_CONTEXT ( ( #120 ) ) GLOBAL_UNIT_ASSIGNED_CONTEXT ( ( #140, #170, #9 ) ) REPRESENTATION_CONTEXT ( 'NONE', 'WORKASPACE' ) );
#136 = EDGE_LOOP ( 'NONE', ( #189, #275, #237, #199 ) ) ;
#137 = ADVANCED_FACE ( 'NONE', ( #126 ), #122, .T. ) ;
#138 = ORIENTED_EDGE ( 'NONE', *, *, #265, .F. ) ;
#139 = LENGTH_MEASURE_WITH_UNIT ( LENGTH_MEASURE( 0.02539999999999999897 ), #68 );
#140 =( CONVERSION_BASED_UNIT ( 'INCH', #262 ) LENGTH_UNIT ( ) NAMED_UNIT ( #146 ) );
#141 = AXIS2_PLACEMENT_3D ( 'NONE', #244, #294, #79 ) ;
#142 = EDGE_LOOP ( 'NONE', ( #267, #76, #291, #138 ) ) ;
#143 = AXIS2_PLACEMENT_3D ( 'NONE', #63, #280, #67 ) ;
#144 = AXIS2_PLACEMENT_3D ( 'NONE', #180, #56, #207 ) ;
#145 = DIRECTION ( 'NONE',  ( -0.0000000000000000000, -0.0000000000000000000, -1.000000000000000000 ) ) ;
#146 = DIMENSIONAL_EXPONENTS ( 1.000000000000000000, 0.0000000000000000000, 0.0000000000000000000, 0.0000000000000000000, 0.0000000000000000000, 0.0000000000000000000, 0.0000000000000000000 ) ;
#147 =( CONVERSION_BASED_UNIT ( 'INCH', #139 ) LENGTH_UNIT ( ) NAMED_UNIT ( #261 ) );
#148 = DIRECTION ( 'NONE',  ( -1.224646799147353207E-16, -0.0000000000000000000, -1.000000000000000000 ) ) ;
#149 = CIRCLE ( 'NONE', #22, 0.1248749999999999999 ) ;
#150 = CARTESIAN_POINT ( 'NONE',  ( 0.1248749999999999999, 1.529277690435257475E-17, 0.0000000000000000000 ) ) ;
#151 = EDGE_CURVE ( 'NONE', #192, #241, #245, .T. ) ;
#152 = CARTESIAN_POINT ( 'NONE',  ( -0.1248749999999999166, 1.529277690435257475E-17, 0.7500000000000001110 ) ) ;
#153 = EDGE_CURVE ( 'NONE', #168, #129, #208, .T. ) ;
#154 = DIRECTION ( 'NONE',  ( -1.000000000000000000, 0.0000000000000000000, 0.0000000000000000000 ) ) ;
#155 =( GEOMETRIC_REPRESENTATION_CONTEXT ( 3 ) GLOBAL_UNCERTAINTY_ASSIGNED_CONTEXT ( ( #102 ) ) GLOBAL_UNIT_ASSIGNED_CONTEXT ( ( #5, #134, #1 ) ) REPRESENTATION_CONTEXT ( 'NONE', 'WORKASPACE' ) );
#156 = VECTOR ( 'NONE', #35, 39.37007874015748143 ) ;
#157 = CARTESIAN_POINT ( 'NONE',  ( 9.193532640014472135E-17, 0.0000000000000000000, 0.7507089102274522308 ) ) ;
#158 = EDGE_CURVE ( 'NONE', #29, #177, #205, .T. ) ;
#159 = VERTEX_POINT ( 'NONE', #101 ) ;
#160 = ORIENTED_EDGE ( 'NONE', *, *, #274, .F. ) ;
#161 = VECTOR ( 'NONE', #252, 39.37007874015748143 ) ;
#162 = DIRECTION ( 'NONE',  ( -0.0000000000000000000, -0.0000000000000000000, -1.000000000000000000 ) ) ;
#163 = CIRCLE ( 'NONE', #124, 0.1250000000000000000 ) ;
#164 = ADVANCED_FACE ( 'NONE', ( #20 ), #297, .T. ) ;
#165 = PLANE ( 'NONE',  #119 ) ;
#166 = PRODUCT_RELATED_PRODUCT_CATEGORY ( 'part', '', ( #201 ) ) ;
#167 = CARTESIAN_POINT ( 'NONE',  ( 0.0000000000000000000, 0.0000000000000000000, 2.500000000000000000 ) ) ;
#168 = VERTEX_POINT ( 'NONE', #107 ) ;
#169 = CIRCLE ( 'NONE', #243, 0.1250000000000000000 ) ;
#170 =( NAMED_UNIT ( * ) PLANE_ANGLE_UNIT ( ) SI_UNIT ( $, .RADIAN. ) );
#171 = FACE_OUTER_BOUND ( 'NONE', #115, .T. ) ;
#172 =( NAMED_UNIT ( * ) PLANE_ANGLE_UNIT ( ) SI_UNIT ( $, .RADIAN. ) );
#173 = ORIENTED_EDGE ( 'NONE', *, *, #213, .T. ) ;
#174 = DIRECTION ( 'NONE',  ( 1.000000000000000000, 0.0000000000000000000, 0.0000000000000000000 ) ) ;
#175 = DIRECTION ( 'NONE',  ( -1.000000000000000000, 0.0000000000000000000, 0.0000000000000000000 ) ) ;
#176 = AXIS2_PLACEMENT_3D ( 'NONE', #28, #145, #97 ) ;
#177 = VERTEX_POINT ( 'NONE', #150 ) ;
#178 = DIRECTION ( 'NONE',  ( 1.000000000000000000, 0.0000000000000000000, 0.0000000000000000000 ) ) ;
#179 = EDGE_CURVE ( 'NONE', #241, #177, #99, .T. ) ;
#180 = CARTESIAN_POINT ( 'NONE',  ( 9.193532640014472135E-17, 0.0000000000000000000, 0.7507089102274522308 ) ) ;
#181 = DIRECTION ( 'NONE',  ( -1.224646799147353207E-16, -0.0000000000000000000, -1.000000000000000000 ) ) ;
#182 = CARTESIAN_POINT ( 'NONE',  ( 1.872825028598994811E-33, 0.0000000000000000000, 1.529277690435257475E-17 ) ) ;
#183 = ADVANCED_FACE ( 'NONE', ( #270 ), #16, .F. ) ;
#184 = DIRECTION ( 'NONE',  ( -1.224646799147353207E-16, -0.0000000000000000000, -1.000000000000000000 ) ) ;
#185 = AXIS2_PLACEMENT_3D ( 'NONE', #32, #202, #175 ) ;
#186 = ADVANCED_FACE ( 'NONE', ( #246 ), #227, .T. ) ;
#187 = CARTESIAN_POINT ( 'NONE',  ( 0.1250000000000000000, 1.530808498934191509E-17, 2.500000000000000000 ) ) ;
#188 = CLOSED_SHELL ( 'NONE', ( #137, #98, #299, #47, #53, #235, #186, #95, #164, #183 ) ) ;
#189 = ORIENTED_EDGE ( 'NONE', *, *, #281, .F. ) ;
#190 = CARTESIAN_POINT ( 'NONE',  ( 9.184850993605150903E-17, 0.0000000000000000000, 0.7500000000000001110 ) ) ;
#191 = EDGE_CURVE ( 'NONE', #194, #159, #211, .T. ) ;
#192 = VERTEX_POINT ( 'NONE', #232 ) ;
#193 = AXIS2_PLACEMENT_3D ( 'NONE', #290, #266, #174 ) ;
#194 = VERTEX_POINT ( 'NONE', #298 ) ;
#195 = APPLICATION_PROTOCOL_DEFINITION ( 'draft international standard', 'automotive_design', 1998, #46 ) ;
#196 = EDGE_LOOP ( 'NONE', ( #260, #173 ) ) ;
#197 = CONICAL_SURFACE ( 'NONE', #143, 0.1100000000000001948, 0.7853981633974517207 ) ;
#198 = SURFACE_SIDE_STYLE ('',( #51 ) ) ;
#199 = ORIENTED_EDGE ( 'NONE', *, *, #153, .F. ) ;
#200 =( LENGTH_UNIT ( ) NAMED_UNIT ( * ) SI_UNIT ( $, .METRE. ) );
#201 = PRODUCT ( 'Micro_GEM-250-3X', 'Micro_GEM-250-3X', '', ( #54 ) ) ;
#202 = DIRECTION ( 'NONE',  ( -0.0000000000000000000, -0.0000000000000000000, -1.000000000000000000 ) ) ;
#203 = EDGE_LOOP ( 'NONE', ( #71, #11, #131, #72 ) ) ;
#204 = AXIS2_PLACEMENT_3D ( 'NONE', #269, #295, #21 ) ;
#205 = LINE ( 'NONE', #121, #60 ) ;
#206 = CARTESIAN_POINT ( 'NONE',  ( -0.1248749999999999999, 0.0000000000000000000, 1.529277690435257475E-17 ) ) ;
#207 = DIRECTION ( 'NONE',  ( 1.000000000000000000, 0.0000000000000000000, 0.0000000000000000000 ) ) ;
#208 = CIRCLE ( 'NONE', #141, 0.1250000000000000000 ) ;
#209 = DIRECTION ( 'NONE',  ( -1.224646799147353207E-16, -0.0000000000000000000, -1.000000000000000000 ) ) ;
#210 = DIRECTION ( 'NONE',  ( 1.000000000000000000, 0.0000000000000000000, 0.0000000000000000000 ) ) ;
#211 = CIRCLE ( 'NONE', #75, 0.1100000000000001948 ) ;
#212 = LINE ( 'NONE', #64, #69 ) ;
#213 = EDGE_CURVE ( 'NONE', #177, #241, #149, .T. ) ;
#214 = CARTESIAN_POINT ( 'NONE',  ( 0.1100000000000001948, 1.347111479062090784E-17, 2.500000000000000000 ) ) ;
#215 = CONICAL_SURFACE ( 'NONE', #111, 0.1248749999999999999, 0.1745329251994339192 ) ;
#216 = DIRECTION ( 'NONE',  ( 0.1736481776669314137, 0.0000000000000000000, 0.9848077530122077983 ) ) ;
#217 = EDGE_CURVE ( 'NONE', #257, #88, #169, .T. ) ;
#218 = ORIENTED_EDGE ( 'NONE', *, *, #274, .T. ) ;
#219 = FILL_AREA_STYLE_COLOUR ( '', #240 ) ;
#220 = PRODUCT_DEFINITION_SHAPE ( 'NONE', 'NONE',  #24 ) ;
#221 = FILL_AREA_STYLE ('',( #226 ) ) ;
#222 = VECTOR ( 'NONE', #228, 39.37007874015748143 ) ;
#223 = SURFACE_STYLE_USAGE ( .BOTH. , #198 ) ;
#224 = SURFACE_STYLE_USAGE ( .BOTH. , #287 ) ;
#225 = COLOUR_RGB ( '',0.7921568627450980005, 0.8196078431372548767, 0.9333333333333333481 ) ;
#226 = FILL_AREA_STYLE_COLOUR ( '', #225 ) ;
#227 = CONICAL_SURFACE ( 'NONE', #93, 0.1100000000000001948, 0.7853981633974517207 ) ;
#228 = DIRECTION ( 'NONE',  ( -0.7071067811865499042, 0.0000000000000000000, -0.7071067811865451302 ) ) ;
#229 = DIRECTION ( 'NONE',  ( -1.000000000000000000, 0.0000000000000000000, 1.224646799147353454E-16 ) ) ;
#230 = CARTESIAN_POINT ( 'NONE',  ( 0.0000000000000000000, 0.0000000000000000000, 0.0000000000000000000 ) ) ;
#231 = PRODUCT_DEFINITION_FORMATION_WITH_SPECIFIED_SOURCE ( 'ANY', '', #201, .NOT_KNOWN. ) ;
#232 = CARTESIAN_POINT ( 'NONE',  ( -0.1248749999999999166, 1.530043094684724646E-17, 0.7500000000000001110 ) ) ;
#233 = DIRECTION ( 'NONE',  ( -0.1736481776669312194, 2.126576849575783625E-17, 0.9848077530122080203 ) ) ;
#234 = DIRECTION ( 'NONE',  ( 0.0000000000000000000, 0.0000000000000000000, 1.000000000000000000 ) ) ;
#235 = ADVANCED_FACE ( 'NONE', ( #112 ), #165, .T. ) ;
#236 = STYLED_ITEM ( 'NONE', ( #117 ), #73 ) ;
#237 = ORIENTED_EDGE ( 'NONE', *, *, #105, .T. ) ;
#238 = EDGE_LOOP ( 'NONE', ( #43, #27 ) ) ;
#239 = ORIENTED_EDGE ( 'NONE', *, *, #250, .T. ) ;
#240 = COLOUR_RGB ( '',0.7921568627450980005, 0.8196078431372548767, 0.9333333333333333481 ) ;
#241 = VERTEX_POINT ( 'NONE', #282 ) ;
#242 = ORIENTED_EDGE ( 'NONE', *, *, #114, .F. ) ;
#243 = AXIS2_PLACEMENT_3D ( 'NONE', #157, #249, #128 ) ;
#244 = CARTESIAN_POINT ( 'NONE',  ( 0.0000000000000000000, 0.0000000000000000000, 2.485000000000000320 ) ) ;
#245 = LINE ( 'NONE', #206, #156 ) ;
#246 = FACE_OUTER_BOUND ( 'NONE', #136, .T. ) ;
#247 = CARTESIAN_POINT ( 'NONE',  ( 0.0000000000000000000, 0.0000000000000000000, 2.500000000000000000 ) ) ;
#248 = CIRCLE ( 'NONE', #74, 0.1248749999999999999 ) ;
#249 = DIRECTION ( 'NONE',  ( -1.224646799147353207E-16, -0.0000000000000000000, -1.000000000000000000 ) ) ;
#250 = EDGE_CURVE ( 'NONE', #29, #192, #279, .T. ) ;
#251 = ORIENTED_EDGE ( 'NONE', *, *, #105, .F. ) ;
#252 = DIRECTION ( 'NONE',  ( -0.0000000000000000000, -0.0000000000000000000, -1.000000000000000000 ) ) ;
#253 = ORIENTED_EDGE ( 'NONE', *, *, #250, .F. ) ;
#254 = LENGTH_MEASURE_WITH_UNIT ( LENGTH_MEASURE( 0.02539999999999999897 ), #42 );
#255 = ORIENTED_EDGE ( 'NONE', *, *, #77, .F. ) ;
#256 = DIRECTION ( 'NONE',  ( -1.000000000000000000, 0.0000000000000000000, 0.0000000000000000000 ) ) ;
#257 = VERTEX_POINT ( 'NONE', #276 ) ;
#258 = PRESENTATION_LAYER_ASSIGNMENT (  '', '', ( #236 ) ) ;
#259 = ORIENTED_EDGE ( 'NONE', *, *, #265, .T. ) ;
#260 = ORIENTED_EDGE ( 'NONE', *, *, #179, .T. ) ;
#261 = DIMENSIONAL_EXPONENTS ( 1.000000000000000000, 0.0000000000000000000, 0.0000000000000000000, 0.0000000000000000000, 0.0000000000000000000, 0.0000000000000000000, 0.0000000000000000000 ) ;
#262 = LENGTH_MEASURE_WITH_UNIT ( LENGTH_MEASURE( 0.02539999999999999897 ), #200 );
#263 = CIRCLE ( 'NONE', #4, 0.1100000000000001948 ) ;
#264 = FACE_OUTER_BOUND ( 'NONE', #6, .T. ) ;
#265 = EDGE_CURVE ( 'NONE', #129, #88, #212, .T. ) ;
#266 = DIRECTION ( 'NONE',  ( 0.0000000000000000000, 0.0000000000000000000, 1.000000000000000000 ) ) ;
#267 = ORIENTED_EDGE ( 'NONE', *, *, #77, .T. ) ;
#268 = LINE ( 'NONE', #34, #222 ) ;
#269 = CARTESIAN_POINT ( 'NONE',  ( 0.0000000000000000000, 0.0000000000000000000, 0.0000000000000000000 ) ) ;
#270 = FACE_OUTER_BOUND ( 'NONE', #196, .T. ) ;
#271 = CARTESIAN_POINT ( 'NONE',  ( 0.0000000000000000000, 0.0000000000000000000, 0.0000000000000000000 ) ) ;
#272 = DIRECTION ( 'NONE',  ( -1.000000000000000000, 0.0000000000000000000, 1.224646799147353454E-16 ) ) ;
#273 = AXIS2_PLACEMENT_3D ( 'NONE', #230, #57, #82 ) ;
#274 = EDGE_CURVE ( 'NONE', #29, #257, #25, .T. ) ;
#275 = ORIENTED_EDGE ( 'NONE', *, *, #8, .F. ) ;
#276 = CARTESIAN_POINT ( 'NONE',  ( 0.1250000000000000833, 1.530808498934192433E-17, 0.7507089102274522308 ) ) ;
#277 = ORIENTED_EDGE ( 'NONE', *, *, #132, .F. ) ;
#278 = PRESENTATION_LAYER_ASSIGNMENT (  '', '', ( #66 ) ) ;
#279 = CIRCLE ( 'NONE', #37, 0.1248749999999999999 ) ;
#280 = DIRECTION ( 'NONE',  ( 0.0000000000000000000, 0.0000000000000000000, -1.000000000000000000 ) ) ;
#281 = EDGE_CURVE ( 'NONE', #194, #168, #44, .T. ) ;
#282 = CARTESIAN_POINT ( 'NONE',  ( -0.1248749999999999999, 0.0000000000000000000, 3.058555380870514950E-17 ) ) ;
#283 = ORIENTED_EDGE ( 'NONE', *, *, #217, .F. ) ;
#284 = SHAPE_DEFINITION_REPRESENTATION ( #220, #73 ) ;
#285 = CARTESIAN_POINT ( 'NONE',  ( -0.1249999999999999167, 0.0000000000000000000, 0.7507089102274522308 ) ) ;
#286 = EDGE_CURVE ( 'NONE', #168, #257, #2, .T. ) ;
#287 = SURFACE_SIDE_STYLE ('',( #113 ) ) ;
#288 = CARTESIAN_POINT ( 'NONE',  ( 0.0000000000000000000, 0.0000000000000000000, 2.500000000000000000 ) ) ;
#289 = CARTESIAN_POINT ( 'NONE',  ( 0.1248750000000000970, 0.0000000000000000000, 0.7500000000000001110 ) ) ;
#290 = CARTESIAN_POINT ( 'NONE',  ( 0.0000000000000000000, 0.0000000000000000000, 0.0000000000000000000 ) ) ;
#291 = ORIENTED_EDGE ( 'NONE', *, *, #108, .F. ) ;
#292 = UNCERTAINTY_MEASURE_WITH_UNIT (LENGTH_MEASURE( 1.000000000000000082E-05 ), #147, 'distance_accuracy_value', 'NONE');
#293 = DIRECTION ( 'NONE',  ( 1.224646799147353207E-16, 0.0000000000000000000, 1.000000000000000000 ) ) ;
#294 = DIRECTION ( 'NONE',  ( 0.0000000000000000000, 0.0000000000000000000, -1.000000000000000000 ) ) ;
#295 = DIRECTION ( 'NONE',  ( -1.224646799147353207E-16, -0.0000000000000000000, -1.000000000000000000 ) ) ;
#296 = VECTOR ( 'NONE', #233, 39.37007874015747433 ) ;
#297 = CYLINDRICAL_SURFACE ( 'NONE', #273, 0.1248749999999999999 ) ;
#298 = CARTESIAN_POINT ( 'NONE',  ( 0.1100000000000001948, 1.438959988998141146E-17, 2.500000000000000000 ) ) ;
#299 = ADVANCED_FACE ( 'NONE', ( #90 ), #197, .T. ) ;
ENDSEC;
END-ISO-10303-21;
