ISO-10303-21;
HEADER;
FILE_DESCRIPTION (( 'STEP AP214' ),
    '1' );
FILE_NAME ('Micro_DM-250-2120.STEP',
    '2021-09-02T16:00:38',
    ( '' ),
    ( '' ),
    'SwSTEP 2.0',
    'SolidWorks 2020',
    '' );
FILE_SCHEMA (( 'AUTOMOTIVE_DESIGN' ));
ENDSEC;

DATA;
#1 = CARTESIAN_POINT ( 'NONE',  ( 0.1250000000000000000, 1.530808498934191509E-17, 2.485000000000000320 ) ) ;
#2 = CARTESIAN_POINT ( 'NONE',  ( 0.1100000000000001948, 1.347111479062090784E-17, 2.500000000000000000 ) ) ;
#3 = MECHANICAL_DESIGN_GEOMETRIC_PRESENTATION_REPRESENTATION (  '', ( #286 ), #278 ) ;
#4 = PLANE ( 'NONE',  #141 ) ;
#5 = ADVANCED_FACE ( 'NONE', ( #220 ), #236, .T. ) ;
#6 = FILL_AREA_STYLE_COLOUR ( '', #8 ) ;
#7 = CONICAL_SURFACE ( 'NONE', #290, 0.1100000000000001948, 0.7853981633974517207 ) ;
#8 = COLOUR_RGB ( '',0.7921568627450980005, 0.8196078431372548767, 0.9333333333333333481 ) ;
#9 = UNCERTAINTY_MEASURE_WITH_UNIT (LENGTH_MEASURE( 1.000000000000000082E-05 ), #230, 'distance_accuracy_value', 'NONE');
#10 = ADVANCED_FACE ( 'NONE', ( #108 ), #246, .T. ) ;
#11 = DIRECTION ( 'NONE',  ( -1.000000000000000000, 0.0000000000000000000, 0.0000000000000000000 ) ) ;
#12 = AXIS2_PLACEMENT_3D ( 'NONE', #145, #162, #319 ) ;
#13 = MECHANICAL_DESIGN_GEOMETRIC_PRESENTATION_REPRESENTATION (  '', ( #169 ), #279 ) ;
#14 = VERTEX_POINT ( 'NONE', #231 ) ;
#15 = ADVANCED_FACE ( 'NONE', ( #304, #118 ), #4, .T. ) ;
#16 = EDGE_LOOP ( 'NONE', ( #289, #40 ) ) ;
#17 = DIRECTION ( 'NONE',  ( -0.0000000000000000000, -0.0000000000000000000, -1.000000000000000000 ) ) ;
#18 = ORIENTED_EDGE ( 'NONE', *, *, #257, .T. ) ;
#19 = CARTESIAN_POINT ( 'NONE',  ( 0.1100000000000001948, 1.438959988998141146E-17, 2.500000000000000000 ) ) ;
#20 = EDGE_LOOP ( 'NONE', ( #87, #213 ) ) ;
#21 = DIRECTION ( 'NONE',  ( -0.0000000000000000000, -0.0000000000000000000, -1.000000000000000000 ) ) ;
#22 =( NAMED_UNIT ( * ) SI_UNIT ( $, .STERADIAN. ) SOLID_ANGLE_UNIT ( ) );
#23 =( CONVERSION_BASED_UNIT ( 'INCH', #44 ) LENGTH_UNIT ( ) NAMED_UNIT ( #139 ) );
#24 = CARTESIAN_POINT ( 'NONE',  ( 0.1249500000000000610, 1.530196175534618635E-17, 0.0000000000000000000 ) ) ;
#25 = AXIS2_PLACEMENT_3D ( 'NONE', #325, #88, #269 ) ;
#26 = AXIS2_PLACEMENT_3D ( 'NONE', #329, #281, #173 ) ;
#27 = FACE_OUTER_BOUND ( 'NONE', #57, .T. ) ;
#28 = DIRECTION ( 'NONE',  ( 0.0000000000000000000, 0.0000000000000000000, -1.000000000000000000 ) ) ;
#29 = CARTESIAN_POINT ( 'NONE',  ( -0.1249500000000000333, 1.530196175534618327E-17, 0.06780978911632114248 ) ) ;
#30 = EDGE_CURVE ( 'NONE', #288, #64, #51, .T. ) ;
#31 =( NAMED_UNIT ( * ) PLANE_ANGLE_UNIT ( ) SI_UNIT ( $, .RADIAN. ) );
#32 = AXIS2_PLACEMENT_3D ( 'NONE', #250, #61, #275 ) ;
#33 = EDGE_CURVE ( 'NONE', #83, #60, #49, .T. ) ;
#34 = ADVANCED_FACE ( 'NONE', ( #225 ), #7, .T. ) ;
#35 = ORIENTED_EDGE ( 'NONE', *, *, #37, .F. ) ;
#36 = VERTEX_POINT ( 'NONE', #224 ) ;
#37 = EDGE_CURVE ( 'NONE', #263, #60, #125, .T. ) ;
#38 = ORIENTED_EDGE ( 'NONE', *, *, #240, .F. ) ;
#39 = DIMENSIONAL_EXPONENTS ( 1.000000000000000000, 0.0000000000000000000, 0.0000000000000000000, 0.0000000000000000000, 0.0000000000000000000, 0.0000000000000000000, 0.0000000000000000000 ) ;
#40 = ORIENTED_EDGE ( 'NONE', *, *, #210, .T. ) ;
#41 = LINE ( 'NONE', #172, #73 ) ;
#42 = ORIENTED_EDGE ( 'NONE', *, *, #284, .T. ) ;
#43 = CARTESIAN_POINT ( 'NONE',  ( 0.0000000000000000000, 0.0000000000000000000, 1.707404996040164512E-17 ) ) ;
#44 = LENGTH_MEASURE_WITH_UNIT ( LENGTH_MEASURE( 0.02539999999999999897 ), #77 );
#45 = DIRECTION ( 'NONE',  ( 1.000000000000000000, 0.0000000000000000000, 0.0000000000000000000 ) ) ;
#46 = PRODUCT_DEFINITION_CONTEXT ( 'detailed design', #95, 'design' ) ;
#47 = LINE ( 'NONE', #245, #153 ) ;
#48 = CARTESIAN_POINT ( 'NONE',  ( 0.0000000000000000000, 0.0000000000000000000, 0.06780978911632114248 ) ) ;
#49 = CIRCLE ( 'NONE', #128, 0.1250000000000000000 ) ;
#50 = CARTESIAN_POINT ( 'NONE',  ( 0.0000000000000000000, 0.0000000000000000000, 2.485000000000000320 ) ) ;
#51 = CIRCLE ( 'NONE', #239, 0.1249500000000000194 ) ;
#52 = LENGTH_MEASURE_WITH_UNIT ( LENGTH_MEASURE( 0.02539999999999999897 ), #195 );
#53 = MANIFOLD_SOLID_BREP ( 'Cut-Revolve4', #152 ) ;
#54 = ORIENTED_EDGE ( 'NONE', *, *, #285, .T. ) ;
#55 = ADVANCED_FACE ( 'NONE', ( #27 ), #326, .T. ) ;
#56 = ORIENTED_EDGE ( 'NONE', *, *, #262, .F. ) ;
#57 = EDGE_LOOP ( 'NONE', ( #188, #54, #211, #267 ) ) ;
#58 = AXIS2_PLACEMENT_3D ( 'NONE', #119, #222, #327 ) ;
#59 = ADVANCED_FACE ( 'NONE', ( #123 ), #92, .F. ) ;
#60 = VERTEX_POINT ( 'NONE', #174 ) ;
#61 = DIRECTION ( 'NONE',  ( 0.0000000000000000000, 0.0000000000000000000, -1.000000000000000000 ) ) ;
#62 = ORIENTED_EDGE ( 'NONE', *, *, #106, .F. ) ;
#63 = DIRECTION ( 'NONE',  ( -0.7071067811865499042, 0.0000000000000000000, -0.7071067811865451302 ) ) ;
#64 = VERTEX_POINT ( 'NONE', #29 ) ;
#65 = AXIS2_PLACEMENT_3D ( 'NONE', #209, #241, #171 ) ;
#66 = DIRECTION ( 'NONE',  ( 1.000000000000000000, 0.0000000000000000000, 0.0000000000000000000 ) ) ;
#67 = DIRECTION ( 'NONE',  ( -1.000000000000000000, 0.0000000000000000000, 0.0000000000000000000 ) ) ;
#68 = CARTESIAN_POINT ( 'NONE',  ( 0.0000000000000000000, 0.0000000000000000000, 0.7500000000000001110 ) ) ;
#69 = DIRECTION ( 'NONE',  ( -1.000000000000000000, 0.0000000000000000000, 0.0000000000000000000 ) ) ;
#70 = CYLINDRICAL_SURFACE ( 'NONE', #26, 0.1250000000000000000 ) ;
#71 =( LENGTH_UNIT ( ) NAMED_UNIT ( * ) SI_UNIT ( $, .METRE. ) );
#72 = CARTESIAN_POINT ( 'NONE',  ( 0.0000000000000000000, 0.0000000000000000000, 0.0000000000000000000 ) ) ;
#73 = VECTOR ( 'NONE', #63, 39.37007874015748143 ) ;
#74 = CARTESIAN_POINT ( 'NONE',  ( 0.0000000000000000000, 0.0000000000000000000, 0.06780978911632114248 ) ) ;
#75 = CARTESIAN_POINT ( 'NONE',  ( 0.1250000000000000000, 1.530808498934191509E-17, 2.500000000000000000 ) ) ;
#76 = CARTESIAN_POINT ( 'NONE',  ( -0.1249500000000001027, 0.0000000000000000000, 0.7500000000000001110 ) ) ;
#77 =( LENGTH_UNIT ( ) NAMED_UNIT ( * ) SI_UNIT ( $, .METRE. ) );
#78 = LENGTH_MEASURE_WITH_UNIT ( LENGTH_MEASURE( 0.02539999999999999897 ), #71 );
#79 = AXIS2_PLACEMENT_3D ( 'NONE', #168, #238, #11 ) ;
#80 = AXIS2_PLACEMENT_3D ( 'NONE', #300, #137, #66 ) ;
#81 = VECTOR ( 'NONE', #307, 39.37007874015748143 ) ;
#82 = VERTEX_POINT ( 'NONE', #1 ) ;
#83 = VERTEX_POINT ( 'NONE', #100 ) ;
#84 = ORIENTED_EDGE ( 'NONE', *, *, #284, .F. ) ;
#85 = DIRECTION ( 'NONE',  ( -1.000000000000000000, 0.0000000000000000000, 0.0000000000000000000 ) ) ;
#86 = APPLICATION_CONTEXT ( 'automotive_design' ) ;
#87 = ORIENTED_EDGE ( 'NONE', *, *, #184, .T. ) ;
#88 = DIRECTION ( 'NONE',  ( 0.0000000000000000000, 0.0000000000000000000, 1.000000000000000000 ) ) ;
#89 = ORIENTED_EDGE ( 'NONE', *, *, #96, .T. ) ;
#90 = ORIENTED_EDGE ( 'NONE', *, *, #33, .F. ) ;
#91 = CARTESIAN_POINT ( 'NONE',  ( 0.0000000000000000000, 0.0000000000000000000, 0.0000000000000000000 ) ) ;
#92 = PLANE ( 'NONE',  #180 ) ;
#93 = AXIS2_PLACEMENT_3D ( 'NONE', #43, #248, #117 ) ;
#94 = LINE ( 'NONE', #303, #113 ) ;
#95 = APPLICATION_CONTEXT ( 'automotive_design' ) ;
#96 = EDGE_CURVE ( 'NONE', #82, #83, #309, .T. ) ;
#97 = DIRECTION ( 'NONE',  ( -1.000000000000000000, 0.0000000000000000000, 0.0000000000000000000 ) ) ;
#98 = DIRECTION ( 'NONE',  ( -0.0000000000000000000, -0.0000000000000000000, -1.000000000000000000 ) ) ;
#99 = CARTESIAN_POINT ( 'NONE',  ( 0.0000000000000000000, 0.0000000000000000000, 0.0000000000000000000 ) ) ;
#100 = CARTESIAN_POINT ( 'NONE',  ( 0.1250000000000000000, 1.530808498934191509E-17, 0.7499999999999998890 ) ) ;
#101 = DIRECTION ( 'NONE',  ( 1.000000000000000000, 0.0000000000000000000, 0.0000000000000000000 ) ) ;
#102 = DIRECTION ( 'NONE',  ( 1.000000000000000000, 0.0000000000000000000, 0.0000000000000000000 ) ) ;
#103 = DIRECTION ( 'NONE',  ( -0.0000000000000000000, -0.0000000000000000000, -1.000000000000000000 ) ) ;
#104 = FILL_AREA_STYLE ('',( #6 ) ) ;
#105 = AXIS2_PLACEMENT_3D ( 'NONE', #227, #277, #310 ) ;
#106 = EDGE_CURVE ( 'NONE', #297, #183, #167, .T. ) ;
#107 = EDGE_CURVE ( 'NONE', #14, #263, #41, .T. ) ;
#108 = FACE_OUTER_BOUND ( 'NONE', #323, .T. ) ;
#109 = EDGE_LOOP ( 'NONE', ( #138, #18, #56, #217 ) ) ;
#110 = CYLINDRICAL_SURFACE ( 'NONE', #133, 0.1249500000000000610 ) ;
#111 = ORIENTED_EDGE ( 'NONE', *, *, #96, .F. ) ;
#112 = DIRECTION ( 'NONE',  ( -0.8660254037844400399, 1.060575238724908640E-16, 0.4999999999999976685 ) ) ;
#113 = VECTOR ( 'NONE', #243, 39.37007874015748143 ) ;
#114 = ORIENTED_EDGE ( 'NONE', *, *, #206, .F. ) ;
#115 = DIRECTION ( 'NONE',  ( 0.8660254037844400399, 0.0000000000000000000, 0.4999999999999976685 ) ) ;
#116 = EDGE_LOOP ( 'NONE', ( #62, #320 ) ) ;
#117 = DIRECTION ( 'NONE',  ( 1.000000000000000000, 0.0000000000000000000, 0.0000000000000000000 ) ) ;
#118 = FACE_OUTER_BOUND ( 'NONE', #134, .T. ) ;
#119 = CARTESIAN_POINT ( 'NONE',  ( 0.0000000000000000000, 0.0000000000000000000, 1.707404996040164512E-17 ) ) ;
#120 = EDGE_CURVE ( 'NONE', #82, #263, #259, .T. ) ;
#121 = CIRCLE ( 'NONE', #265, 0.1250000000000000000 ) ;
#122 = CARTESIAN_POINT ( 'NONE',  ( -0.007499999999999999722, 8.110223427353346529E-18, 1.707404996040164512E-17 ) ) ;
#123 = FACE_OUTER_BOUND ( 'NONE', #20, .T. ) ;
#124 = DIRECTION ( 'NONE',  ( -1.000000000000000000, 0.0000000000000000000, 0.0000000000000000000 ) ) ;
#125 = LINE ( 'NONE', #143, #81 ) ;
#126 = CARTESIAN_POINT ( 'NONE',  ( -0.1250000000000000000, 0.0000000000000000000, 2.485000000000000320 ) ) ;
#127 = SURFACE_SIDE_STYLE ('',( #251 ) ) ;
#128 = AXIS2_PLACEMENT_3D ( 'NONE', #272, #177, #67 ) ;
#129 =( NAMED_UNIT ( * ) PLANE_ANGLE_UNIT ( ) SI_UNIT ( $, .RADIAN. ) );
#130 = UNCERTAINTY_MEASURE_WITH_UNIT (LENGTH_MEASURE( 1.000000000000000082E-05 ), #150, 'distance_accuracy_value', 'NONE');
#131 = CIRCLE ( 'NONE', #12, 0.007499999999999999722 ) ;
#132 = ORIENTED_EDGE ( 'NONE', *, *, #156, .T. ) ;
#133 = AXIS2_PLACEMENT_3D ( 'NONE', #91, #268, #189 ) ;
#134 = EDGE_LOOP ( 'NONE', ( #158, #185 ) ) ;
#135 = VERTEX_POINT ( 'NONE', #19 ) ;
#136 = ORIENTED_EDGE ( 'NONE', *, *, #313, .T. ) ;
#137 = DIRECTION ( 'NONE',  ( 0.0000000000000000000, 0.0000000000000000000, 1.000000000000000000 ) ) ;
#138 = ORIENTED_EDGE ( 'NONE', *, *, #210, .F. ) ;
#139 = DIMENSIONAL_EXPONENTS ( 1.000000000000000000, 0.0000000000000000000, 0.0000000000000000000, 0.0000000000000000000, 0.0000000000000000000, 0.0000000000000000000, 0.0000000000000000000 ) ;
#140 = FACE_OUTER_BOUND ( 'NONE', #317, .T. ) ;
#141 = AXIS2_PLACEMENT_3D ( 'NONE', #192, #276, #151 ) ;
#142 = ORIENTED_EDGE ( 'NONE', *, *, #235, .F. ) ;
#143 = CARTESIAN_POINT ( 'NONE',  ( -0.1250000000000000000, 0.0000000000000000000, 2.500000000000000000 ) ) ;
#144 = DIRECTION ( 'NONE',  ( -0.0000000000000000000, -0.0000000000000000000, -1.000000000000000000 ) ) ;
#145 = CARTESIAN_POINT ( 'NONE',  ( 0.0000000000000000000, 0.0000000000000000000, 1.707404996040164512E-17 ) ) ;
#146 = PRESENTATION_STYLE_ASSIGNMENT (( #258 ) ) ;
#147 = AXIS2_PLACEMENT_3D ( 'NONE', #74, #200, #124 ) ;
#148 = CARTESIAN_POINT ( 'NONE',  ( 0.1249500000000000333, 0.0000000000000000000, 0.06780978911632114248 ) ) ;
#149 = SURFACE_STYLE_FILL_AREA ( #104 ) ;
#150 =( CONVERSION_BASED_UNIT ( 'INCH', #52 ) LENGTH_UNIT ( ) NAMED_UNIT ( #39 ) );
#151 = DIRECTION ( 'NONE',  ( -1.000000000000000000, 0.0000000000000000000, 0.0000000000000000000 ) ) ;
#152 = CLOSED_SHELL ( 'NONE', ( #196, #157, #34, #296, #155, #163, #5, #15, #10, #55, #59 ) ) ;
#153 = VECTOR ( 'NONE', #115, 39.37007874015748143 ) ;
#154 = SURFACE_STYLE_USAGE ( .BOTH. , #204 ) ;
#155 = ADVANCED_FACE ( 'NONE', ( #140 ), #166, .T. ) ;
#156 = EDGE_CURVE ( 'NONE', #316, #64, #295, .T. ) ;
#157 = ADVANCED_FACE ( 'NONE', ( #322 ), #205, .T. ) ;
#158 = ORIENTED_EDGE ( 'NONE', *, *, #226, .T. ) ;
#159 = EDGE_LOOP ( 'NONE', ( #142, #132, #42, #182 ) ) ;
#160 = CIRCLE ( 'NONE', #80, 0.1100000000000001948 ) ;
#161 = ORIENTED_EDGE ( 'NONE', *, *, #120, .F. ) ;
#162 = DIRECTION ( 'NONE',  ( -0.0000000000000000000, -0.0000000000000000000, -1.000000000000000000 ) ) ;
#163 = ADVANCED_FACE ( 'NONE', ( #291 ), #221, .T. ) ;
#164 = ORIENTED_EDGE ( 'NONE', *, *, #179, .T. ) ;
#165 = ORIENTED_EDGE ( 'NONE', *, *, #107, .T. ) ;
#166 = CYLINDRICAL_SURFACE ( 'NONE', #208, 0.1250000000000000000 ) ;
#167 = CIRCLE ( 'NONE', #215, 0.1249500000000001027 ) ;
#168 = CARTESIAN_POINT ( 'NONE',  ( 0.0000000000000000000, 0.0000000000000000000, 2.500000000000000000 ) ) ;
#169 = STYLED_ITEM ( 'NONE', ( #176 ), #207 ) ;
#170 = CARTESIAN_POINT ( 'NONE',  ( 0.0000000000000000000, 0.0000000000000000000, 2.500000000000000000 ) ) ;
#171 = DIRECTION ( 'NONE',  ( 1.000000000000000000, 0.0000000000000000000, 0.0000000000000000000 ) ) ;
#172 = CARTESIAN_POINT ( 'NONE',  ( -0.1100000000000001948, 0.0000000000000000000, 2.500000000000000000 ) ) ;
#173 = DIRECTION ( 'NONE',  ( -1.000000000000000000, 0.0000000000000000000, 0.0000000000000000000 ) ) ;
#174 = CARTESIAN_POINT ( 'NONE',  ( -0.1250000000000000000, 0.0000000000000000000, 0.7499999999999998890 ) ) ;
#175 =( GEOMETRIC_REPRESENTATION_CONTEXT ( 3 ) GLOBAL_UNCERTAINTY_ASSIGNED_CONTEXT ( ( #130 ) ) GLOBAL_UNIT_ASSIGNED_CONTEXT ( ( #150, #31, #197 ) ) REPRESENTATION_CONTEXT ( 'NONE', 'WORKASPACE' ) );
#176 = PRESENTATION_STYLE_ASSIGNMENT (( #154 ) ) ;
#177 = DIRECTION ( 'NONE',  ( -0.0000000000000000000, -0.0000000000000000000, -1.000000000000000000 ) ) ;
#178 =( NAMED_UNIT ( * ) SI_UNIT ( $, .STERADIAN. ) SOLID_ANGLE_UNIT ( ) );
#179 = EDGE_CURVE ( 'NONE', #36, #288, #47, .T. ) ;
#180 = AXIS2_PLACEMENT_3D ( 'NONE', #190, #194, #302 ) ;
#181 = CIRCLE ( 'NONE', #147, 0.1249500000000000194 ) ;
#182 = ORIENTED_EDGE ( 'NONE', *, *, #179, .F. ) ;
#183 = VERTEX_POINT ( 'NONE', #219 ) ;
#184 = EDGE_CURVE ( 'NONE', #36, #316, #131, .T. ) ;
#185 = ORIENTED_EDGE ( 'NONE', *, *, #33, .T. ) ;
#186 = DIRECTION ( 'NONE',  ( -0.0000000000000000000, -0.0000000000000000000, -1.000000000000000000 ) ) ;
#187 = ORIENTED_EDGE ( 'NONE', *, *, #120, .T. ) ;
#188 = ORIENTED_EDGE ( 'NONE', *, *, #313, .F. ) ;
#189 = DIRECTION ( 'NONE',  ( -1.000000000000000000, 0.0000000000000000000, 0.0000000000000000000 ) ) ;
#190 = CARTESIAN_POINT ( 'NONE',  ( 0.0000000000000000000, 0.0000000000000000000, 0.0000000000000000000 ) ) ;
#191 = CARTESIAN_POINT ( 'NONE',  ( 0.0000000000000000000, 0.0000000000000000000, 2.500000000000000000 ) ) ;
#192 = CARTESIAN_POINT ( 'NONE',  ( 0.1249500000000001027, 0.0000000000000000000, 0.7500000000000001110 ) ) ;
#193 = FACE_OUTER_BOUND ( 'NONE', #318, .T. ) ;
#194 = DIRECTION ( 'NONE',  ( 0.0000000000000000000, 0.0000000000000000000, 1.000000000000000000 ) ) ;
#195 =( LENGTH_UNIT ( ) NAMED_UNIT ( * ) SI_UNIT ( $, .METRE. ) );
#196 = ADVANCED_FACE ( 'NONE', ( #253 ), #110, .T. ) ;
#197 =( NAMED_UNIT ( * ) SI_UNIT ( $, .STERADIAN. ) SOLID_ANGLE_UNIT ( ) );
#198 = DIRECTION ( 'NONE',  ( -1.000000000000000000, 0.0000000000000000000, 0.0000000000000000000 ) ) ;
#199 = AXIS2_PLACEMENT_3D ( 'NONE', #99, #203, #102 ) ;
#200 = DIRECTION ( 'NONE',  ( -0.0000000000000000000, -0.0000000000000000000, -1.000000000000000000 ) ) ;
#201 = PRODUCT_CONTEXT ( 'NONE', #86, 'mechanical' ) ;
#202 = CARTESIAN_POINT ( 'NONE',  ( 0.0000000000000000000, 0.0000000000000000000, 2.500000000000000000 ) ) ;
#203 = DIRECTION ( 'NONE',  ( 0.0000000000000000000, 0.0000000000000000000, 1.000000000000000000 ) ) ;
#204 = SURFACE_SIDE_STYLE ('',( #149 ) ) ;
#205 = CONICAL_SURFACE ( 'NONE', #93, 0.007499999999999999722, 1.047197551196600518 ) ;
#206 = EDGE_CURVE ( 'NONE', #14, #135, #160, .T. ) ;
#207 = ADVANCED_BREP_SHAPE_REPRESENTATION ( 'Micro_DM-250-2120', ( #53, #199 ), #175 ) ;
#208 = AXIS2_PLACEMENT_3D ( 'NONE', #191, #17, #214 ) ;
#209 = CARTESIAN_POINT ( 'NONE',  ( 0.0000000000000000000, 0.0000000000000000000, 1.707404996040164512E-17 ) ) ;
#210 = EDGE_CURVE ( 'NONE', #135, #14, #282, .T. ) ;
#211 = ORIENTED_EDGE ( 'NONE', *, *, #240, .T. ) ;
#212 = CARTESIAN_POINT ( 'NONE',  ( 0.0000000000000000000, 0.0000000000000000000, 0.7499999999999998890 ) ) ;
#213 = ORIENTED_EDGE ( 'NONE', *, *, #235, .T. ) ;
#214 = DIRECTION ( 'NONE',  ( -1.000000000000000000, 0.0000000000000000000, 0.0000000000000000000 ) ) ;
#215 = AXIS2_PLACEMENT_3D ( 'NONE', #68, #21, #298 ) ;
#216 = PRESENTATION_LAYER_ASSIGNMENT (  '', '', ( #169 ) ) ;
#217 = ORIENTED_EDGE ( 'NONE', *, *, #107, .F. ) ;
#218 = DIMENSIONAL_EXPONENTS ( 1.000000000000000000, 0.0000000000000000000, 0.0000000000000000000, 0.0000000000000000000, 0.0000000000000000000, 0.0000000000000000000, 0.0000000000000000000 ) ;
#219 = CARTESIAN_POINT ( 'NONE',  ( 0.1249500000000001027, 1.530196175534619251E-17, 0.7500000000000001110 ) ) ;
#220 = FACE_OUTER_BOUND ( 'NONE', #299, .T. ) ;
#221 = PLANE ( 'NONE',  #25 ) ;
#222 = DIRECTION ( 'NONE',  ( -0.0000000000000000000, -0.0000000000000000000, -1.000000000000000000 ) ) ;
#223 = VECTOR ( 'NONE', #112, 39.37007874015748143 ) ;
#224 = CARTESIAN_POINT ( 'NONE',  ( 0.007499999999999999722, 0.0000000000000000000, 1.707404996040164512E-17 ) ) ;
#225 = FACE_OUTER_BOUND ( 'NONE', #109, .T. ) ;
#226 = EDGE_CURVE ( 'NONE', #60, #83, #121, .T. ) ;
#227 = CARTESIAN_POINT ( 'NONE',  ( 0.0000000000000000000, 0.0000000000000000000, 0.7500000000000001110 ) ) ;
#228 = APPLICATION_PROTOCOL_DEFINITION ( 'draft international standard', 'automotive_design', 1998, #95 ) ;
#229 = LINE ( 'NONE', #2, #308 ) ;
#230 =( CONVERSION_BASED_UNIT ( 'INCH', #78 ) LENGTH_UNIT ( ) NAMED_UNIT ( #218 ) );
#231 = CARTESIAN_POINT ( 'NONE',  ( -0.1100000000000001948, 0.0000000000000000000, 2.500000000000000000 ) ) ;
#232 = AXIS2_PLACEMENT_3D ( 'NONE', #72, #274, #198 ) ;
#233 = APPLICATION_PROTOCOL_DEFINITION ( 'draft international standard', 'automotive_design', 1998, #86 ) ;
#234 = CIRCLE ( 'NONE', #105, 0.1249500000000001027 ) ;
#235 = EDGE_CURVE ( 'NONE', #316, #36, #261, .T. ) ;
#236 = CONICAL_SURFACE ( 'NONE', #79, 0.1100000000000001948, 0.7853981633974517207 ) ;
#237 = PRODUCT ( 'Micro_DM-250-2120', 'Micro_DM-250-2120', '', ( #201 ) ) ;
#238 = DIRECTION ( 'NONE',  ( 0.0000000000000000000, 0.0000000000000000000, -1.000000000000000000 ) ) ;
#239 = AXIS2_PLACEMENT_3D ( 'NONE', #48, #103, #69 ) ;
#240 = EDGE_CURVE ( 'NONE', #297, #64, #94, .T. ) ;
#241 = DIRECTION ( 'NONE',  ( 0.0000000000000000000, 0.0000000000000000000, 1.000000000000000000 ) ) ;
#242 = ORIENTED_EDGE ( 'NONE', *, *, #37, .T. ) ;
#243 = DIRECTION ( 'NONE',  ( -0.0000000000000000000, -0.0000000000000000000, -1.000000000000000000 ) ) ;
#244 = ORIENTED_EDGE ( 'NONE', *, *, #257, .F. ) ;
#245 = CARTESIAN_POINT ( 'NONE',  ( 0.007499999999999999722, 0.0000000000000000000, 1.707404996040164512E-17 ) ) ;
#246 = CONICAL_SURFACE ( 'NONE', #65, 0.007499999999999999722, 1.047197551196600518 ) ;
#247 = ORIENTED_EDGE ( 'NONE', *, *, #106, .T. ) ;
#248 = DIRECTION ( 'NONE',  ( 0.0000000000000000000, 0.0000000000000000000, 1.000000000000000000 ) ) ;
#249 =( NAMED_UNIT ( * ) PLANE_ANGLE_UNIT ( ) SI_UNIT ( $, .RADIAN. ) );
#250 = CARTESIAN_POINT ( 'NONE',  ( 0.0000000000000000000, 0.0000000000000000000, 2.485000000000000320 ) ) ;
#251 = SURFACE_STYLE_FILL_AREA ( #280 ) ;
#252 = UNCERTAINTY_MEASURE_WITH_UNIT (LENGTH_MEASURE( 1.000000000000000082E-05 ), #23, 'distance_accuracy_value', 'NONE');
#253 = FACE_OUTER_BOUND ( 'NONE', #270, .T. ) ;
#254 = PRESENTATION_LAYER_ASSIGNMENT (  '', '', ( #286 ) ) ;
#255 = DIRECTION ( 'NONE',  ( 0.7071067811865499042, 8.659560562354961208E-17, -0.7071067811865451302 ) ) ;
#256 = SHAPE_DEFINITION_REPRESENTATION ( #294, #207 ) ;
#257 = EDGE_CURVE ( 'NONE', #135, #82, #229, .T. ) ;
#258 = SURFACE_STYLE_USAGE ( .BOTH. , #127 ) ;
#259 = CIRCLE ( 'NONE', #32, 0.1250000000000000000 ) ;
#260 = PRODUCT_DEFINITION ( 'UNKNOWN', '', #292, #46 ) ;
#261 = CIRCLE ( 'NONE', #58, 0.007499999999999999722 ) ;
#262 = EDGE_CURVE ( 'NONE', #263, #82, #266, .T. ) ;
#263 = VERTEX_POINT ( 'NONE', #126 ) ;
#264 = ORIENTED_EDGE ( 'NONE', *, *, #184, .F. ) ;
#265 = AXIS2_PLACEMENT_3D ( 'NONE', #212, #144, #85 ) ;
#266 = CIRCLE ( 'NONE', #312, 0.1250000000000000000 ) ;
#267 = ORIENTED_EDGE ( 'NONE', *, *, #30, .F. ) ;
#268 = DIRECTION ( 'NONE',  ( -0.0000000000000000000, -0.0000000000000000000, -1.000000000000000000 ) ) ;
#269 = DIRECTION ( 'NONE',  ( 1.000000000000000000, 0.0000000000000000000, -0.0000000000000000000 ) ) ;
#270 = EDGE_LOOP ( 'NONE', ( #247, #136, #84, #38 ) ) ;
#271 = CARTESIAN_POINT ( 'NONE',  ( -0.007499999999999999722, 9.184850993605147975E-19, 1.707404996040164512E-17 ) ) ;
#272 = CARTESIAN_POINT ( 'NONE',  ( 0.0000000000000000000, 0.0000000000000000000, 0.7499999999999998890 ) ) ;
#273 = DIRECTION ( 'NONE',  ( 0.0000000000000000000, 0.0000000000000000000, 1.000000000000000000 ) ) ;
#274 = DIRECTION ( 'NONE',  ( -0.0000000000000000000, -0.0000000000000000000, -1.000000000000000000 ) ) ;
#275 = DIRECTION ( 'NONE',  ( 1.000000000000000000, 0.0000000000000000000, 0.0000000000000000000 ) ) ;
#276 = DIRECTION ( 'NONE',  ( -0.0000000000000000000, 0.0000000000000000000, -1.000000000000000000 ) ) ;
#277 = DIRECTION ( 'NONE',  ( -0.0000000000000000000, -0.0000000000000000000, -1.000000000000000000 ) ) ;
#278 =( GEOMETRIC_REPRESENTATION_CONTEXT ( 3 ) GLOBAL_UNCERTAINTY_ASSIGNED_CONTEXT ( ( #252 ) ) GLOBAL_UNIT_ASSIGNED_CONTEXT ( ( #23, #249, #22 ) ) REPRESENTATION_CONTEXT ( 'NONE', 'WORKASPACE' ) );
#279 =( GEOMETRIC_REPRESENTATION_CONTEXT ( 3 ) GLOBAL_UNCERTAINTY_ASSIGNED_CONTEXT ( ( #9 ) ) GLOBAL_UNIT_ASSIGNED_CONTEXT ( ( #230, #129, #178 ) ) REPRESENTATION_CONTEXT ( 'NONE', 'WORKASPACE' ) );
#280 = FILL_AREA_STYLE ('',( #311 ) ) ;
#281 = DIRECTION ( 'NONE',  ( -0.0000000000000000000, -0.0000000000000000000, -1.000000000000000000 ) ) ;
#282 = CIRCLE ( 'NONE', #321, 0.1100000000000001948 ) ;
#283 = VECTOR ( 'NONE', #98, 39.37007874015748143 ) ;
#284 = EDGE_CURVE ( 'NONE', #64, #288, #181, .T. ) ;
#285 = EDGE_CURVE ( 'NONE', #183, #297, #234, .T. ) ;
#286 = STYLED_ITEM ( 'NONE', ( #146 ), #53 ) ;
#287 = ORIENTED_EDGE ( 'NONE', *, *, #30, .T. ) ;
#288 = VERTEX_POINT ( 'NONE', #148 ) ;
#289 = ORIENTED_EDGE ( 'NONE', *, *, #206, .T. ) ;
#290 = AXIS2_PLACEMENT_3D ( 'NONE', #202, #328, #97 ) ;
#291 = FACE_OUTER_BOUND ( 'NONE', #16, .T. ) ;
#292 = PRODUCT_DEFINITION_FORMATION_WITH_SPECIFIED_SOURCE ( 'ANY', '', #237, .NOT_KNOWN. ) ;
#293 = ORIENTED_EDGE ( 'NONE', *, *, #156, .F. ) ;
#294 = PRODUCT_DEFINITION_SHAPE ( 'NONE', 'NONE',  #260 ) ;
#295 = LINE ( 'NONE', #271, #223 ) ;
#296 = ADVANCED_FACE ( 'NONE', ( #193 ), #70, .T. ) ;
#297 = VERTEX_POINT ( 'NONE', #76 ) ;
#298 = DIRECTION ( 'NONE',  ( -1.000000000000000000, 0.0000000000000000000, 0.0000000000000000000 ) ) ;
#299 = EDGE_LOOP ( 'NONE', ( #244, #114, #165, #161 ) ) ;
#300 = CARTESIAN_POINT ( 'NONE',  ( 0.0000000000000000000, 0.0000000000000000000, 2.500000000000000000 ) ) ;
#301 = COLOUR_RGB ( '',0.7921568627450980005, 0.8196078431372548767, 0.9333333333333333481 ) ;
#302 = DIRECTION ( 'NONE',  ( 1.000000000000000000, 0.0000000000000000000, -0.0000000000000000000 ) ) ;
#303 = CARTESIAN_POINT ( 'NONE',  ( -0.1249500000000000610, 0.0000000000000000000, 0.0000000000000000000 ) ) ;
#304 = FACE_BOUND ( 'NONE', #116, .T. ) ;
#305 = LINE ( 'NONE', #24, #283 ) ;
#306 = PRODUCT_RELATED_PRODUCT_CATEGORY ( 'part', '', ( #237 ) ) ;
#307 = DIRECTION ( 'NONE',  ( -0.0000000000000000000, -0.0000000000000000000, -1.000000000000000000 ) ) ;
#308 = VECTOR ( 'NONE', #255, 39.37007874015748143 ) ;
#309 = LINE ( 'NONE', #75, #314 ) ;
#310 = DIRECTION ( 'NONE',  ( -1.000000000000000000, 0.0000000000000000000, 0.0000000000000000000 ) ) ;
#311 = FILL_AREA_STYLE_COLOUR ( '', #301 ) ;
#312 = AXIS2_PLACEMENT_3D ( 'NONE', #50, #28, #101 ) ;
#313 = EDGE_CURVE ( 'NONE', #183, #288, #305, .T. ) ;
#314 = VECTOR ( 'NONE', #186, 39.37007874015748143 ) ;
#315 = ORIENTED_EDGE ( 'NONE', *, *, #226, .F. ) ;
#316 = VERTEX_POINT ( 'NONE', #122 ) ;
#317 = EDGE_LOOP ( 'NONE', ( #111, #187, #242, #90 ) ) ;
#318 = EDGE_LOOP ( 'NONE', ( #324, #89, #315, #35 ) ) ;
#319 = DIRECTION ( 'NONE',  ( -1.000000000000000000, 0.0000000000000000000, 0.0000000000000000000 ) ) ;
#320 = ORIENTED_EDGE ( 'NONE', *, *, #285, .F. ) ;
#321 = AXIS2_PLACEMENT_3D ( 'NONE', #170, #273, #45 ) ;
#322 = FACE_OUTER_BOUND ( 'NONE', #159, .T. ) ;
#323 = EDGE_LOOP ( 'NONE', ( #293, #264, #164, #287 ) ) ;
#324 = ORIENTED_EDGE ( 'NONE', *, *, #262, .T. ) ;
#325 = CARTESIAN_POINT ( 'NONE',  ( 0.0000000000000000000, 0.0000000000000000000, 2.500000000000000000 ) ) ;
#326 = CYLINDRICAL_SURFACE ( 'NONE', #232, 0.1249500000000000610 ) ;
#327 = DIRECTION ( 'NONE',  ( -1.000000000000000000, 0.0000000000000000000, 0.0000000000000000000 ) ) ;
#328 = DIRECTION ( 'NONE',  ( 0.0000000000000000000, 0.0000000000000000000, -1.000000000000000000 ) ) ;
#329 = CARTESIAN_POINT ( 'NONE',  ( 0.0000000000000000000, 0.0000000000000000000, 2.500000000000000000 ) ) ;
ENDSEC;
END-ISO-10303-21;
