ISO-10303-21;
HEADER;
FILE_DESCRIPTION (( 'STEP AP214' ),
    '1' );
FILE_NAME ('Micro_EMS-156-2.STEP',
    '2021-09-01T17:43:21',
    ( '' ),
    ( '' ),
    'SwSTEP 2.0',
    'SolidWorks 2020',
    '' );
FILE_SCHEMA (( 'AUTOMOTIVE_DESIGN' ));
ENDSEC;

DATA;
#1 = CLOSED_SHELL ( 'NONE', ( #30, #35, #264, #277, #188, #119, #165, #8, #113, #234 ) ) ;
#2 = DIMENSIONAL_EXPONENTS ( 1.000000000000000000, 0.0000000000000000000, 0.0000000000000000000, 0.0000000000000000000, 0.0000000000000000000, 0.0000000000000000000, 0.0000000000000000000 ) ;
#3 = ORIENTED_EDGE ( 'NONE', *, *, #107, .F. ) ;
#4 =( GEOMETRIC_REPRESENTATION_CONTEXT ( 3 ) GLOBAL_UNCERTAINTY_ASSIGNED_CONTEXT ( ( #49 ) ) GLOBAL_UNIT_ASSIGNED_CONTEXT ( ( #296, #109, #183 ) ) REPRESENTATION_CONTEXT ( 'NONE', 'WORKASPACE' ) );
#5 = AXIS2_PLACEMENT_3D ( 'NONE', #270, #50, #111 ) ;
#6 = ORIENTED_EDGE ( 'NONE', *, *, #129, .F. ) ;
#7 = ORIENTED_EDGE ( 'NONE', *, *, #71, .F. ) ;
#8 = ADVANCED_FACE ( 'NONE', ( #141 ), #19, .T. ) ;
#9 = CARTESIAN_POINT ( 'NONE',  ( 0.07874999999999980627, 1.056257864264590573E-17, 2.000000000000000000 ) ) ;
#10 = VERTEX_POINT ( 'NONE', #9 ) ;
#11 = ORIENTED_EDGE ( 'NONE', *, *, #107, .T. ) ;
#12 = CARTESIAN_POINT ( 'NONE',  ( -0.07874999999999980627, 0.0000000000000000000, 2.000000000000000000 ) ) ;
#13 = CARTESIAN_POINT ( 'NONE',  ( 0.0000000000000000000, 0.0000000000000000000, 0.0000000000000000000 ) ) ;
#14 = ORIENTED_EDGE ( 'NONE', *, *, #15, .F. ) ;
#15 = EDGE_CURVE ( 'NONE', #96, #139, #166, .T. ) ;
#16 = DIRECTION ( 'NONE',  ( -0.7071067811865463515, 0.0000000000000000000, -0.7071067811865486830 ) ) ;
#17 = CARTESIAN_POINT ( 'NONE',  ( 0.0000000000000000000, 0.0000000000000000000, 0.0000000000000000000 ) ) ;
#18 = PLANE ( 'NONE',  #97 ) ;
#19 = CONICAL_SURFACE ( 'NONE', #168, 0.07802190000000000514, 0.1745329251994338082 ) ;
#20 = PRESENTATION_STYLE_ASSIGNMENT (( #294 ) ) ;
#21 = DIRECTION ( 'NONE',  ( -0.0000000000000000000, -0.0000000000000000000, -1.000000000000000000 ) ) ;
#22 = CARTESIAN_POINT ( 'NONE',  ( 0.0000000000000000000, 0.0000000000000000000, 2.000000000000000000 ) ) ;
#23 = LENGTH_MEASURE_WITH_UNIT ( LENGTH_MEASURE( 0.02539999999999999897 ), #298 );
#24 = AXIS2_PLACEMENT_3D ( 'NONE', #293, #176, #295 ) ;
#25 = DIRECTION ( 'NONE',  ( -1.000000000000000000, 0.0000000000000000000, 0.0000000000000000000 ) ) ;
#26 = CARTESIAN_POINT ( 'NONE',  ( 0.07802190000000007453, 0.0000000000000000000, 0.5629999999999999449 ) ) ;
#27 = PRODUCT_DEFINITION_FORMATION_WITH_SPECIFIED_SOURCE ( 'ANY', '', #204, .NOT_KNOWN. ) ;
#28 = EDGE_CURVE ( 'NONE', #190, #163, #138, .T. ) ;
#29 = CARTESIAN_POINT ( 'NONE',  ( -0.09375000000000001388, 0.0000000000000000000, 2.000000000000000000 ) ) ;
#30 = ADVANCED_FACE ( 'NONE', ( #132 ), #180, .T. ) ;
#31 = STYLED_ITEM ( 'NONE', ( #172 ), #213 ) ;
#32 = ORIENTED_EDGE ( 'NONE', *, *, #71, .T. ) ;
#33 = EDGE_LOOP ( 'NONE', ( #3, #217, #118, #284 ) ) ;
#34 = FILL_AREA_STYLE ('',( #98 ) ) ;
#35 = ADVANCED_FACE ( 'NONE', ( #208 ), #127, .T. ) ;
#36 = EDGE_LOOP ( 'NONE', ( #257, #56, #164, #259 ) ) ;
#37 = SURFACE_STYLE_USAGE ( .BOTH. , #121 ) ;
#38 = DIRECTION ( 'NONE',  ( 1.000000000000000000, 0.0000000000000000000, 0.0000000000000000000 ) ) ;
#39 = CARTESIAN_POINT ( 'NONE',  ( 7.987127902323220081E-17, 0.0000000000000000000, 0.6521984875871288390 ) ) ;
#40 = DIRECTION ( 'NONE',  ( 0.0000000000000000000, 0.0000000000000000000, -1.000000000000000000 ) ) ;
#41 = DIRECTION ( 'NONE',  ( -0.0000000000000000000, -0.0000000000000000000, -1.000000000000000000 ) ) ;
#42 = CIRCLE ( 'NONE', #265, 0.09375000000000001388 ) ;
#43 = CARTESIAN_POINT ( 'NONE',  ( 0.09375000000000009714, 1.148106374200644787E-17, 0.6521984875871288390 ) ) ;
#44 = LINE ( 'NONE', #299, #102 ) ;
#45 = DIRECTION ( 'NONE',  ( -1.224646799147353207E-16, -0.0000000000000000000, -1.000000000000000000 ) ) ;
#46 = DIRECTION ( 'NONE',  ( -0.0000000000000000000, -0.0000000000000000000, -1.000000000000000000 ) ) ;
#47 = CARTESIAN_POINT ( 'NONE',  ( 0.09375000000000001388, 1.148106374200643863E-17, 1.984999999999999654 ) ) ;
#48 = STYLED_ITEM ( 'NONE', ( #20 ), #292 ) ;
#49 = UNCERTAINTY_MEASURE_WITH_UNIT (LENGTH_MEASURE( 1.000000000000000082E-05 ), #296, 'distance_accuracy_value', 'NONE');
#50 = DIRECTION ( 'NONE',  ( -1.224646799147353207E-16, -0.0000000000000000000, -1.000000000000000000 ) ) ;
#51 = DIRECTION ( 'NONE',  ( -1.000000000000000000, 0.0000000000000000000, 1.224646799147353207E-16 ) ) ;
#52 = MECHANICAL_DESIGN_GEOMETRIC_PRESENTATION_REPRESENTATION (  '', ( #48 ), #59 ) ;
#53 = EDGE_LOOP ( 'NONE', ( #143, #282, #57, #76 ) ) ;
#54 =( GEOMETRIC_REPRESENTATION_CONTEXT ( 3 ) GLOBAL_UNCERTAINTY_ASSIGNED_CONTEXT ( ( #253 ) ) GLOBAL_UNIT_ASSIGNED_CONTEXT ( ( #291, #152, #78 ) ) REPRESENTATION_CONTEXT ( 'NONE', 'WORKASPACE' ) );
#55 = EDGE_LOOP ( 'NONE', ( #281, #32, #193, #167 ) ) ;
#56 = ORIENTED_EDGE ( 'NONE', *, *, #135, .F. ) ;
#57 = ORIENTED_EDGE ( 'NONE', *, *, #229, .T. ) ;
#58 = DIRECTION ( 'NONE',  ( -1.000000000000000000, 0.0000000000000000000, 0.0000000000000000000 ) ) ;
#59 =( GEOMETRIC_REPRESENTATION_CONTEXT ( 3 ) GLOBAL_UNCERTAINTY_ASSIGNED_CONTEXT ( ( #184 ) ) GLOBAL_UNIT_ASSIGNED_CONTEXT ( ( #206, #179, #66 ) ) REPRESENTATION_CONTEXT ( 'NONE', 'WORKASPACE' ) );
#60 = LINE ( 'NONE', #149, #137 ) ;
#61 = EDGE_CURVE ( 'NONE', #144, #163, #42, .T. ) ;
#62 = CARTESIAN_POINT ( 'NONE',  ( -0.09375000000000001388, 0.0000000000000000000, 1.984999999999999654 ) ) ;
#63 = CYLINDRICAL_SURFACE ( 'NONE', #186, 0.09375000000000001388 ) ;
#64 = DIRECTION ( 'NONE',  ( 1.224646799147353207E-16, 0.0000000000000000000, 1.000000000000000000 ) ) ;
#65 = LINE ( 'NONE', #87, #114 ) ;
#66 =( NAMED_UNIT ( * ) SI_UNIT ( $, .STERADIAN. ) SOLID_ANGLE_UNIT ( ) );
#67 = DIRECTION ( 'NONE',  ( -1.224646799147353207E-16, -0.0000000000000000000, -1.000000000000000000 ) ) ;
#68 = DIRECTION ( 'NONE',  ( 1.000000000000000000, 0.0000000000000000000, 0.0000000000000000000 ) ) ;
#69 = AXIS2_PLACEMENT_3D ( 'NONE', #207, #230, #106 ) ;
#70 = PRESENTATION_LAYER_ASSIGNMENT (  '', '', ( #31 ) ) ;
#71 = EDGE_CURVE ( 'NONE', #79, #144, #65, .T. ) ;
#72 = ORIENTED_EDGE ( 'NONE', *, *, #28, .T. ) ;
#73 = ORIENTED_EDGE ( 'NONE', *, *, #129, .T. ) ;
#74 = CONICAL_SURFACE ( 'NONE', #225, 0.07874999999999980627, 0.7853981633974466137 ) ;
#75 = CONICAL_SURFACE ( 'NONE', #24, 0.07874999999999980627, 0.7853981633974466137 ) ;
#76 = ORIENTED_EDGE ( 'NONE', *, *, #258, .F. ) ;
#77 = EDGE_CURVE ( 'NONE', #169, #10, #283, .T. ) ;
#78 =( NAMED_UNIT ( * ) SI_UNIT ( $, .STERADIAN. ) SOLID_ANGLE_UNIT ( ) );
#79 = VERTEX_POINT ( 'NONE', #47 ) ;
#80 = DIRECTION ( 'NONE',  ( 1.000000000000000000, 0.0000000000000000000, 0.0000000000000000000 ) ) ;
#81 = DIRECTION ( 'NONE',  ( 0.0000000000000000000, 0.0000000000000000000, 1.000000000000000000 ) ) ;
#82 = CARTESIAN_POINT ( 'NONE',  ( 0.0000000000000000000, 0.0000000000000000000, 2.000000000000000000 ) ) ;
#83 = LINE ( 'NONE', #287, #252 ) ;
#84 = APPLICATION_PROTOCOL_DEFINITION ( 'draft international standard', 'automotive_design', 1998, #110 ) ;
#85 = CYLINDRICAL_SURFACE ( 'NONE', #5, 0.07802190000000000514 ) ;
#86 = VECTOR ( 'NONE', #45, 39.37007874015748143 ) ;
#87 = CARTESIAN_POINT ( 'NONE',  ( 0.09375000000000001388, 1.148106374200643863E-17, 2.000000000000000000 ) ) ;
#88 = DIRECTION ( 'NONE',  ( -1.000000000000000000, 0.0000000000000000000, 0.0000000000000000000 ) ) ;
#89 = DIRECTION ( 'NONE',  ( 0.0000000000000000000, 0.0000000000000000000, -1.000000000000000000 ) ) ;
#90 = SURFACE_SIDE_STYLE ('',( #203 ) ) ;
#91 = EDGE_LOOP ( 'NONE', ( #240, #73, #147, #122 ) ) ;
#92 = DIRECTION ( 'NONE',  ( -1.224646799147353207E-16, -0.0000000000000000000, -1.000000000000000000 ) ) ;
#93 = ORIENTED_EDGE ( 'NONE', *, *, #237, .T. ) ;
#94 = CARTESIAN_POINT ( 'NONE',  ( 1.170141077868652023E-33, 0.0000000000000000000, 9.554927009839488851E-18 ) ) ;
#95 = ORIENTED_EDGE ( 'NONE', *, *, #77, .F. ) ;
#96 = VERTEX_POINT ( 'NONE', #251 ) ;
#97 = AXIS2_PLACEMENT_3D ( 'NONE', #17, #81, #268 ) ;
#98 = FILL_AREA_STYLE_COLOUR ( '', #117 ) ;
#99 = EDGE_LOOP ( 'NONE', ( #286, #11 ) ) ;
#100 = FACE_OUTER_BOUND ( 'NONE', #33, .T. ) ;
#101 =( LENGTH_UNIT ( ) NAMED_UNIT ( * ) SI_UNIT ( $, .METRE. ) );
#102 = VECTOR ( 'NONE', #248, 39.37007874015748143 ) ;
#103 = CARTESIAN_POINT ( 'NONE',  ( 0.0000000000000000000, 0.0000000000000000000, 2.000000000000000000 ) ) ;
#104 = MECHANICAL_DESIGN_GEOMETRIC_PRESENTATION_REPRESENTATION (  '', ( #31 ), #54 ) ;
#105 = FACE_OUTER_BOUND ( 'NONE', #145, .T. ) ;
#106 = DIRECTION ( 'NONE',  ( 1.000000000000000000, 0.0000000000000000000, 0.0000000000000000000 ) ) ;
#107 = EDGE_CURVE ( 'NONE', #10, #169, #196, .T. ) ;
#108 = DIRECTION ( 'NONE',  ( 0.7071067811865463515, 8.659560562354916834E-17, -0.7071067811865486830 ) ) ;
#109 =( NAMED_UNIT ( * ) PLANE_ANGLE_UNIT ( ) SI_UNIT ( $, .RADIAN. ) );
#110 = APPLICATION_CONTEXT ( 'automotive_design' ) ;
#111 = DIRECTION ( 'NONE',  ( -1.000000000000000000, 0.0000000000000000000, 1.224646799147353207E-16 ) ) ;
#112 = DIRECTION ( 'NONE',  ( 1.000000000000000000, 0.0000000000000000000, 0.0000000000000000000 ) ) ;
#113 = ADVANCED_FACE ( 'NONE', ( #154 ), #85, .T. ) ;
#114 = VECTOR ( 'NONE', #21, 39.37007874015748143 ) ;
#115 = AXIS2_PLACEMENT_3D ( 'NONE', #94, #254, #51 ) ;
#116 = DIMENSIONAL_EXPONENTS ( 1.000000000000000000, 0.0000000000000000000, 0.0000000000000000000, 0.0000000000000000000, 0.0000000000000000000, 0.0000000000000000000, 0.0000000000000000000 ) ;
#117 = COLOUR_RGB ( '',0.7921568627450980005, 0.8196078431372548767, 0.9333333333333333481 ) ;
#118 = ORIENTED_EDGE ( 'NONE', *, *, #223, .F. ) ;
#119 = ADVANCED_FACE ( 'NONE', ( #134 ), #273, .T. ) ;
#120 = VERTEX_POINT ( 'NONE', #26 ) ;
#121 = SURFACE_SIDE_STYLE ('',( #146 ) ) ;
#122 = ORIENTED_EDGE ( 'NONE', *, *, #288, .F. ) ;
#123 = DIRECTION ( 'NONE',  ( -0.1736481776669311083, 2.126576849575782084E-17, 0.9848077530122080203 ) ) ;
#124 = DIRECTION ( 'NONE',  ( 0.0000000000000000000, 0.0000000000000000000, -1.000000000000000000 ) ) ;
#125 = CIRCLE ( 'NONE', #279, 0.09375000000000001388 ) ;
#126 = DIRECTION ( 'NONE',  ( -1.000000000000000000, 0.0000000000000000000, 1.224646799147353207E-16 ) ) ;
#127 = CONICAL_SURFACE ( 'NONE', #160, 0.07802190000000000514, 0.1745329251994338082 ) ;
#128 = LINE ( 'NONE', #202, #140 ) ;
#129 = EDGE_CURVE ( 'NONE', #120, #96, #44, .T. ) ;
#130 = CARTESIAN_POINT ( 'NONE',  ( 6.894761479199598081E-17, 0.0000000000000000000, 0.5629999999999999449 ) ) ;
#131 = CARTESIAN_POINT ( 'NONE',  ( -0.07874999999999980627, 0.0000000000000000000, 2.000000000000000000 ) ) ;
#132 = FACE_OUTER_BOUND ( 'NONE', #91, .T. ) ;
#133 = AXIS2_PLACEMENT_3D ( 'NONE', #22, #178, #112 ) ;
#134 = FACE_OUTER_BOUND ( 'NONE', #99, .T. ) ;
#135 = EDGE_CURVE ( 'NONE', #120, #261, #290, .T. ) ;
#136 = PRODUCT_DEFINITION_CONTEXT ( 'detailed design', #157, 'design' ) ;
#137 = VECTOR ( 'NONE', #260, 39.37007874015748143 ) ;
#138 = LINE ( 'NONE', #29, #148 ) ;
#139 = VERTEX_POINT ( 'NONE', #247 ) ;
#140 = VECTOR ( 'NONE', #108, 39.37007874015748143 ) ;
#141 = FACE_OUTER_BOUND ( 'NONE', #36, .T. ) ;
#142 = VECTOR ( 'NONE', #16, 39.37007874015748143 ) ;
#143 = ORIENTED_EDGE ( 'NONE', *, *, #244, .F. ) ;
#144 = VERTEX_POINT ( 'NONE', #43 ) ;
#145 = EDGE_LOOP ( 'NONE', ( #7, #216, #72, #212 ) ) ;
#146 = SURFACE_STYLE_FILL_AREA ( #34 ) ;
#147 = ORIENTED_EDGE ( 'NONE', *, *, #200, .F. ) ;
#148 = VECTOR ( 'NONE', #46, 39.37007874015748143 ) ;
#149 = CARTESIAN_POINT ( 'NONE',  ( 0.07802190000000007453, 0.0000000000000000000, 0.5629999999999999449 ) ) ;
#150 = CARTESIAN_POINT ( 'NONE',  ( -0.07802189999999993575, 1.051799537592296220E-17, 0.5629999999999999449 ) ) ;
#151 = AXIS2_PLACEMENT_3D ( 'NONE', #285, #289, #126 ) ;
#152 =( NAMED_UNIT ( * ) PLANE_ANGLE_UNIT ( ) SI_UNIT ( $, .RADIAN. ) );
#153 = PRODUCT_DEFINITION ( 'UNKNOWN', '', #27, #136 ) ;
#154 = FACE_OUTER_BOUND ( 'NONE', #171, .T. ) ;
#155 = LENGTH_MEASURE_WITH_UNIT ( LENGTH_MEASURE( 0.02539999999999999897 ), #271 );
#156 = DIRECTION ( 'NONE',  ( 1.000000000000000000, 0.0000000000000000000, -0.0000000000000000000 ) ) ;
#157 = APPLICATION_CONTEXT ( 'automotive_design' ) ;
#158 = CARTESIAN_POINT ( 'NONE',  ( 7.987127902323220081E-17, 0.0000000000000000000, 0.6521984875871288390 ) ) ;
#159 = CIRCLE ( 'NONE', #227, 0.09375000000000001388 ) ;
#160 = AXIS2_PLACEMENT_3D ( 'NONE', #276, #64, #228 ) ;
#161 = EDGE_CURVE ( 'NONE', #10, #79, #128, .T. ) ;
#162 = AXIS2_PLACEMENT_3D ( 'NONE', #103, #41, #88 ) ;
#163 = VERTEX_POINT ( 'NONE', #250 ) ;
#164 = ORIENTED_EDGE ( 'NONE', *, *, #258, .T. ) ;
#165 = ADVANCED_FACE ( 'NONE', ( #205 ), #75, .T. ) ;
#166 = CIRCLE ( 'NONE', #115, 0.07802190000000000514 ) ;
#167 = ORIENTED_EDGE ( 'NONE', *, *, #28, .F. ) ;
#168 = AXIS2_PLACEMENT_3D ( 'NONE', #215, #236, #238 ) ;
#169 = VERTEX_POINT ( 'NONE', #131 ) ;
#170 = DIRECTION ( 'NONE',  ( -1.000000000000000000, 0.0000000000000000000, 0.0000000000000000000 ) ) ;
#171 = EDGE_LOOP ( 'NONE', ( #6, #214, #218, #14 ) ) ;
#172 = PRESENTATION_STYLE_ASSIGNMENT (( #37 ) ) ;
#173 = APPLICATION_PROTOCOL_DEFINITION ( 'draft international standard', 'automotive_design', 1998, #157 ) ;
#174 = CARTESIAN_POINT ( 'NONE',  ( 6.894761479199598081E-17, 0.0000000000000000000, 0.5629999999999999449 ) ) ;
#175 = FILL_AREA_STYLE_COLOUR ( '', #209 ) ;
#176 = DIRECTION ( 'NONE',  ( 0.0000000000000000000, 0.0000000000000000000, -1.000000000000000000 ) ) ;
#177 = FILL_AREA_STYLE ('',( #175 ) ) ;
#178 = DIRECTION ( 'NONE',  ( 0.0000000000000000000, 0.0000000000000000000, 1.000000000000000000 ) ) ;
#179 =( NAMED_UNIT ( * ) PLANE_ANGLE_UNIT ( ) SI_UNIT ( $, .RADIAN. ) );
#180 = CYLINDRICAL_SURFACE ( 'NONE', #224, 0.07802190000000000514 ) ;
#181 = EDGE_CURVE ( 'NONE', #79, #190, #125, .T. ) ;
#182 = DIRECTION ( 'NONE',  ( -1.000000000000000000, 0.0000000000000000000, 1.224646799147353207E-16 ) ) ;
#183 =( NAMED_UNIT ( * ) SI_UNIT ( $, .STERADIAN. ) SOLID_ANGLE_UNIT ( ) );
#184 = UNCERTAINTY_MEASURE_WITH_UNIT (LENGTH_MEASURE( 1.000000000000000082E-05 ), #206, 'distance_accuracy_value', 'NONE');
#185 = DIRECTION ( 'NONE',  ( -1.224646799147353207E-16, -0.0000000000000000000, -1.000000000000000000 ) ) ;
#186 = AXIS2_PLACEMENT_3D ( 'NONE', #82, #198, #58 ) ;
#187 = AXIS2_PLACEMENT_3D ( 'NONE', #13, #221, #38 ) ;
#188 = ADVANCED_FACE ( 'NONE', ( #105 ), #63, .T. ) ;
#189 = EDGE_LOOP ( 'NONE', ( #242, #95, #93, #280 ) ) ;
#190 = VERTEX_POINT ( 'NONE', #62 ) ;
#191 = EDGE_LOOP ( 'NONE', ( #255, #241 ) ) ;
#192 = DIRECTION ( 'NONE',  ( -1.224646799147353207E-16, -0.0000000000000000000, -1.000000000000000000 ) ) ;
#193 = ORIENTED_EDGE ( 'NONE', *, *, #229, .F. ) ;
#194 = LINE ( 'NONE', #12, #142 ) ;
#195 = CARTESIAN_POINT ( 'NONE',  ( 0.0000000000000000000, 0.0000000000000000000, 1.984999999999999654 ) ) ;
#196 = CIRCLE ( 'NONE', #133, 0.07874999999999980627 ) ;
#197 = CIRCLE ( 'NONE', #269, 0.07802190000000000514 ) ;
#198 = DIRECTION ( 'NONE',  ( -0.0000000000000000000, -0.0000000000000000000, -1.000000000000000000 ) ) ;
#199 = AXIS2_PLACEMENT_3D ( 'NONE', #297, #232, #156 ) ;
#200 = EDGE_CURVE ( 'NONE', #139, #96, #239, .T. ) ;
#201 = PRODUCT_DEFINITION_SHAPE ( 'NONE', 'NONE',  #153 ) ;
#202 = CARTESIAN_POINT ( 'NONE',  ( 0.07874999999999980627, 9.644093543285380530E-18, 2.000000000000000000 ) ) ;
#203 = SURFACE_STYLE_FILL_AREA ( #177 ) ;
#204 = PRODUCT ( 'Micro_EMS-156-2', 'Micro_EMS-156-2', '', ( #246 ) ) ;
#205 = FACE_OUTER_BOUND ( 'NONE', #189, .T. ) ;
#206 =( CONVERSION_BASED_UNIT ( 'INCH', #155 ) LENGTH_UNIT ( ) NAMED_UNIT ( #233 ) );
#207 = CARTESIAN_POINT ( 'NONE',  ( 0.0000000000000000000, 0.0000000000000000000, 2.000000000000000000 ) ) ;
#208 = FACE_OUTER_BOUND ( 'NONE', #53, .T. ) ;
#209 = COLOUR_RGB ( '',0.7921568627450980005, 0.8196078431372548767, 0.9333333333333333481 ) ;
#210 = AXIS2_PLACEMENT_3D ( 'NONE', #130, #185, #25 ) ;
#211 = EDGE_CURVE ( 'NONE', #261, #163, #83, .T. ) ;
#212 = ORIENTED_EDGE ( 'NONE', *, *, #61, .F. ) ;
#213 = MANIFOLD_SOLID_BREP ( 'Cut-Revolve1', #1 ) ;
#214 = ORIENTED_EDGE ( 'NONE', *, *, #135, .T. ) ;
#215 = CARTESIAN_POINT ( 'NONE',  ( 6.894761479199598081E-17, 0.0000000000000000000, 0.5629999999999999449 ) ) ;
#216 = ORIENTED_EDGE ( 'NONE', *, *, #181, .T. ) ;
#217 = ORIENTED_EDGE ( 'NONE', *, *, #161, .T. ) ;
#218 = ORIENTED_EDGE ( 'NONE', *, *, #288, .T. ) ;
#219 = FACE_OUTER_BOUND ( 'NONE', #191, .T. ) ;
#220 = DIRECTION ( 'NONE',  ( -1.224646799147353207E-16, -0.0000000000000000000, -1.000000000000000000 ) ) ;
#221 = DIRECTION ( 'NONE',  ( 0.0000000000000000000, 0.0000000000000000000, 1.000000000000000000 ) ) ;
#222 = FACE_OUTER_BOUND ( 'NONE', #55, .T. ) ;
#223 = EDGE_CURVE ( 'NONE', #190, #79, #159, .T. ) ;
#224 = AXIS2_PLACEMENT_3D ( 'NONE', #275, #67, #182 ) ;
#225 = AXIS2_PLACEMENT_3D ( 'NONE', #245, #40, #267 ) ;
#226 = CYLINDRICAL_SURFACE ( 'NONE', #162, 0.09375000000000001388 ) ;
#227 = AXIS2_PLACEMENT_3D ( 'NONE', #195, #124, #243 ) ;
#228 = DIRECTION ( 'NONE',  ( 1.000000000000000000, 0.0000000000000000000, 0.0000000000000000000 ) ) ;
#229 = EDGE_CURVE ( 'NONE', #163, #144, #256, .T. ) ;
#230 = DIRECTION ( 'NONE',  ( 0.0000000000000000000, 0.0000000000000000000, 1.000000000000000000 ) ) ;
#231 = CARTESIAN_POINT ( 'NONE',  ( 0.0000000000000000000, 0.0000000000000000000, 1.984999999999999654 ) ) ;
#232 = DIRECTION ( 'NONE',  ( 0.0000000000000000000, 0.0000000000000000000, 1.000000000000000000 ) ) ;
#233 = DIMENSIONAL_EXPONENTS ( 1.000000000000000000, 0.0000000000000000000, 0.0000000000000000000, 0.0000000000000000000, 0.0000000000000000000, 0.0000000000000000000, 0.0000000000000000000 ) ;
#234 = ADVANCED_FACE ( 'NONE', ( #219 ), #18, .F. ) ;
#235 = PRESENTATION_LAYER_ASSIGNMENT (  '', '', ( #48 ) ) ;
#236 = DIRECTION ( 'NONE',  ( 1.224646799147353207E-16, 0.0000000000000000000, 1.000000000000000000 ) ) ;
#237 = EDGE_CURVE ( 'NONE', #169, #190, #194, .T. ) ;
#238 = DIRECTION ( 'NONE',  ( 1.000000000000000000, 0.0000000000000000000, 0.0000000000000000000 ) ) ;
#239 = CIRCLE ( 'NONE', #151, 0.07802190000000000514 ) ;
#240 = ORIENTED_EDGE ( 'NONE', *, *, #244, .T. ) ;
#241 = ORIENTED_EDGE ( 'NONE', *, *, #15, .T. ) ;
#242 = ORIENTED_EDGE ( 'NONE', *, *, #161, .F. ) ;
#243 = DIRECTION ( 'NONE',  ( 1.000000000000000000, 0.0000000000000000000, 0.0000000000000000000 ) ) ;
#244 = EDGE_CURVE ( 'NONE', #261, #120, #197, .T. ) ;
#245 = CARTESIAN_POINT ( 'NONE',  ( 0.0000000000000000000, 0.0000000000000000000, 2.000000000000000000 ) ) ;
#246 = PRODUCT_CONTEXT ( 'NONE', #110, 'mechanical' ) ;
#247 = CARTESIAN_POINT ( 'NONE',  ( -0.07802190000000000514, 0.0000000000000000000, 1.910985401967897770E-17 ) ) ;
#248 = DIRECTION ( 'NONE',  ( -1.224646799147353207E-16, -0.0000000000000000000, -1.000000000000000000 ) ) ;
#249 = CARTESIAN_POINT ( 'NONE',  ( -0.07802190000000000514, 0.0000000000000000000, 9.554927009839488851E-18 ) ) ;
#250 = CARTESIAN_POINT ( 'NONE',  ( -0.09374999999999991673, 0.0000000000000000000, 0.6521984875871288390 ) ) ;
#251 = CARTESIAN_POINT ( 'NONE',  ( 0.07802190000000000514, 9.554927009839488851E-18, 0.0000000000000000000 ) ) ;
#252 = VECTOR ( 'NONE', #123, 39.37007874015747433 ) ;
#253 = UNCERTAINTY_MEASURE_WITH_UNIT (LENGTH_MEASURE( 1.000000000000000082E-05 ), #291, 'distance_accuracy_value', 'NONE');
#254 = DIRECTION ( 'NONE',  ( -1.224646799147353207E-16, -0.0000000000000000000, -1.000000000000000000 ) ) ;
#255 = ORIENTED_EDGE ( 'NONE', *, *, #200, .T. ) ;
#256 = CIRCLE ( 'NONE', #278, 0.09375000000000001388 ) ;
#257 = ORIENTED_EDGE ( 'NONE', *, *, #211, .F. ) ;
#258 = EDGE_CURVE ( 'NONE', #120, #144, #60, .T. ) ;
#259 = ORIENTED_EDGE ( 'NONE', *, *, #61, .T. ) ;
#260 = DIRECTION ( 'NONE',  ( 0.1736481776669313026, 0.0000000000000000000, 0.9848077530122077983 ) ) ;
#261 = VERTEX_POINT ( 'NONE', #150 ) ;
#262 = LENGTH_MEASURE_WITH_UNIT ( LENGTH_MEASURE( 0.02539999999999999897 ), #101 );
#263 = SHAPE_DEFINITION_REPRESENTATION ( #201, #292 ) ;
#264 = ADVANCED_FACE ( 'NONE', ( #100 ), #74, .T. ) ;
#265 = AXIS2_PLACEMENT_3D ( 'NONE', #158, #92, #68 ) ;
#266 = DIRECTION ( 'NONE',  ( 1.000000000000000000, 0.0000000000000000000, 0.0000000000000000000 ) ) ;
#267 = DIRECTION ( 'NONE',  ( -1.000000000000000000, 0.0000000000000000000, 0.0000000000000000000 ) ) ;
#268 = DIRECTION ( 'NONE',  ( 1.000000000000000000, 0.0000000000000000000, -0.0000000000000000000 ) ) ;
#269 = AXIS2_PLACEMENT_3D ( 'NONE', #174, #192, #170 ) ;
#270 = CARTESIAN_POINT ( 'NONE',  ( 0.0000000000000000000, 0.0000000000000000000, 0.0000000000000000000 ) ) ;
#271 =( LENGTH_UNIT ( ) NAMED_UNIT ( * ) SI_UNIT ( $, .METRE. ) );
#272 = PRODUCT_RELATED_PRODUCT_CATEGORY ( 'part', '', ( #204 ) ) ;
#273 = PLANE ( 'NONE',  #199 ) ;
#274 = LINE ( 'NONE', #249, #86 ) ;
#275 = CARTESIAN_POINT ( 'NONE',  ( 0.0000000000000000000, 0.0000000000000000000, 0.0000000000000000000 ) ) ;
#276 = CARTESIAN_POINT ( 'NONE',  ( 6.894761479199598081E-17, 0.0000000000000000000, 0.5629999999999999449 ) ) ;
#277 = ADVANCED_FACE ( 'NONE', ( #222 ), #226, .T. ) ;
#278 = AXIS2_PLACEMENT_3D ( 'NONE', #39, #220, #266 ) ;
#279 = AXIS2_PLACEMENT_3D ( 'NONE', #231, #89, #80 ) ;
#280 = ORIENTED_EDGE ( 'NONE', *, *, #181, .F. ) ;
#281 = ORIENTED_EDGE ( 'NONE', *, *, #223, .T. ) ;
#282 = ORIENTED_EDGE ( 'NONE', *, *, #211, .T. ) ;
#283 = CIRCLE ( 'NONE', #69, 0.07874999999999980627 ) ;
#284 = ORIENTED_EDGE ( 'NONE', *, *, #237, .F. ) ;
#285 = CARTESIAN_POINT ( 'NONE',  ( 1.170141077868652023E-33, 0.0000000000000000000, 9.554927009839488851E-18 ) ) ;
#286 = ORIENTED_EDGE ( 'NONE', *, *, #77, .T. ) ;
#287 = CARTESIAN_POINT ( 'NONE',  ( -0.07802189999999993575, 9.554927009839488851E-18, 0.5629999999999999449 ) ) ;
#288 = EDGE_CURVE ( 'NONE', #261, #139, #274, .T. ) ;
#289 = DIRECTION ( 'NONE',  ( -1.224646799147353207E-16, -0.0000000000000000000, -1.000000000000000000 ) ) ;
#290 = CIRCLE ( 'NONE', #210, 0.07802190000000000514 ) ;
#291 =( CONVERSION_BASED_UNIT ( 'INCH', #262 ) LENGTH_UNIT ( ) NAMED_UNIT ( #116 ) );
#292 = ADVANCED_BREP_SHAPE_REPRESENTATION ( 'Micro_EMS-156-2', ( #213, #187 ), #4 ) ;
#293 = CARTESIAN_POINT ( 'NONE',  ( 0.0000000000000000000, 0.0000000000000000000, 2.000000000000000000 ) ) ;
#294 = SURFACE_STYLE_USAGE ( .BOTH. , #90 ) ;
#295 = DIRECTION ( 'NONE',  ( -1.000000000000000000, 0.0000000000000000000, 0.0000000000000000000 ) ) ;
#296 =( CONVERSION_BASED_UNIT ( 'INCH', #23 ) LENGTH_UNIT ( ) NAMED_UNIT ( #2 ) );
#297 = CARTESIAN_POINT ( 'NONE',  ( 0.0000000000000000000, 0.0000000000000000000, 2.000000000000000000 ) ) ;
#298 =( LENGTH_UNIT ( ) NAMED_UNIT ( * ) SI_UNIT ( $, .METRE. ) );
#299 = CARTESIAN_POINT ( 'NONE',  ( 0.07802190000000000514, 9.554927009839488851E-18, -9.554927009839488851E-18 ) ) ;
ENDSEC;
END-ISO-10303-21;
