ISO-10303-21;
HEADER;
FILE_DESCRIPTION (( 'STEP AP214' ),
    '1' );
FILE_NAME ('56692.STEP',
    '2023-06-30T22:12:53',
    ( '' ),
    ( '' ),
    'SwSTEP 2.0',
    'SolidWorks 2023',
    '' );
FILE_SCHEMA (( 'AUTOMOTIVE_DESIGN' ));
ENDSEC;

DATA;
#1 = ORIENTED_EDGE ( 'NONE', *, *, #95, .T. ) ;
#2 =( NAMED_UNIT ( * ) SI_UNIT ( $, .STERADIAN. ) SOLID_ANGLE_UNIT ( ) );
#3 =( NAMED_UNIT ( * ) SI_UNIT ( $, .STERADIAN. ) SOLID_ANGLE_UNIT ( ) );
#4 = DIRECTION ( 'NONE',  ( -0.000000000000000000, -1.000000000000000000, -0.000000000000000000 ) ) ;
#5 = CLOSED_SHELL ( 'NONE', ( #134, #151, #277, #320 ) ) ;
#6 = CARTESIAN_POINT ( 'NONE',  ( -1.224646799147354440E-16, 6.000000000000000888, 0.000000000000000000 ) ) ;
#7 =( CONVERSION_BASED_UNIT ( 'INCH', #34 ) LENGTH_UNIT ( ) NAMED_UNIT ( #75 ) );
#8 =( LENGTH_UNIT ( ) NAMED_UNIT ( * ) SI_UNIT ( $, .METRE. ) );
#9 = DIRECTION ( 'NONE',  ( -0.000000000000000000, -1.000000000000000000, -0.000000000000000000 ) ) ;
#10 = PRODUCT_DEFINITION_FORMATION_WITH_SPECIFIED_SOURCE ( 'ANY', '', #143, .NOT_KNOWN. ) ;
#11 = SURFACE_STYLE_FILL_AREA ( #65 ) ;
#12 = CARTESIAN_POINT ( 'NONE',  ( 0.3749999999999999445, 0.3750000000000001110, 0.000000000000000000 ) ) ;
#13 = ORIENTED_EDGE ( 'NONE', *, *, #345, .T. ) ;
#14 = SURFACE_STYLE_USAGE ( .BOTH. , #302 ) ;
#15 = CIRCLE ( 'NONE', #66, 0.3749999999999999445 ) ;
#16 = CIRCLE ( 'NONE', #366, 0.3750000000000000555 ) ;
#17 =( GEOMETRIC_REPRESENTATION_CONTEXT ( 3 ) GLOBAL_UNCERTAINTY_ASSIGNED_CONTEXT ( ( #249 ) ) GLOBAL_UNIT_ASSIGNED_CONTEXT ( ( #184, #30, #329 ) ) REPRESENTATION_CONTEXT ( 'NONE', 'WORKASPACE' ) );
#18 = PRODUCT_CONTEXT ( 'NONE', #162, 'mechanical' ) ;
#19 = DIRECTION ( 'NONE',  ( 0.000000000000000000, 1.000000000000000000, 0.000000000000000000 ) ) ;
#20 = DIRECTION ( 'NONE',  ( 0.000000000000000000, 0.000000000000000000, 1.000000000000000000 ) ) ;
#21 = DIRECTION ( 'NONE',  ( -0.000000000000000000, -1.000000000000000000, -0.000000000000000000 ) ) ;
#22 = SHAPE_DEFINITION_REPRESENTATION ( #199, #197 ) ;
#23 = EDGE_LOOP ( 'NONE', ( #206, #13, #344, #341 ) ) ;
#24 = COLOUR_RGB ( '',1.000000000000000000, 0.000000000000000000, 0.000000000000000000 ) ;
#25 = LENGTH_MEASURE_WITH_UNIT ( LENGTH_MEASURE( 0.02539999999999999897 ), #311 );
#26 = DIRECTION ( 'NONE',  ( -1.224646799147353454E-16, 1.000000000000000000, -0.000000000000000000 ) ) ;
#27 = CARTESIAN_POINT ( 'NONE',  ( 0.3749999999999996114, 6.000000000000000888, 4.592425496802569905E-17 ) ) ;
#28 = MECHANICAL_DESIGN_GEOMETRIC_PRESENTATION_REPRESENTATION (  '', ( #227 ), #112 ) ;
#29 = CARTESIAN_POINT ( 'NONE',  ( -4.592425496802575451E-17, 0.3750000000000000555, 0.000000000000000000 ) ) ;
#30 =( NAMED_UNIT ( * ) PLANE_ANGLE_UNIT ( ) SI_UNIT ( $, .RADIAN. ) );
#31 = UNCERTAINTY_MEASURE_WITH_UNIT (LENGTH_MEASURE( 1.000000000000000082E-05 ), #7, 'distance_accuracy_value', 'NONE');
#32 = DIRECTION ( 'NONE',  ( -1.000000000000000000, -1.224646799147353454E-16, 0.000000000000000000 ) ) ;
#33 = PRESENTATION_LAYER_ASSIGNMENT (  '', '', ( #172 ) ) ;
#34 = LENGTH_MEASURE_WITH_UNIT ( LENGTH_MEASURE( 0.02539999999999999897 ), #96 );
#35 = AXIS2_PLACEMENT_3D ( 'NONE', #328, #187, #296 ) ;
#36 = SURFACE_STYLE_USAGE ( .BOTH. , #223 ) ;
#37 = AXIS2_PLACEMENT_3D ( 'NONE', #120, #188, #32 ) ;
#38 = FILL_AREA_STYLE ('',( #250 ) ) ;
#39 = EDGE_CURVE ( 'NONE', #177, #307, #332, .T. ) ;
#40 = EDGE_LOOP ( 'NONE', ( #133, #85, #1, #163, #140 ) ) ;
#41 = PRESENTATION_LAYER_ASSIGNMENT (  '', '', ( #218 ) ) ;
#42 = ORIENTED_EDGE ( 'NONE', *, *, #351, .T. ) ;
#43 = UNCERTAINTY_MEASURE_WITH_UNIT (LENGTH_MEASURE( 1.000000000000000082E-05 ), #259, 'distance_accuracy_value', 'NONE');
#44 = LINE ( 'NONE', #256, #145 ) ;
#45 =( NAMED_UNIT ( * ) PLANE_ANGLE_UNIT ( ) SI_UNIT ( $, .RADIAN. ) );
#46 = DIMENSIONAL_EXPONENTS ( 1.000000000000000000, 0.000000000000000000, 0.000000000000000000, 0.000000000000000000, 0.000000000000000000, 0.000000000000000000, 0.000000000000000000 ) ;
#47 = AXIS2_PLACEMENT_3D ( 'NONE', #318, #180, #83 ) ;
#48 = AXIS2_PLACEMENT_3D ( 'NONE', #64, #186, #291 ) ;
#49 = DIRECTION ( 'NONE',  ( 1.000000000000000000, 0.000000000000000000, 0.000000000000000000 ) ) ;
#50 = SURFACE_SIDE_STYLE ('',( #231 ) ) ;
#51 = EDGE_CURVE ( 'NONE', #338, #109, #53, .T. ) ;
#52 = FILL_AREA_STYLE ('',( #342 ) ) ;
#53 = LINE ( 'NONE', #82, #159 ) ;
#54 = APPLICATION_PROTOCOL_DEFINITION ( 'draft international standard', 'automotive_design', 1998, #162 ) ;
#55 =( NAMED_UNIT ( * ) PLANE_ANGLE_UNIT ( ) SI_UNIT ( $, .RADIAN. ) );
#56 = ADVANCED_FACE ( 'NONE', ( #348 ), #90, .T. ) ;
#57 = CARTESIAN_POINT ( 'NONE',  ( -0.3750000000000000555, 0.3750000000000001110, 4.592425496802574219E-17 ) ) ;
#58 =( NAMED_UNIT ( * ) PLANE_ANGLE_UNIT ( ) SI_UNIT ( $, .RADIAN. ) );
#59 = CARTESIAN_POINT ( 'NONE',  ( 0.000000000000000000, 0.3750000000000001110, -0.3749999999999999445 ) ) ;
#60 =( GEOMETRIC_REPRESENTATION_CONTEXT ( 3 ) GLOBAL_UNCERTAINTY_ASSIGNED_CONTEXT ( ( #91 ) ) GLOBAL_UNIT_ASSIGNED_CONTEXT ( ( #207, #45, #108 ) ) REPRESENTATION_CONTEXT ( 'NONE', 'WORKASPACE' ) );
#61 = SURFACE_SIDE_STYLE ('',( #242 ) ) ;
#62 = EDGE_CURVE ( 'NONE', #372, #362, #15, .T. ) ;
#63 = FILL_AREA_STYLE_COLOUR ( '', #334 ) ;
#64 = CARTESIAN_POINT ( 'NONE',  ( 0.000000000000000000, 0.000000000000000000, 0.000000000000000000 ) ) ;
#65 = FILL_AREA_STYLE ('',( #273 ) ) ;
#66 = AXIS2_PLACEMENT_3D ( 'NONE', #368, #21, #350 ) ;
#67 = MECHANICAL_DESIGN_GEOMETRIC_PRESENTATION_REPRESENTATION (  '', ( #247 ), #282 ) ;
#68 = AXIS2_PLACEMENT_3D ( 'NONE', #29, #243, #156 ) ;
#69 =( NAMED_UNIT ( * ) SI_UNIT ( $, .STERADIAN. ) SOLID_ANGLE_UNIT ( ) );
#70 = DIMENSIONAL_EXPONENTS ( 1.000000000000000000, 0.000000000000000000, 0.000000000000000000, 0.000000000000000000, 0.000000000000000000, 0.000000000000000000, 0.000000000000000000 ) ;
#71 = MECHANICAL_DESIGN_GEOMETRIC_PRESENTATION_REPRESENTATION (  '', ( #218 ), #353 ) ;
#72 = ORIENTED_EDGE ( 'NONE', *, *, #219, .F. ) ;
#73 = DIRECTION ( 'NONE',  ( -1.000000000000000000, 0.000000000000000000, 0.000000000000000000 ) ) ;
#74 = DIRECTION ( 'NONE',  ( -0.000000000000000000, -1.000000000000000000, -0.000000000000000000 ) ) ;
#75 = DIMENSIONAL_EXPONENTS ( 1.000000000000000000, 0.000000000000000000, 0.000000000000000000, 0.000000000000000000, 0.000000000000000000, 0.000000000000000000, 0.000000000000000000 ) ;
#76 = LENGTH_MEASURE_WITH_UNIT ( LENGTH_MEASURE( 0.02539999999999999897 ), #230 );
#77 = EDGE_LOOP ( 'NONE', ( #114, #42 ) ) ;
#78 = COLOUR_RGB ( '',1.000000000000000000, 0.000000000000000000, 0.000000000000000000 ) ;
#79 = EDGE_CURVE ( 'NONE', #169, #372, #225, .T. ) ;
#80 =( LENGTH_UNIT ( ) NAMED_UNIT ( * ) SI_UNIT ( $, .METRE. ) );
#81 = CARTESIAN_POINT ( 'NONE',  ( 0.000000000000000000, 0.3750000000000001110, 0.000000000000000000 ) ) ;
#82 = CARTESIAN_POINT ( 'NONE',  ( -0.3749999999999996669, 6.000000000000000888, 0.000000000000000000 ) ) ;
#83 = DIRECTION ( 'NONE',  ( 0.000000000000000000, 0.000000000000000000, -1.000000000000000000 ) ) ;
#84 = ORIENTED_EDGE ( 'NONE', *, *, #51, .T. ) ;
#85 = ORIENTED_EDGE ( 'NONE', *, *, #279, .T. ) ;
#86 = MECHANICAL_DESIGN_GEOMETRIC_PRESENTATION_REPRESENTATION (  '', ( #172 ), #104 ) ;
#87 = STYLED_ITEM ( 'NONE', ( #155 ), #306 ) ;
#88 = CIRCLE ( 'NONE', #68, 0.3750000000000000555 ) ;
#89 = DIRECTION ( 'NONE',  ( -1.000000000000000000, 0.000000000000000000, 0.000000000000000000 ) ) ;
#90 = PLANE ( 'NONE',  #365 ) ;
#91 = UNCERTAINTY_MEASURE_WITH_UNIT (LENGTH_MEASURE( 1.000000000000000082E-05 ), #207, 'distance_accuracy_value', 'NONE');
#92 = DIRECTION ( 'NONE',  ( 0.000000000000000000, 0.000000000000000000, -1.000000000000000000 ) ) ;
#93 = CARTESIAN_POINT ( 'NONE',  ( -0.3749999999999998890, 6.000000000000000888, 0.000000000000000000 ) ) ;
#94 = COLOUR_RGB ( '',0.7921568627450980005, 0.8196078431372548767, 0.9333333333333333481 ) ;
#95 = EDGE_CURVE ( 'NONE', #177, #169, #182, .T. ) ;
#96 =( LENGTH_UNIT ( ) NAMED_UNIT ( * ) SI_UNIT ( $, .METRE. ) );
#97 = FACE_OUTER_BOUND ( 'NONE', #77, .T. ) ;
#98 = SURFACE_STYLE_FILL_AREA ( #248 ) ;
#99 = UNCERTAINTY_MEASURE_WITH_UNIT (LENGTH_MEASURE( 1.000000000000000082E-05 ), #194, 'distance_accuracy_value', 'NONE');
#100 = SURFACE_STYLE_USAGE ( .BOTH. , #228 ) ;
#101 = CYLINDRICAL_SURFACE ( 'NONE', #48, 0.3749999999999998335 ) ;
#102 =( GEOMETRIC_REPRESENTATION_CONTEXT ( 3 ) GLOBAL_UNCERTAINTY_ASSIGNED_CONTEXT ( ( #43 ) ) GLOBAL_UNIT_ASSIGNED_CONTEXT ( ( #259, #55, #2 ) ) REPRESENTATION_CONTEXT ( 'NONE', 'WORKASPACE' ) );
#103 = FILL_AREA_STYLE ('',( #126 ) ) ;
#104 =( GEOMETRIC_REPRESENTATION_CONTEXT ( 3 ) GLOBAL_UNCERTAINTY_ASSIGNED_CONTEXT ( ( #99 ) ) GLOBAL_UNIT_ASSIGNED_CONTEXT ( ( #194, #106, #168 ) ) REPRESENTATION_CONTEXT ( 'NONE', 'WORKASPACE' ) );
#105 = ADVANCED_FACE ( 'NONE', ( #269 ), #101, .T. ) ;
#106 =( NAMED_UNIT ( * ) PLANE_ANGLE_UNIT ( ) SI_UNIT ( $, .RADIAN. ) );
#107 = VECTOR ( 'NONE', #9, 39.37007874015748143 ) ;
#108 =( NAMED_UNIT ( * ) SI_UNIT ( $, .STERADIAN. ) SOLID_ANGLE_UNIT ( ) );
#109 = VERTEX_POINT ( 'NONE', #93 ) ;
#110 = ORIENTED_EDGE ( 'NONE', *, *, #176, .T. ) ;
#111 = AXIS2_PLACEMENT_3D ( 'NONE', #216, #185, #294 ) ;
#112 =( GEOMETRIC_REPRESENTATION_CONTEXT ( 3 ) GLOBAL_UNCERTAINTY_ASSIGNED_CONTEXT ( ( #125 ) ) GLOBAL_UNIT_ASSIGNED_CONTEXT ( ( #287, #237, #369 ) ) REPRESENTATION_CONTEXT ( 'NONE', 'WORKASPACE' ) );
#113 = VERTEX_POINT ( 'NONE', #27 ) ;
#114 = ORIENTED_EDGE ( 'NONE', *, *, #139, .T. ) ;
#115 = CARTESIAN_POINT ( 'NONE',  ( -1.224646799147354440E-16, 6.000000000000000888, 0.000000000000000000 ) ) ;
#116 = COLOUR_RGB ( '',1.000000000000000000, 0.000000000000000000, 0.000000000000000000 ) ;
#117 = PRESENTATION_LAYER_ASSIGNMENT (  '', '', ( #227 ) ) ;
#118 = CARTESIAN_POINT ( 'NONE',  ( 0.000000000000000000, 3.250000000000000000, 0.000000000000000000 ) ) ;
#119 = DIRECTION ( 'NONE',  ( -1.000000000000000000, 0.000000000000000000, 0.000000000000000000 ) ) ;
#120 = CARTESIAN_POINT ( 'NONE',  ( 2.143131898507868297E-16, 3.250000000000000000, 0.000000000000000000 ) ) ;
#121 = AXIS2_PLACEMENT_3D ( 'NONE', #81, #289, #198 ) ;
#122 = FACE_OUTER_BOUND ( 'NONE', #275, .T. ) ;
#123 = CYLINDRICAL_SURFACE ( 'NONE', #305, 0.3749999999999998335 ) ;
#124 = PRESENTATION_STYLE_ASSIGNMENT (( #358 ) ) ;
#125 = UNCERTAINTY_MEASURE_WITH_UNIT (LENGTH_MEASURE( 1.000000000000000082E-05 ), #287, 'distance_accuracy_value', 'NONE');
#126 = FILL_AREA_STYLE_COLOUR ( '', #240 ) ;
#127 = VERTEX_POINT ( 'NONE', #263 ) ;
#128 = STYLED_ITEM ( 'NONE', ( #124 ), #105 ) ;
#129 = PRESENTATION_STYLE_ASSIGNMENT (( #14 ) ) ;
#130 = AXIS2_PLACEMENT_3D ( 'NONE', #367, #283, #49 ) ;
#131 = VERTEX_POINT ( 'NONE', #152 ) ;
#132 = CARTESIAN_POINT ( 'NONE',  ( 0.000000000000000000, 0.000000000000000000, 0.000000000000000000 ) ) ;
#133 = ORIENTED_EDGE ( 'NONE', *, *, #324, .F. ) ;
#134 = ADVANCED_FACE ( 'NONE', ( #214 ), #246, .T. ) ;
#135 = CLOSED_SHELL ( 'NONE', ( #306, #210, #56, #105, #373 ) ) ;
#136 = AXIS2_PLACEMENT_3D ( 'NONE', #115, #238, #89 ) ;
#137 = PRESENTATION_LAYER_ASSIGNMENT (  '', '', ( #128 ) ) ;
#138 = APPLICATION_PROTOCOL_DEFINITION ( 'draft international standard', 'automotive_design', 1998, #244 ) ;
#139 = EDGE_CURVE ( 'NONE', #109, #113, #241, .T. ) ;
#140 = ORIENTED_EDGE ( 'NONE', *, *, #222, .F. ) ;
#141 = ORIENTED_EDGE ( 'NONE', *, *, #357, .T. ) ;
#142 = SPHERICAL_SURFACE ( 'NONE', #130, 0.3750000000000000555 ) ;
#143 = PRODUCT ( '56692', '56692', '', ( #18 ) ) ;
#144 = LENGTH_MEASURE_WITH_UNIT ( LENGTH_MEASURE( 0.02539999999999999897 ), #174 );
#145 = VECTOR ( 'NONE', #208, 39.37007874015748143 ) ;
#146 = SURFACE_STYLE_USAGE ( .BOTH. , #50 ) ;
#147 = FILL_AREA_STYLE_COLOUR ( '', #94 ) ;
#148 = LENGTH_MEASURE_WITH_UNIT ( LENGTH_MEASURE( 0.02539999999999999897 ), #8 );
#149 = AXIS2_PLACEMENT_3D ( 'NONE', #217, #354, #299 ) ;
#150 = CARTESIAN_POINT ( 'NONE',  ( 4.592425496802571754E-17, 3.250000000000000000, 0.3749999999999996114 ) ) ;
#151 = ADVANCED_FACE ( 'NONE', ( #356 ), #220, .F. ) ;
#152 = CARTESIAN_POINT ( 'NONE',  ( 0.3749999999999996114, 3.250000000000000000, 4.592425496802569905E-17 ) ) ;
#153 = SURFACE_STYLE_USAGE ( .BOTH. , #61 ) ;
#154 = DIRECTION ( 'NONE',  ( -0.000000000000000000, -1.000000000000000000, -0.000000000000000000 ) ) ;
#155 = PRESENTATION_STYLE_ASSIGNMENT (( #153 ) ) ;
#156 = DIRECTION ( 'NONE',  ( -1.000000000000000000, 0.000000000000000000, 0.000000000000000000 ) ) ;
#157 = PRESENTATION_LAYER_ASSIGNMENT (  '', '', ( #247 ) ) ;
#158 = LINE ( 'NONE', #270, #107 ) ;
#159 = VECTOR ( 'NONE', #178, 39.37007874015748143 ) ;
#160 = PRESENTATION_STYLE_ASSIGNMENT (( #36 ) ) ;
#161 = SURFACE_STYLE_FILL_AREA ( #103 ) ;
#162 = APPLICATION_CONTEXT ( 'automotive_design' ) ;
#163 = ORIENTED_EDGE ( 'NONE', *, *, #226, .F. ) ;
#164 = DIMENSIONAL_EXPONENTS ( 1.000000000000000000, 0.000000000000000000, 0.000000000000000000, 0.000000000000000000, 0.000000000000000000, 0.000000000000000000, 0.000000000000000000 ) ;
#165 = MECHANICAL_DESIGN_GEOMETRIC_PRESENTATION_REPRESENTATION (  '', ( #87 ), #232 ) ;
#166 = ORIENTED_EDGE ( 'NONE', *, *, #95, .F. ) ;
#167 = LENGTH_MEASURE_WITH_UNIT ( LENGTH_MEASURE( 0.02539999999999999897 ), #337 );
#168 =( NAMED_UNIT ( * ) SI_UNIT ( $, .STERADIAN. ) SOLID_ANGLE_UNIT ( ) );
#169 = VERTEX_POINT ( 'NONE', #59 ) ;
#170 = SURFACE_SIDE_STYLE ('',( #312 ) ) ;
#171 = AXIS2_PLACEMENT_3D ( 'NONE', #212, #321, #73 ) ;
#172 = STYLED_ITEM ( 'NONE', ( #160 ), #210 ) ;
#173 = DIRECTION ( 'NONE',  ( 1.000000000000000000, 0.000000000000000000, 0.000000000000000000 ) ) ;
#174 =( LENGTH_UNIT ( ) NAMED_UNIT ( * ) SI_UNIT ( $, .METRE. ) );
#175 =( CONVERSION_BASED_UNIT ( 'INCH', #76 ) LENGTH_UNIT ( ) NAMED_UNIT ( #46 ) );
#176 = EDGE_CURVE ( 'NONE', #372, #127, #88, .T. ) ;
#177 = VERTEX_POINT ( 'NONE', #327 ) ;
#178 = DIRECTION ( 'NONE',  ( -1.224646799147353454E-16, 1.000000000000000000, -0.000000000000000000 ) ) ;
#179 = AXIS2_PLACEMENT_3D ( 'NONE', #258, #26, #119 ) ;
#180 = DIRECTION ( 'NONE',  ( -0.000000000000000000, -1.000000000000000000, -0.000000000000000000 ) ) ;
#181 = DIRECTION ( 'NONE',  ( -1.224646799147353454E-16, 1.000000000000000000, -0.000000000000000000 ) ) ;
#182 = LINE ( 'NONE', #295, #316 ) ;
#183 = FILL_AREA_STYLE ('',( #221 ) ) ;
#184 =( CONVERSION_BASED_UNIT ( 'INCH', #148 ) LENGTH_UNIT ( ) NAMED_UNIT ( #278 ) );
#185 = DIRECTION ( 'NONE',  ( 0.000000000000000000, 0.000000000000000000, 1.000000000000000000 ) ) ;
#186 = DIRECTION ( 'NONE',  ( -0.000000000000000000, -1.000000000000000000, -0.000000000000000000 ) ) ;
#187 = DIRECTION ( 'NONE',  ( 1.224646799147353454E-16, -1.000000000000000000, 0.000000000000000000 ) ) ;
#188 = DIRECTION ( 'NONE',  ( -1.224646799147353454E-16, 1.000000000000000000, 0.000000000000000000 ) ) ;
#189 = CARTESIAN_POINT ( 'NONE',  ( -4.592425496802575451E-17, 0.3750000000000000555, 0.000000000000000000 ) ) ;
#190 = SURFACE_SIDE_STYLE ('',( #11 ) ) ;
#191 = UNCERTAINTY_MEASURE_WITH_UNIT (LENGTH_MEASURE( 1.000000000000000082E-05 ), #175, 'distance_accuracy_value', 'NONE');
#192 = DIMENSIONAL_EXPONENTS ( 1.000000000000000000, 0.000000000000000000, 0.000000000000000000, 0.000000000000000000, 0.000000000000000000, 0.000000000000000000, 0.000000000000000000 ) ;
#193 = SURFACE_STYLE_FILL_AREA ( #38 ) ;
#194 =( CONVERSION_BASED_UNIT ( 'INCH', #276 ) LENGTH_UNIT ( ) NAMED_UNIT ( #192 ) );
#195 = AXIS2_PLACEMENT_3D ( 'NONE', #6, #181, #325 ) ;
#196 = DIRECTION ( 'NONE',  ( 0.000000000000000000, 0.000000000000000000, -1.000000000000000000 ) ) ;
#197 = ADVANCED_BREP_SHAPE_REPRESENTATION ( '56692', ( #235, #360, #326 ), #60 ) ;
#198 = DIRECTION ( 'NONE',  ( 0.000000000000000000, 0.000000000000000000, -1.000000000000000000 ) ) ;
#199 = PRODUCT_DEFINITION_SHAPE ( 'NONE', 'NONE',  #255 ) ;
#200 = ORIENTED_EDGE ( 'NONE', *, *, #279, .F. ) ;
#201 = SURFACE_STYLE_USAGE ( .BOTH. , #170 ) ;
#202 = EDGE_LOOP ( 'NONE', ( #304, #253 ) ) ;
#203 = UNCERTAINTY_MEASURE_WITH_UNIT (LENGTH_MEASURE( 1.000000000000000082E-05 ), #309, 'distance_accuracy_value', 'NONE');
#204 = LENGTH_MEASURE_WITH_UNIT ( LENGTH_MEASURE( 0.02539999999999999897 ), #80 );
#205 = FILL_AREA_STYLE ('',( #147 ) ) ;
#206 = ORIENTED_EDGE ( 'NONE', *, *, #222, .T. ) ;
#207 =( CONVERSION_BASED_UNIT ( 'INCH', #204 ) LENGTH_UNIT ( ) NAMED_UNIT ( #308 ) );
#208 = DIRECTION ( 'NONE',  ( -1.224646799147353454E-16, 1.000000000000000000, -0.000000000000000000 ) ) ;
#209 = DIRECTION ( 'NONE',  ( 0.000000000000000000, 0.000000000000000000, -1.000000000000000000 ) ) ;
#210 = ADVANCED_FACE ( 'NONE', ( #271 ), #123, .T. ) ;
#211 = AXIS2_PLACEMENT_3D ( 'NONE', #267, #297, #323 ) ;
#212 = CARTESIAN_POINT ( 'NONE',  ( 2.143131898507868297E-16, 3.250000000000000000, 0.000000000000000000 ) ) ;
#213 = CARTESIAN_POINT ( 'NONE',  ( 0.000000000000000000, 3.250000000000000000, 0.000000000000000000 ) ) ;
#214 = FACE_OUTER_BOUND ( 'NONE', #257, .T. ) ;
#215 = PRODUCT_DEFINITION_CONTEXT ( 'detailed design', #244, 'design' ) ;
#216 = CARTESIAN_POINT ( 'NONE',  ( -4.592425496802575451E-17, 0.3750000000000000555, 0.000000000000000000 ) ) ;
#217 = CARTESIAN_POINT ( 'NONE',  ( -1.224646799147354440E-16, 6.000000000000000888, 0.000000000000000000 ) ) ;
#218 = STYLED_ITEM ( 'NONE', ( #284 ), #235 ) ;
#219 = EDGE_CURVE ( 'NONE', #131, #113, #44, .T. ) ;
#220 = PLANE ( 'NONE',  #37 ) ;
#221 = FILL_AREA_STYLE_COLOUR ( '', #24 ) ;
#222 = EDGE_CURVE ( 'NONE', #362, #336, #371, .T. ) ;
#223 = SURFACE_SIDE_STYLE ('',( #98 ) ) ;
#224 = FACE_OUTER_BOUND ( 'NONE', #290, .T. ) ;
#225 = CIRCLE ( 'NONE', #281, 0.3749999999999999445 ) ;
#226 = EDGE_CURVE ( 'NONE', #336, #169, #333, .T. ) ;
#227 = STYLED_ITEM ( 'NONE', ( #129 ), #373 ) ;
#228 = SURFACE_SIDE_STYLE ('',( #161 ) ) ;
#229 = ORIENTED_EDGE ( 'NONE', *, *, #39, .F. ) ;
#230 =( LENGTH_UNIT ( ) NAMED_UNIT ( * ) SI_UNIT ( $, .METRE. ) );
#231 = SURFACE_STYLE_FILL_AREA ( #52 ) ;
#232 =( GEOMETRIC_REPRESENTATION_CONTEXT ( 3 ) GLOBAL_UNCERTAINTY_ASSIGNED_CONTEXT ( ( #31 ) ) GLOBAL_UNIT_ASSIGNED_CONTEXT ( ( #7, #261, #3 ) ) REPRESENTATION_CONTEXT ( 'NONE', 'WORKASPACE' ) );
#233 = ORIENTED_EDGE ( 'NONE', *, *, #51, .F. ) ;
#234 = PRODUCT_RELATED_PRODUCT_CATEGORY ( 'part', '', ( #143 ) ) ;
#235 = MANIFOLD_SOLID_BREP ( 'Revolve - Cutting Edge', #135 ) ;
#236 = DIRECTION ( 'NONE',  ( -0.000000000000000000, -1.000000000000000000, -0.000000000000000000 ) ) ;
#237 =( NAMED_UNIT ( * ) PLANE_ANGLE_UNIT ( ) SI_UNIT ( $, .RADIAN. ) );
#238 = DIRECTION ( 'NONE',  ( -1.224646799147353454E-16, 1.000000000000000000, -0.000000000000000000 ) ) ;
#239 = ORIENTED_EDGE ( 'NONE', *, *, #39, .T. ) ;
#240 = COLOUR_RGB ( '',0.7921568627450980005, 0.8196078431372548767, 0.9333333333333333481 ) ;
#241 = CIRCLE ( 'NONE', #149, 0.3749999999999997780 ) ;
#242 = SURFACE_STYLE_FILL_AREA ( #183 ) ;
#243 = DIRECTION ( 'NONE',  ( 0.000000000000000000, 0.000000000000000000, -1.000000000000000000 ) ) ;
#244 = APPLICATION_CONTEXT ( 'automotive_design' ) ;
#245 = PLANE ( 'NONE',  #35 ) ;
#246 = CYLINDRICAL_SURFACE ( 'NONE', #211, 0.3749999999999995559 ) ;
#247 = STYLED_ITEM ( 'NONE', ( #252 ), #360 ) ;
#248 = FILL_AREA_STYLE ('',( #63 ) ) ;
#249 = UNCERTAINTY_MEASURE_WITH_UNIT (LENGTH_MEASURE( 1.000000000000000082E-05 ), #184, 'distance_accuracy_value', 'NONE');
#250 = FILL_AREA_STYLE_COLOUR ( '', #78 ) ;
#251 = ORIENTED_EDGE ( 'NONE', *, *, #226, .T. ) ;
#252 = PRESENTATION_STYLE_ASSIGNMENT (( #100 ) ) ;
#253 = ORIENTED_EDGE ( 'NONE', *, *, #357, .F. ) ;
#254 = ORIENTED_EDGE ( 'NONE', *, *, #351, .F. ) ;
#255 = PRODUCT_DEFINITION ( 'UNKNOWN', '', #10, #215 ) ;
#256 = CARTESIAN_POINT ( 'NONE',  ( 0.3749999999999993894, 6.000000000000000888, 4.592425496802569288E-17 ) ) ;
#257 = EDGE_LOOP ( 'NONE', ( #286, #340, #303, #233 ) ) ;
#258 = CARTESIAN_POINT ( 'NONE',  ( 2.143131898507868297E-16, 3.250000000000000000, 0.000000000000000000 ) ) ;
#259 =( CONVERSION_BASED_UNIT ( 'INCH', #144 ) LENGTH_UNIT ( ) NAMED_UNIT ( #164 ) );
#260 = PRESENTATION_STYLE_ASSIGNMENT (( #146 ) ) ;
#261 =( NAMED_UNIT ( * ) PLANE_ANGLE_UNIT ( ) SI_UNIT ( $, .RADIAN. ) );
#262 = MECHANICAL_DESIGN_GEOMETRIC_PRESENTATION_REPRESENTATION (  '', ( #361 ), #102 ) ;
#263 = CARTESIAN_POINT ( 'NONE',  ( -2.296212748401287726E-17, 0.000000000000000000, 0.000000000000000000 ) ) ;
#264 = CIRCLE ( 'NONE', #317, 0.3749999999999996114 ) ;
#265 = PRESENTATION_LAYER_ASSIGNMENT (  '', '', ( #361 ) ) ;
#266 =( NAMED_UNIT ( * ) SI_UNIT ( $, .STERADIAN. ) SOLID_ANGLE_UNIT ( ) );
#267 = CARTESIAN_POINT ( 'NONE',  ( -1.224646799147354440E-16, 6.000000000000000888, 0.000000000000000000 ) ) ;
#268 = EDGE_CURVE ( 'NONE', #338, #131, #339, .T. ) ;
#269 = FACE_OUTER_BOUND ( 'NONE', #40, .T. ) ;
#270 = CARTESIAN_POINT ( 'NONE',  ( 4.592425496802572370E-17, 0.000000000000000000, 0.3749999999999998335 ) ) ;
#271 = FACE_OUTER_BOUND ( 'NONE', #370, .T. ) ;
#272 = DIRECTION ( 'NONE',  ( 1.000000000000000000, 0.000000000000000000, -1.224646799147353207E-16 ) ) ;
#273 = FILL_AREA_STYLE_COLOUR ( '', #116 ) ;
#274 = DIMENSIONAL_EXPONENTS ( 1.000000000000000000, 0.000000000000000000, 0.000000000000000000, 0.000000000000000000, 0.000000000000000000, 0.000000000000000000, 0.000000000000000000 ) ;
#275 = EDGE_LOOP ( 'NONE', ( #72, #141, #84, #254 ) ) ;
#276 = LENGTH_MEASURE_WITH_UNIT ( LENGTH_MEASURE( 0.02539999999999999897 ), #364 );
#277 = ADVANCED_FACE ( 'NONE', ( #122 ), #352, .T. ) ;
#278 = DIMENSIONAL_EXPONENTS ( 1.000000000000000000, 0.000000000000000000, 0.000000000000000000, 0.000000000000000000, 0.000000000000000000, 0.000000000000000000, 0.000000000000000000 ) ;
#279 = EDGE_CURVE ( 'NONE', #307, #177, #264, .T. ) ;
#280 = ORIENTED_EDGE ( 'NONE', *, *, #79, .T. ) ;
#281 = AXIS2_PLACEMENT_3D ( 'NONE', #331, #154, #293 ) ;
#282 =( GEOMETRIC_REPRESENTATION_CONTEXT ( 3 ) GLOBAL_UNCERTAINTY_ASSIGNED_CONTEXT ( ( #203 ) ) GLOBAL_UNIT_ASSIGNED_CONTEXT ( ( #309, #301, #69 ) ) REPRESENTATION_CONTEXT ( 'NONE', 'WORKASPACE' ) );
#283 = DIRECTION ( 'NONE',  ( 0.000000000000000000, 0.000000000000000000, 1.000000000000000000 ) ) ;
#284 = PRESENTATION_STYLE_ASSIGNMENT (( #201 ) ) ;
#285 = COLOUR_RGB ( '',1.000000000000000000, 0.000000000000000000, 0.000000000000000000 ) ;
#286 = ORIENTED_EDGE ( 'NONE', *, *, #268, .T. ) ;
#287 =( CONVERSION_BASED_UNIT ( 'INCH', #25 ) LENGTH_UNIT ( ) NAMED_UNIT ( #274 ) );
#288 = ORIENTED_EDGE ( 'NONE', *, *, #345, .F. ) ;
#289 = DIRECTION ( 'NONE',  ( -0.000000000000000000, -1.000000000000000000, -0.000000000000000000 ) ) ;
#290 = EDGE_LOOP ( 'NONE', ( #288, #251, #280, #110 ) ) ;
#291 = DIRECTION ( 'NONE',  ( 0.000000000000000000, 0.000000000000000000, -1.000000000000000000 ) ) ;
#292 = AXIS2_PLACEMENT_3D ( 'NONE', #343, #236, #209 ) ;
#293 = DIRECTION ( 'NONE',  ( 0.000000000000000000, 0.000000000000000000, -1.000000000000000000 ) ) ;
#294 = DIRECTION ( 'NONE',  ( 1.000000000000000000, 0.000000000000000000, 0.000000000000000000 ) ) ;
#295 = CARTESIAN_POINT ( 'NONE',  ( 0.000000000000000000, 0.000000000000000000, -0.3749999999999998335 ) ) ;
#296 = DIRECTION ( 'NONE',  ( 1.000000000000000000, 1.224646799147353454E-16, 0.000000000000000000 ) ) ;
#297 = DIRECTION ( 'NONE',  ( -1.224646799147353454E-16, 1.000000000000000000, -0.000000000000000000 ) ) ;
#298 = DIRECTION ( 'NONE',  ( 1.224646799147353207E-16, -0.000000000000000000, 1.000000000000000000 ) ) ;
#299 = DIRECTION ( 'NONE',  ( -1.000000000000000000, 0.000000000000000000, 0.000000000000000000 ) ) ;
#300 = CIRCLE ( 'NONE', #136, 0.3749999999999997780 ) ;
#301 =( NAMED_UNIT ( * ) PLANE_ANGLE_UNIT ( ) SI_UNIT ( $, .RADIAN. ) );
#302 = SURFACE_SIDE_STYLE ('',( #193 ) ) ;
#303 = ORIENTED_EDGE ( 'NONE', *, *, #139, .F. ) ;
#304 = ORIENTED_EDGE ( 'NONE', *, *, #268, .F. ) ;
#305 = AXIS2_PLACEMENT_3D ( 'NONE', #132, #74, #196 ) ;
#306 = ADVANCED_FACE ( 'NONE', ( #322 ), #355, .T. ) ;
#307 = VERTEX_POINT ( 'NONE', #150 ) ;
#308 = DIMENSIONAL_EXPONENTS ( 1.000000000000000000, 0.000000000000000000, 0.000000000000000000, 0.000000000000000000, 0.000000000000000000, 0.000000000000000000, 0.000000000000000000 ) ;
#309 =( CONVERSION_BASED_UNIT ( 'INCH', #167 ) LENGTH_UNIT ( ) NAMED_UNIT ( #70 ) );
#310 = EDGE_LOOP ( 'NONE', ( #229, #200 ) ) ;
#311 =( LENGTH_UNIT ( ) NAMED_UNIT ( * ) SI_UNIT ( $, .METRE. ) );
#312 = SURFACE_STYLE_FILL_AREA ( #205 ) ;
#313 = PRESENTATION_LAYER_ASSIGNMENT (  '', '', ( #87 ) ) ;
#314 = CARTESIAN_POINT ( 'NONE',  ( 0.000000000000000000, 0.000000000000000000, 0.000000000000000000 ) ) ;
#315 = DIRECTION ( 'NONE',  ( 0.000000000000000000, -0.000000000000000000, 1.000000000000000000 ) ) ;
#316 = VECTOR ( 'NONE', #4, 39.37007874015748143 ) ;
#317 = AXIS2_PLACEMENT_3D ( 'NONE', #118, #347, #92 ) ;
#318 = CARTESIAN_POINT ( 'NONE',  ( 0.000000000000000000, 0.3750000000000001110, 0.000000000000000000 ) ) ;
#319 = ORIENTED_EDGE ( 'NONE', *, *, #62, .F. ) ;
#320 = ADVANCED_FACE ( 'NONE', ( #97 ), #245, .F. ) ;
#321 = DIRECTION ( 'NONE',  ( -1.224646799147353454E-16, 1.000000000000000000, -0.000000000000000000 ) ) ;
#322 = FACE_OUTER_BOUND ( 'NONE', #23, .T. ) ;
#323 = DIRECTION ( 'NONE',  ( -1.000000000000000000, 0.000000000000000000, 0.000000000000000000 ) ) ;
#324 = EDGE_CURVE ( 'NONE', #307, #362, #158, .T. ) ;
#325 = DIRECTION ( 'NONE',  ( -1.000000000000000000, 0.000000000000000000, 0.000000000000000000 ) ) ;
#326 = AXIS2_PLACEMENT_3D ( 'NONE', #314, #20, #173 ) ;
#327 = CARTESIAN_POINT ( 'NONE',  ( 0.000000000000000000, 3.250000000000000000, -0.3749999999999996114 ) ) ;
#328 = CARTESIAN_POINT ( 'NONE',  ( 0.3749999999999996114, 6.000000000000000888, 0.000000000000000000 ) ) ;
#329 =( NAMED_UNIT ( * ) SI_UNIT ( $, .STERADIAN. ) SOLID_ANGLE_UNIT ( ) );
#330 = CARTESIAN_POINT ( 'NONE',  ( -0.3749999999999992228, 3.250000000000000000, 0.000000000000000000 ) ) ;
#331 = CARTESIAN_POINT ( 'NONE',  ( 0.000000000000000000, 0.3750000000000001110, 0.000000000000000000 ) ) ;
#332 = CIRCLE ( 'NONE', #292, 0.3749999999999996114 ) ;
#333 = CIRCLE ( 'NONE', #121, 0.3749999999999999445 ) ;
#334 = COLOUR_RGB ( '',1.000000000000000000, 0.000000000000000000, 0.000000000000000000 ) ;
#335 = ORIENTED_EDGE ( 'NONE', *, *, #324, .T. ) ;
#336 = VERTEX_POINT ( 'NONE', #57 ) ;
#337 =( LENGTH_UNIT ( ) NAMED_UNIT ( * ) SI_UNIT ( $, .METRE. ) );
#338 = VERTEX_POINT ( 'NONE', #330 ) ;
#339 = CIRCLE ( 'NONE', #179, 0.3749999999999993894 ) ;
#340 = ORIENTED_EDGE ( 'NONE', *, *, #219, .T. ) ;
#341 = ORIENTED_EDGE ( 'NONE', *, *, #62, .T. ) ;
#342 = FILL_AREA_STYLE_COLOUR ( '', #285 ) ;
#343 = CARTESIAN_POINT ( 'NONE',  ( 0.000000000000000000, 3.250000000000000000, 0.000000000000000000 ) ) ;
#344 = ORIENTED_EDGE ( 'NONE', *, *, #176, .F. ) ;
#345 = EDGE_CURVE ( 'NONE', #336, #127, #16, .T. ) ;
#346 = CIRCLE ( 'NONE', #171, 0.3749999999999993894 ) ;
#347 = DIRECTION ( 'NONE',  ( -0.000000000000000000, -1.000000000000000000, -0.000000000000000000 ) ) ;
#348 = FACE_OUTER_BOUND ( 'NONE', #310, .T. ) ;
#349 = MECHANICAL_DESIGN_GEOMETRIC_PRESENTATION_REPRESENTATION (  '', ( #128 ), #17 ) ;
#350 = DIRECTION ( 'NONE',  ( 0.000000000000000000, 0.000000000000000000, -1.000000000000000000 ) ) ;
#351 = EDGE_CURVE ( 'NONE', #113, #109, #300, .T. ) ;
#352 = CYLINDRICAL_SURFACE ( 'NONE', #195, 0.3749999999999995559 ) ;
#353 =( GEOMETRIC_REPRESENTATION_CONTEXT ( 3 ) GLOBAL_UNCERTAINTY_ASSIGNED_CONTEXT ( ( #191 ) ) GLOBAL_UNIT_ASSIGNED_CONTEXT ( ( #175, #58, #266 ) ) REPRESENTATION_CONTEXT ( 'NONE', 'WORKASPACE' ) );
#354 = DIRECTION ( 'NONE',  ( -1.224646799147353454E-16, 1.000000000000000000, -0.000000000000000000 ) ) ;
#355 = SPHERICAL_SURFACE ( 'NONE', #111, 0.3750000000000000555 ) ;
#356 = FACE_OUTER_BOUND ( 'NONE', #202, .T. ) ;
#357 = EDGE_CURVE ( 'NONE', #131, #338, #346, .T. ) ;
#358 = SURFACE_STYLE_USAGE ( .BOTH. , #190 ) ;
#359 = CARTESIAN_POINT ( 'NONE',  ( 4.592425496802574219E-17, 0.3750000000000001110, 0.3749999999999999445 ) ) ;
#360 = MANIFOLD_SOLID_BREP ( 'Revolve - Tool Body (Straight Shanked)', #5 ) ;
#361 = STYLED_ITEM ( 'NONE', ( #260 ), #56 ) ;
#362 = VERTEX_POINT ( 'NONE', #359 ) ;
#363 = ORIENTED_EDGE ( 'NONE', *, *, #79, .F. ) ;
#364 =( LENGTH_UNIT ( ) NAMED_UNIT ( * ) SI_UNIT ( $, .METRE. ) );
#365 = AXIS2_PLACEMENT_3D ( 'NONE', #213, #19, #315 ) ;
#366 = AXIS2_PLACEMENT_3D ( 'NONE', #189, #298, #272 ) ;
#367 = CARTESIAN_POINT ( 'NONE',  ( -4.592425496802575451E-17, 0.3750000000000000555, 0.000000000000000000 ) ) ;
#368 = CARTESIAN_POINT ( 'NONE',  ( 0.000000000000000000, 0.3750000000000001110, 0.000000000000000000 ) ) ;
#369 =( NAMED_UNIT ( * ) SI_UNIT ( $, .STERADIAN. ) SOLID_ANGLE_UNIT ( ) );
#370 = EDGE_LOOP ( 'NONE', ( #239, #335, #319, #363, #166 ) ) ;
#371 = CIRCLE ( 'NONE', #47, 0.3749999999999999445 ) ;
#372 = VERTEX_POINT ( 'NONE', #12 ) ;
#373 = ADVANCED_FACE ( 'NONE', ( #224 ), #142, .T. ) ;
ENDSEC;
END-ISO-10303-21;
