ISO-10303-21;
HEADER;
FILE_DESCRIPTION (( 'STEP AP214' ),
    '1' );
FILE_NAME ('Micro_SFPM-120-10.STEP',
    '2021-09-02T07:46:44',
    ( '' ),
    ( '' ),
    'SwSTEP 2.0',
    'SolidWorks 2020',
    '' );
FILE_SCHEMA (( 'AUTOMOTIVE_DESIGN' ));
ENDSEC;

DATA;
#1 =( CONVERSION_BASED_UNIT ( 'INCH', #208 ) LENGTH_UNIT ( ) NAMED_UNIT ( #71 ) );
#2 = CARTESIAN_POINT ( 'NONE',  ( -0.2359842794999998383, 2.889973925387693713E-17, 1.181102000000000096 ) ) ;
#3 = UNCERTAINTY_MEASURE_WITH_UNIT (LENGTH_MEASURE( 1.000000000000000082E-05 ), #1, 'distance_accuracy_value', 'NONE');
#4 = EDGE_LOOP ( 'NONE', ( #259, #67, #86, #177 ) ) ;
#5 = DIRECTION ( 'NONE',  ( -0.0000000000000000000, -0.0000000000000000000, -1.000000000000000000 ) ) ;
#6 = EDGE_LOOP ( 'NONE', ( #149, #250, #233, #48 ) ) ;
#7 = VERTEX_POINT ( 'NONE', #160 ) ;
#8 = DIRECTION ( 'NONE',  ( -1.224646799147353454E-16, -0.0000000000000000000, -1.000000000000000000 ) ) ;
#9 = APPLICATION_PROTOCOL_DEFINITION ( 'draft international standard', 'automotive_design', 1998, #35 ) ;
#10 = DIRECTION ( 'NONE',  ( -0.0000000000000000000, -0.0000000000000000000, -1.000000000000000000 ) ) ;
#11 = DIRECTION ( 'NONE',  ( 1.000000000000000000, 0.0000000000000000000, 0.0000000000000000000 ) ) ;
#12 = ADVANCED_FACE ( 'NONE', ( #273 ), #140, .T. ) ;
#13 = FACE_OUTER_BOUND ( 'NONE', #213, .T. ) ;
#14 = AXIS2_PLACEMENT_3D ( 'NONE', #38, #147, #105 ) ;
#15 = ADVANCED_FACE ( 'NONE', ( #221 ), #158, .F. ) ;
#16 = AXIS2_PLACEMENT_3D ( 'NONE', #89, #174, #226 ) ;
#17 = DIRECTION ( 'NONE',  ( 1.224646799147353454E-16, 0.0000000000000000000, 1.000000000000000000 ) ) ;
#18 =( NAMED_UNIT ( * ) SI_UNIT ( $, .STERADIAN. ) SOLID_ANGLE_UNIT ( ) );
#19 = SHAPE_DEFINITION_REPRESENTATION ( #66, #131 ) ;
#20 = EDGE_CURVE ( 'NONE', #61, #291, #76, .T. ) ;
#21 = CARTESIAN_POINT ( 'NONE',  ( 1.448073410051044337E-16, 0.0000000000000000000, 1.182441673027071261 ) ) ;
#22 =( LENGTH_UNIT ( ) NAMED_UNIT ( * ) SI_UNIT ( $, .METRE. ) );
#23 = CONICAL_SURFACE ( 'NONE', #93, 0.2359842794999999771, 0.1745329251994338915 ) ;
#24 = CARTESIAN_POINT ( 'NONE',  ( 0.0000000000000000000, 0.0000000000000000000, 3.267717000000000649 ) ) ;
#25 = CARTESIAN_POINT ( 'NONE',  ( 0.2359842795000001159, 0.0000000000000000000, 1.181102000000000096 ) ) ;
#26 = PRESENTATION_STYLE_ASSIGNMENT (( #249 ) ) ;
#27 = LINE ( 'NONE', #2, #82 ) ;
#28 = EDGE_CURVE ( 'NONE', #7, #34, #244, .T. ) ;
#29 = DIRECTION ( 'NONE',  ( -1.224646799147353454E-16, -0.0000000000000000000, -1.000000000000000000 ) ) ;
#30 = CIRCLE ( 'NONE', #194, 0.2362204999999999999 ) ;
#31 = DIRECTION ( 'NONE',  ( -1.000000000000000000, 0.0000000000000000000, 0.0000000000000000000 ) ) ;
#32 = PRODUCT_DEFINITION_CONTEXT ( 'detailed design', #35, 'design' ) ;
#33 = ADVANCED_FACE ( 'NONE', ( #251 ), #294, .T. ) ;
#34 = VERTEX_POINT ( 'NONE', #25 ) ;
#35 = APPLICATION_CONTEXT ( 'automotive_design' ) ;
#36 = CARTESIAN_POINT ( 'NONE',  ( 0.0000000000000000000, 0.0000000000000000000, 3.267717000000000649 ) ) ;
#37 = AXIS2_PLACEMENT_3D ( 'NONE', #212, #220, #107 ) ;
#38 = CARTESIAN_POINT ( 'NONE',  ( 0.0000000000000000000, 0.0000000000000000000, 3.267717000000000649 ) ) ;
#39 = EDGE_CURVE ( 'NONE', #112, #79, #114, .T. ) ;
#40 = ORIENTED_EDGE ( 'NONE', *, *, #292, .F. ) ;
#41 = CYLINDRICAL_SURFACE ( 'NONE', #54, 0.2359842794999999771 ) ;
#42 = LINE ( 'NONE', #287, #135 ) ;
#43 =( GEOMETRIC_REPRESENTATION_CONTEXT ( 3 ) GLOBAL_UNCERTAINTY_ASSIGNED_CONTEXT ( ( #207 ) ) GLOBAL_UNIT_ASSIGNED_CONTEXT ( ( #153, #269, #18 ) ) REPRESENTATION_CONTEXT ( 'NONE', 'WORKASPACE' ) );
#44 = DIRECTION ( 'NONE',  ( 0.0000000000000000000, 0.0000000000000000000, -1.000000000000000000 ) ) ;
#45 = FILL_AREA_STYLE_COLOUR ( '', #296 ) ;
#46 = DIRECTION ( 'NONE',  ( -1.224646799147353454E-16, -0.0000000000000000000, -1.000000000000000000 ) ) ;
#47 = AXIS2_PLACEMENT_3D ( 'NONE', #21, #91, #65 ) ;
#48 = ORIENTED_EDGE ( 'NONE', *, *, #49, .F. ) ;
#49 = EDGE_CURVE ( 'NONE', #34, #291, #183, .T. ) ;
#50 = DIRECTION ( 'NONE',  ( 0.0000000000000000000, 0.0000000000000000000, 1.000000000000000000 ) ) ;
#51 = CARTESIAN_POINT ( 'NONE',  ( 0.0000000000000000000, 0.0000000000000000000, 3.267717000000000649 ) ) ;
#52 = AXIS2_PLACEMENT_3D ( 'NONE', #24, #50, #225 ) ;
#53 = EDGE_CURVE ( 'NONE', #57, #291, #117, .T. ) ;
#54 = AXIS2_PLACEMENT_3D ( 'NONE', #241, #193, #132 ) ;
#55 = ADVANCED_FACE ( 'NONE', ( #162 ), #68, .T. ) ;
#56 = VECTOR ( 'NONE', #228, 39.37007874015748143 ) ;
#57 = VERTEX_POINT ( 'NONE', #124 ) ;
#58 = DIRECTION ( 'NONE',  ( -1.000000000000000000, 0.0000000000000000000, 1.224646799147353454E-16 ) ) ;
#59 = CARTESIAN_POINT ( 'NONE',  ( -0.2359842795000000049, 0.0000000000000000000, 5.779947850775388659E-17 ) ) ;
#60 = ORIENTED_EDGE ( 'NONE', *, *, #264, .T. ) ;
#61 = VERTEX_POINT ( 'NONE', #98 ) ;
#62 = CARTESIAN_POINT ( 'NONE',  ( 0.0000000000000000000, 0.0000000000000000000, 3.267717000000000649 ) ) ;
#63 = ORIENTED_EDGE ( 'NONE', *, *, #69, .F. ) ;
#64 = ORIENTED_EDGE ( 'NONE', *, *, #53, .T. ) ;
#65 = DIRECTION ( 'NONE',  ( 1.000000000000000000, 0.0000000000000000000, 0.0000000000000000000 ) ) ;
#66 = PRODUCT_DEFINITION_SHAPE ( 'NONE', 'NONE',  #290 ) ;
#67 = ORIENTED_EDGE ( 'NONE', *, *, #152, .T. ) ;
#68 = CONICAL_SURFACE ( 'NONE', #255, 0.2212205000000019295, 0.7853981633974482790 ) ;
#69 = EDGE_CURVE ( 'NONE', #7, #61, #27, .T. ) ;
#70 = AXIS2_PLACEMENT_3D ( 'NONE', #83, #234, #171 ) ;
#71 = DIMENSIONAL_EXPONENTS ( 1.000000000000000000, 0.0000000000000000000, 0.0000000000000000000, 0.0000000000000000000, 0.0000000000000000000, 0.0000000000000000000, 0.0000000000000000000 ) ;
#72 = PRODUCT ( 'Micro_SFPM-120-10', 'Micro_SFPM-120-10', '', ( #80 ) ) ;
#73 = DIRECTION ( 'NONE',  ( 1.000000000000000000, 0.0000000000000000000, 0.0000000000000000000 ) ) ;
#74 = ORIENTED_EDGE ( 'NONE', *, *, #94, .F. ) ;
#75 = ORIENTED_EDGE ( 'NONE', *, *, #292, .T. ) ;
#76 = CIRCLE ( 'NONE', #47, 0.2362204999999999999 ) ;
#77 = ORIENTED_EDGE ( 'NONE', *, *, #144, .T. ) ;
#78 = DIRECTION ( 'NONE',  ( -1.224646799147353454E-16, -0.0000000000000000000, -1.000000000000000000 ) ) ;
#79 = VERTEX_POINT ( 'NONE', #119 ) ;
#80 = PRODUCT_CONTEXT ( 'NONE', #219, 'mechanical' ) ;
#81 = PRESENTATION_LAYER_ASSIGNMENT (  '', '', ( #201 ) ) ;
#82 = VECTOR ( 'NONE', #203, 39.37007874015747433 ) ;
#83 = CARTESIAN_POINT ( 'NONE',  ( 1.446432783766537492E-16, 0.0000000000000000000, 1.181102000000000096 ) ) ;
#84 = CARTESIAN_POINT ( 'NONE',  ( 0.0000000000000000000, 0.0000000000000000000, 3.252717000000002301 ) ) ;
#85 = ORIENTED_EDGE ( 'NONE', *, *, #252, .T. ) ;
#86 = ORIENTED_EDGE ( 'NONE', *, *, #103, .T. ) ;
#87 = SURFACE_SIDE_STYLE ('',( #156 ) ) ;
#88 = DIRECTION ( 'NONE',  ( 1.000000000000000000, 0.0000000000000000000, 0.0000000000000000000 ) ) ;
#89 = CARTESIAN_POINT ( 'NONE',  ( 0.0000000000000000000, 0.0000000000000000000, 3.267717000000000649 ) ) ;
#90 = PRESENTATION_STYLE_ASSIGNMENT (( #116 ) ) ;
#91 = DIRECTION ( 'NONE',  ( -1.224646799147353454E-16, -0.0000000000000000000, -1.000000000000000000 ) ) ;
#92 = CIRCLE ( 'NONE', #115, 0.2359842795000000049 ) ;
#93 = AXIS2_PLACEMENT_3D ( 'NONE', #215, #17, #11 ) ;
#94 = EDGE_CURVE ( 'NONE', #79, #61, #254, .T. ) ;
#95 = DIRECTION ( 'NONE',  ( -0.7071067811865474617, 0.0000000000000000000, -0.7071067811865474617 ) ) ;
#96 = LINE ( 'NONE', #161, #166 ) ;
#97 = MECHANICAL_DESIGN_GEOMETRIC_PRESENTATION_REPRESENTATION (  '', ( #186 ), #195 ) ;
#98 = CARTESIAN_POINT ( 'NONE',  ( -0.2362204999999998611, 0.0000000000000000000, 1.182441673027071261 ) ) ;
#99 = ORIENTED_EDGE ( 'NONE', *, *, #103, .F. ) ;
#100 =( LENGTH_UNIT ( ) NAMED_UNIT ( * ) SI_UNIT ( $, .METRE. ) );
#101 = VERTEX_POINT ( 'NONE', #202 ) ;
#102 = FACE_OUTER_BOUND ( 'NONE', #191, .T. ) ;
#103 = EDGE_CURVE ( 'NONE', #7, #151, #297, .T. ) ;
#104 = SURFACE_STYLE_FILL_AREA ( #279 ) ;
#105 = DIRECTION ( 'NONE',  ( -1.000000000000000000, 0.0000000000000000000, 0.0000000000000000000 ) ) ;
#106 = APPLICATION_PROTOCOL_DEFINITION ( 'draft international standard', 'automotive_design', 1998, #219 ) ;
#107 = DIRECTION ( 'NONE',  ( 1.000000000000000000, 0.0000000000000000000, 0.0000000000000000000 ) ) ;
#108 = VECTOR ( 'NONE', #29, 39.37007874015748143 ) ;
#109 = EDGE_LOOP ( 'NONE', ( #293, #85 ) ) ;
#110 = DIMENSIONAL_EXPONENTS ( 1.000000000000000000, 0.0000000000000000000, 0.0000000000000000000, 0.0000000000000000000, 0.0000000000000000000, 0.0000000000000000000, 0.0000000000000000000 ) ;
#111 = CIRCLE ( 'NONE', #256, 0.2359842795000000049 ) ;
#112 = VERTEX_POINT ( 'NONE', #129 ) ;
#113 = ADVANCED_FACE ( 'NONE', ( #154 ), #41, .T. ) ;
#114 = LINE ( 'NONE', #245, #159 ) ;
#115 = AXIS2_PLACEMENT_3D ( 'NONE', #262, #239, #237 ) ;
#116 = SURFACE_STYLE_USAGE ( .BOTH. , #299 ) ;
#117 = LINE ( 'NONE', #265, #230 ) ;
#118 = EDGE_CURVE ( 'NONE', #151, #284, #92, .T. ) ;
#119 = CARTESIAN_POINT ( 'NONE',  ( -0.2362204999999999999, 0.0000000000000000000, 3.252717000000002301 ) ) ;
#120 = DIRECTION ( 'NONE',  ( 0.7071067811865474617, 8.659560562354932858E-17, -0.7071067811865474617 ) ) ;
#121 = CONICAL_SURFACE ( 'NONE', #288, 0.2359842794999999771, 0.1745329251994338915 ) ;
#122 = CIRCLE ( 'NONE', #70, 0.2359842794999999771 ) ;
#123 = EDGE_LOOP ( 'NONE', ( #261, #77, #136, #40 ) ) ;
#124 = CARTESIAN_POINT ( 'NONE',  ( 0.2362204999999999999, 2.892866792179872647E-17, 3.252717000000002301 ) ) ;
#125 =( NAMED_UNIT ( * ) SI_UNIT ( $, .STERADIAN. ) SOLID_ANGLE_UNIT ( ) );
#126 = CARTESIAN_POINT ( 'NONE',  ( 0.2359842795000000326, 2.889973925387694330E-17, 0.0000000000000000000 ) ) ;
#127 = ORIENTED_EDGE ( 'NONE', *, *, #49, .T. ) ;
#128 = CARTESIAN_POINT ( 'NONE',  ( 0.2362205000000001665, 2.892866792179874496E-17, 1.182441673027071261 ) ) ;
#129 = CARTESIAN_POINT ( 'NONE',  ( -0.2212205000000019295, 0.0000000000000000000, 3.267717000000000649 ) ) ;
#130 = DIRECTION ( 'NONE',  ( 0.0000000000000000000, 0.0000000000000000000, 1.000000000000000000 ) ) ;
#131 = ADVANCED_BREP_SHAPE_REPRESENTATION ( 'Micro_SFPM-120-10', ( #229, #37 ), #43 ) ;
#132 = DIRECTION ( 'NONE',  ( -1.000000000000000000, 0.0000000000000000000, 1.224646799147353454E-16 ) ) ;
#133 = DIRECTION ( 'NONE',  ( 0.0000000000000000000, 0.0000000000000000000, -1.000000000000000000 ) ) ;
#134 =( GEOMETRIC_REPRESENTATION_CONTEXT ( 3 ) GLOBAL_UNCERTAINTY_ASSIGNED_CONTEXT ( ( #232 ) ) GLOBAL_UNIT_ASSIGNED_CONTEXT ( ( #175, #263, #246 ) ) REPRESENTATION_CONTEXT ( 'NONE', 'WORKASPACE' ) );
#135 = VECTOR ( 'NONE', #218, 39.37007874015748143 ) ;
#136 = ORIENTED_EDGE ( 'NONE', *, *, #94, .T. ) ;
#137 = DIRECTION ( 'NONE',  ( 0.0000000000000000000, 0.0000000000000000000, 1.000000000000000000 ) ) ;
#138 = DIRECTION ( 'NONE',  ( 0.1736481776669313859, 0.0000000000000000000, 0.9848077530122077983 ) ) ;
#139 = AXIS2_PLACEMENT_3D ( 'NONE', #36, #130, #170 ) ;
#140 = PLANE ( 'NONE',  #52 ) ;
#141 = EDGE_LOOP ( 'NONE', ( #63, #268, #127, #75 ) ) ;
#142 = CARTESIAN_POINT ( 'NONE',  ( -0.2359842794999999771, 0.0000000000000000000, 2.889973925387693713E-17 ) ) ;
#143 = CONICAL_SURFACE ( 'NONE', #14, 0.2212205000000019295, 0.7853981633974482790 ) ;
#144 = EDGE_CURVE ( 'NONE', #57, #79, #150, .T. ) ;
#145 = EDGE_LOOP ( 'NONE', ( #60, #64, #167, #74 ) ) ;
#146 = CARTESIAN_POINT ( 'NONE',  ( 1.448073410051044337E-16, 0.0000000000000000000, 1.182441673027071261 ) ) ;
#147 = DIRECTION ( 'NONE',  ( 0.0000000000000000000, 0.0000000000000000000, -1.000000000000000000 ) ) ;
#148 = AXIS2_PLACEMENT_3D ( 'NONE', #146, #8, #165 ) ;
#149 = ORIENTED_EDGE ( 'NONE', *, *, #28, .F. ) ;
#150 = CIRCLE ( 'NONE', #223, 0.2362204999999999999 ) ;
#151 = VERTEX_POINT ( 'NONE', #59 ) ;
#152 = EDGE_CURVE ( 'NONE', #34, #7, #122, .T. ) ;
#153 =( CONVERSION_BASED_UNIT ( 'INCH', #209 ) LENGTH_UNIT ( ) NAMED_UNIT ( #253 ) );
#154 = FACE_OUTER_BOUND ( 'NONE', #4, .T. ) ;
#155 = DIRECTION ( 'NONE',  ( 0.0000000000000000000, 0.0000000000000000000, 1.000000000000000000 ) ) ;
#156 = SURFACE_STYLE_FILL_AREA ( #224 ) ;
#157 = CARTESIAN_POINT ( 'NONE',  ( 0.0000000000000000000, 0.0000000000000000000, 0.0000000000000000000 ) ) ;
#158 = PLANE ( 'NONE',  #185 ) ;
#159 = VECTOR ( 'NONE', #95, 39.37007874015748854 ) ;
#160 = CARTESIAN_POINT ( 'NONE',  ( -0.2359842794999998383, 2.891420358783783796E-17, 1.181102000000000096 ) ) ;
#161 = CARTESIAN_POINT ( 'NONE',  ( 0.2212205000000019295, 2.709169772307794108E-17, 3.267717000000000649 ) ) ;
#162 = FACE_OUTER_BOUND ( 'NONE', #189, .T. ) ;
#163 = CARTESIAN_POINT ( 'NONE',  ( 0.0000000000000000000, 0.0000000000000000000, 3.267717000000000649 ) ) ;
#164 = ORIENTED_EDGE ( 'NONE', *, *, #196, .T. ) ;
#165 = DIRECTION ( 'NONE',  ( 1.000000000000000000, 0.0000000000000000000, 0.0000000000000000000 ) ) ;
#166 = VECTOR ( 'NONE', #120, 39.37007874015748854 ) ;
#167 = ORIENTED_EDGE ( 'NONE', *, *, #20, .F. ) ;
#168 = DIRECTION ( 'NONE',  ( -1.000000000000000000, 0.0000000000000000000, 1.224646799147353454E-16 ) ) ;
#169 = EDGE_LOOP ( 'NONE', ( #281, #172 ) ) ;
#170 = DIRECTION ( 'NONE',  ( 1.000000000000000000, 0.0000000000000000000, 0.0000000000000000000 ) ) ;
#171 = DIRECTION ( 'NONE',  ( -1.000000000000000000, 0.0000000000000000000, 0.0000000000000000000 ) ) ;
#172 = ORIENTED_EDGE ( 'NONE', *, *, #266, .T. ) ;
#173 = CARTESIAN_POINT ( 'NONE',  ( 0.0000000000000000000, 0.0000000000000000000, 3.252717000000002301 ) ) ;
#174 = DIRECTION ( 'NONE',  ( -0.0000000000000000000, -0.0000000000000000000, -1.000000000000000000 ) ) ;
#175 =( CONVERSION_BASED_UNIT ( 'INCH', #260 ) LENGTH_UNIT ( ) NAMED_UNIT ( #110 ) );
#176 = DIRECTION ( 'NONE',  ( 1.000000000000000000, 0.0000000000000000000, 0.0000000000000000000 ) ) ;
#177 = ORIENTED_EDGE ( 'NONE', *, *, #266, .F. ) ;
#178 = CLOSED_SHELL ( 'NONE', ( #227, #200, #179, #33, #206, #12, #55, #236, #113, #15 ) ) ;
#179 = ADVANCED_FACE ( 'NONE', ( #13 ), #143, .T. ) ;
#180 = CIRCLE ( 'NONE', #248, 0.2212205000000019295 ) ;
#181 = VECTOR ( 'NONE', #138, 39.37007874015748143 ) ;
#182 = EDGE_CURVE ( 'NONE', #112, #101, #275, .T. ) ;
#183 = LINE ( 'NONE', #271, #181 ) ;
#184 = FACE_OUTER_BOUND ( 'NONE', #141, .T. ) ;
#185 = AXIS2_PLACEMENT_3D ( 'NONE', #157, #137, #247 ) ;
#186 = STYLED_ITEM ( 'NONE', ( #26 ), #229 ) ;
#187 = CARTESIAN_POINT ( 'NONE',  ( 1.446432783766537492E-16, 0.0000000000000000000, 1.181102000000000096 ) ) ;
#188 = ORIENTED_EDGE ( 'NONE', *, *, #231, .F. ) ;
#189 = EDGE_LOOP ( 'NONE', ( #188, #197, #199, #235 ) ) ;
#190 = CYLINDRICAL_SURFACE ( 'NONE', #298, 0.2359842794999999771 ) ;
#191 = EDGE_LOOP ( 'NONE', ( #286, #164, #240, #99 ) ) ;
#192 =( LENGTH_UNIT ( ) NAMED_UNIT ( * ) SI_UNIT ( $, .METRE. ) );
#193 = DIRECTION ( 'NONE',  ( -1.224646799147353454E-16, -0.0000000000000000000, -1.000000000000000000 ) ) ;
#194 = AXIS2_PLACEMENT_3D ( 'NONE', #173, #44, #176 ) ;
#195 =( GEOMETRIC_REPRESENTATION_CONTEXT ( 3 ) GLOBAL_UNCERTAINTY_ASSIGNED_CONTEXT ( ( #3 ) ) GLOBAL_UNIT_ASSIGNED_CONTEXT ( ( #1, #282, #125 ) ) REPRESENTATION_CONTEXT ( 'NONE', 'WORKASPACE' ) );
#196 = EDGE_CURVE ( 'NONE', #34, #284, #42, .T. ) ;
#197 = ORIENTED_EDGE ( 'NONE', *, *, #182, .F. ) ;
#198 = DIRECTION ( 'NONE',  ( -1.000000000000000000, 0.0000000000000000000, 0.0000000000000000000 ) ) ;
#199 = ORIENTED_EDGE ( 'NONE', *, *, #39, .T. ) ;
#200 = ADVANCED_FACE ( 'NONE', ( #214 ), #23, .T. ) ;
#201 = STYLED_ITEM ( 'NONE', ( #90 ), #131 ) ;
#202 = CARTESIAN_POINT ( 'NONE',  ( 0.2212205000000019295, 2.801018282243833685E-17, 3.267717000000000649 ) ) ;
#203 = DIRECTION ( 'NONE',  ( -0.1736481776669311916, 2.126576849575783316E-17, 0.9848077530122080203 ) ) ;
#204 = DIRECTION ( 'NONE',  ( 0.0000000000000000000, 0.0000000000000000000, -1.000000000000000000 ) ) ;
#205 = CARTESIAN_POINT ( 'NONE',  ( -0.2362204999999999999, 0.0000000000000000000, 3.267717000000000649 ) ) ;
#206 = ADVANCED_FACE ( 'NONE', ( #267 ), #242, .T. ) ;
#207 = UNCERTAINTY_MEASURE_WITH_UNIT (LENGTH_MEASURE( 1.000000000000000082E-05 ), #153, 'distance_accuracy_value', 'NONE');
#208 = LENGTH_MEASURE_WITH_UNIT ( LENGTH_MEASURE( 0.02539999999999999897 ), #22 );
#209 = LENGTH_MEASURE_WITH_UNIT ( LENGTH_MEASURE( 0.02539999999999999897 ), #192 );
#210 = ORIENTED_EDGE ( 'NONE', *, *, #264, .F. ) ;
#211 = DIRECTION ( 'NONE',  ( -1.000000000000000000, 0.0000000000000000000, 0.0000000000000000000 ) ) ;
#212 = CARTESIAN_POINT ( 'NONE',  ( 0.0000000000000000000, 0.0000000000000000000, 0.0000000000000000000 ) ) ;
#213 = EDGE_LOOP ( 'NONE', ( #258, #243, #210, #276 ) ) ;
#214 = FACE_OUTER_BOUND ( 'NONE', #6, .T. ) ;
#215 = CARTESIAN_POINT ( 'NONE',  ( 1.446432783766537492E-16, 0.0000000000000000000, 1.181102000000000096 ) ) ;
#216 = AXIS2_PLACEMENT_3D ( 'NONE', #295, #46, #198 ) ;
#217 = MECHANICAL_DESIGN_GEOMETRIC_PRESENTATION_REPRESENTATION (  '', ( #201 ), #134 ) ;
#218 = DIRECTION ( 'NONE',  ( -1.224646799147353454E-16, -0.0000000000000000000, -1.000000000000000000 ) ) ;
#219 = APPLICATION_CONTEXT ( 'automotive_design' ) ;
#220 = DIRECTION ( 'NONE',  ( 0.0000000000000000000, 0.0000000000000000000, 1.000000000000000000 ) ) ;
#221 = FACE_OUTER_BOUND ( 'NONE', #169, .T. ) ;
#222 = COLOUR_RGB ( '',0.7921568627450980005, 0.8196078431372548767, 0.9333333333333333481 ) ;
#223 = AXIS2_PLACEMENT_3D ( 'NONE', #84, #133, #289 ) ;
#224 = FILL_AREA_STYLE ('',( #45 ) ) ;
#225 = DIRECTION ( 'NONE',  ( 1.000000000000000000, 0.0000000000000000000, -0.0000000000000000000 ) ) ;
#226 = DIRECTION ( 'NONE',  ( -1.000000000000000000, 0.0000000000000000000, 0.0000000000000000000 ) ) ;
#227 = ADVANCED_FACE ( 'NONE', ( #102 ), #190, .T. ) ;
#228 = DIRECTION ( 'NONE',  ( -0.0000000000000000000, -0.0000000000000000000, -1.000000000000000000 ) ) ;
#229 = MANIFOLD_SOLID_BREP ( 'Cut-Revolve1', #178 ) ;
#230 = VECTOR ( 'NONE', #10, 39.37007874015748143 ) ;
#231 = EDGE_CURVE ( 'NONE', #101, #57, #96, .T. ) ;
#232 = UNCERTAINTY_MEASURE_WITH_UNIT (LENGTH_MEASURE( 1.000000000000000082E-05 ), #175, 'distance_accuracy_value', 'NONE');
#233 = ORIENTED_EDGE ( 'NONE', *, *, #20, .T. ) ;
#234 = DIRECTION ( 'NONE',  ( -1.224646799147353454E-16, -0.0000000000000000000, -1.000000000000000000 ) ) ;
#235 = ORIENTED_EDGE ( 'NONE', *, *, #144, .F. ) ;
#236 = ADVANCED_FACE ( 'NONE', ( #184 ), #121, .T. ) ;
#237 = DIRECTION ( 'NONE',  ( -1.000000000000000000, 0.0000000000000000000, 1.224646799147353454E-16 ) ) ;
#238 = PRODUCT_DEFINITION_FORMATION_WITH_SPECIFIED_SOURCE ( 'ANY', '', #72, .NOT_KNOWN. ) ;
#239 = DIRECTION ( 'NONE',  ( -1.224646799147353454E-16, -0.0000000000000000000, -1.000000000000000000 ) ) ;
#240 = ORIENTED_EDGE ( 'NONE', *, *, #118, .F. ) ;
#241 = CARTESIAN_POINT ( 'NONE',  ( 0.0000000000000000000, 0.0000000000000000000, 0.0000000000000000000 ) ) ;
#242 = CYLINDRICAL_SURFACE ( 'NONE', #283, 0.2362204999999999999 ) ;
#243 = ORIENTED_EDGE ( 'NONE', *, *, #231, .T. ) ;
#244 = CIRCLE ( 'NONE', #216, 0.2359842794999999771 ) ;
#245 = CARTESIAN_POINT ( 'NONE',  ( -0.2212205000000019295, 0.0000000000000000000, 3.267717000000000649 ) ) ;
#246 =( NAMED_UNIT ( * ) SI_UNIT ( $, .STERADIAN. ) SOLID_ANGLE_UNIT ( ) );
#247 = DIRECTION ( 'NONE',  ( 1.000000000000000000, 0.0000000000000000000, -0.0000000000000000000 ) ) ;
#248 = AXIS2_PLACEMENT_3D ( 'NONE', #163, #155, #88 ) ;
#249 = SURFACE_STYLE_USAGE ( .BOTH. , #87 ) ;
#250 = ORIENTED_EDGE ( 'NONE', *, *, #69, .T. ) ;
#251 = FACE_OUTER_BOUND ( 'NONE', #145, .T. ) ;
#252 = EDGE_CURVE ( 'NONE', #101, #112, #180, .T. ) ;
#253 = DIMENSIONAL_EXPONENTS ( 1.000000000000000000, 0.0000000000000000000, 0.0000000000000000000, 0.0000000000000000000, 0.0000000000000000000, 0.0000000000000000000, 0.0000000000000000000 ) ;
#254 = LINE ( 'NONE', #205, #56 ) ;
#255 = AXIS2_PLACEMENT_3D ( 'NONE', #51, #204, #31 ) ;
#256 = AXIS2_PLACEMENT_3D ( 'NONE', #272, #278, #58 ) ;
#257 = PRESENTATION_LAYER_ASSIGNMENT (  '', '', ( #186 ) ) ;
#258 = ORIENTED_EDGE ( 'NONE', *, *, #252, .F. ) ;
#259 = ORIENTED_EDGE ( 'NONE', *, *, #196, .F. ) ;
#260 = LENGTH_MEASURE_WITH_UNIT ( LENGTH_MEASURE( 0.02539999999999999897 ), #100 );
#261 = ORIENTED_EDGE ( 'NONE', *, *, #53, .F. ) ;
#262 = CARTESIAN_POINT ( 'NONE',  ( 3.539197317345352573E-33, 0.0000000000000000000, 2.889973925387694330E-17 ) ) ;
#263 =( NAMED_UNIT ( * ) PLANE_ANGLE_UNIT ( ) SI_UNIT ( $, .RADIAN. ) );
#264 = EDGE_CURVE ( 'NONE', #79, #57, #30, .T. ) ;
#265 = CARTESIAN_POINT ( 'NONE',  ( 0.2362204999999999999, 2.892866792179872647E-17, 3.267717000000000649 ) ) ;
#266 = EDGE_CURVE ( 'NONE', #284, #151, #111, .T. ) ;
#267 = FACE_OUTER_BOUND ( 'NONE', #123, .T. ) ;
#268 = ORIENTED_EDGE ( 'NONE', *, *, #152, .F. ) ;
#269 =( NAMED_UNIT ( * ) PLANE_ANGLE_UNIT ( ) SI_UNIT ( $, .RADIAN. ) );
#270 = CIRCLE ( 'NONE', #148, 0.2362204999999999999 ) ;
#271 = CARTESIAN_POINT ( 'NONE',  ( 0.2359842795000001159, 0.0000000000000000000, 1.181102000000000096 ) ) ;
#272 = CARTESIAN_POINT ( 'NONE',  ( 3.539197317345352573E-33, 0.0000000000000000000, 2.889973925387694330E-17 ) ) ;
#273 = FACE_OUTER_BOUND ( 'NONE', #109, .T. ) ;
#274 = FILL_AREA_STYLE_COLOUR ( '', #222 ) ;
#275 = CIRCLE ( 'NONE', #139, 0.2212205000000019295 ) ;
#276 = ORIENTED_EDGE ( 'NONE', *, *, #39, .F. ) ;
#277 = PRODUCT_RELATED_PRODUCT_CATEGORY ( 'part', '', ( #72 ) ) ;
#278 = DIRECTION ( 'NONE',  ( -1.224646799147353454E-16, -0.0000000000000000000, -1.000000000000000000 ) ) ;
#279 = FILL_AREA_STYLE ('',( #274 ) ) ;
#280 = DIRECTION ( 'NONE',  ( 1.224646799147353454E-16, 0.0000000000000000000, 1.000000000000000000 ) ) ;
#281 = ORIENTED_EDGE ( 'NONE', *, *, #118, .T. ) ;
#282 =( NAMED_UNIT ( * ) PLANE_ANGLE_UNIT ( ) SI_UNIT ( $, .RADIAN. ) );
#283 = AXIS2_PLACEMENT_3D ( 'NONE', #62, #5, #211 ) ;
#284 = VERTEX_POINT ( 'NONE', #126 ) ;
#285 = CARTESIAN_POINT ( 'NONE',  ( 0.0000000000000000000, 0.0000000000000000000, 0.0000000000000000000 ) ) ;
#286 = ORIENTED_EDGE ( 'NONE', *, *, #28, .T. ) ;
#287 = CARTESIAN_POINT ( 'NONE',  ( 0.2359842794999999771, 2.889973925387693713E-17, -2.889973925387693713E-17 ) ) ;
#288 = AXIS2_PLACEMENT_3D ( 'NONE', #187, #280, #73 ) ;
#289 = DIRECTION ( 'NONE',  ( 1.000000000000000000, 0.0000000000000000000, 0.0000000000000000000 ) ) ;
#290 = PRODUCT_DEFINITION ( 'UNKNOWN', '', #238, #32 ) ;
#291 = VERTEX_POINT ( 'NONE', #128 ) ;
#292 = EDGE_CURVE ( 'NONE', #291, #61, #270, .T. ) ;
#293 = ORIENTED_EDGE ( 'NONE', *, *, #182, .T. ) ;
#294 = CYLINDRICAL_SURFACE ( 'NONE', #16, 0.2362204999999999999 ) ;
#295 = CARTESIAN_POINT ( 'NONE',  ( 1.446432783766537492E-16, 0.0000000000000000000, 1.181102000000000096 ) ) ;
#296 = COLOUR_RGB ( '',0.7921568627450980005, 0.8196078431372548767, 0.9333333333333333481 ) ;
#297 = LINE ( 'NONE', #142, #108 ) ;
#298 = AXIS2_PLACEMENT_3D ( 'NONE', #285, #78, #168 ) ;
#299 = SURFACE_SIDE_STYLE ('',( #104 ) ) ;
ENDSEC;
END-ISO-10303-21;
