ISO-10303-21;
HEADER;
FILE_DESCRIPTION (( 'STEP AP214' ),
    '1' );
FILE_NAME ('Micro_KC-125-190-025.STEP',
    '2021-09-03T19:06:37',
    ( '' ),
    ( '' ),
    'SwSTEP 2.0',
    'SolidWorks 2020',
    '' );
FILE_SCHEMA (( 'AUTOMOTIVE_DESIGN' ));
ENDSEC;

DATA;
#1 =( CONVERSION_BASED_UNIT ( 'INCH', #176 ) LENGTH_UNIT ( ) NAMED_UNIT ( #209 ) );
#2 = CARTESIAN_POINT ( 'NONE',  ( 0.0000000000000000000, 0.0000000000000000000, 0.2214999999999998359 ) ) ;
#3 = CYLINDRICAL_SURFACE ( 'NONE', #304, 0.06250000000000000000 ) ;
#4 = DIMENSIONAL_EXPONENTS ( 1.000000000000000000, 0.0000000000000000000, 0.0000000000000000000, 0.0000000000000000000, 0.0000000000000000000, 0.0000000000000000000, 0.0000000000000000000 ) ;
#5 = CARTESIAN_POINT ( 'NONE',  ( -0.06250000000000000000, 0.0000000000000000000, 1.485000000000000764 ) ) ;
#6 = CIRCLE ( 'NONE', #289, 0.06250000000000001388 ) ;
#7 = AXIS2_PLACEMENT_3D ( 'NONE', #206, #111, #54 ) ;
#8 = CARTESIAN_POINT ( 'NONE',  ( 0.0000000000000000000, 0.0000000000000000000, 0.02499999999999999792 ) ) ;
#9 = LINE ( 'NONE', #41, #356 ) ;
#10 = CARTESIAN_POINT ( 'NONE',  ( 0.04750000000000064587, 6.735557395310482421E-18, 1.500000000000000222 ) ) ;
#11 = VECTOR ( 'NONE', #274, 39.37007874015748143 ) ;
#12 = EDGE_CURVE ( 'NONE', #213, #364, #86, .T. ) ;
#13 = FACE_OUTER_BOUND ( 'NONE', #102, .T. ) ;
#14 = CARTESIAN_POINT ( 'NONE',  ( 0.0000000000000000000, 0.0000000000000000000, 0.0000000000000000000 ) ) ;
#15 = ORIENTED_EDGE ( 'NONE', *, *, #214, .F. ) ;
#16 = LINE ( 'NONE', #199, #330 ) ;
#17 = ORIENTED_EDGE ( 'NONE', *, *, #374, .T. ) ;
#18 = ADVANCED_FACE ( 'NONE', ( #376 ), #58, .T. ) ;
#19 = AXIS2_PLACEMENT_3D ( 'NONE', #327, #97, #66 ) ;
#20 = DIRECTION ( 'NONE',  ( 0.0000000000000000000, 0.0000000000000000000, 1.000000000000000000 ) ) ;
#21 = CARTESIAN_POINT ( 'NONE',  ( -0.06250000000000000000, 0.0000000000000000000, 0.2214999999999998359 ) ) ;
#22 = EDGE_LOOP ( 'NONE', ( #226, #172, #314, #164 ) ) ;
#23 = SURFACE_STYLE_USAGE ( .BOTH. , #344 ) ;
#24 = ORIENTED_EDGE ( 'NONE', *, *, #193, .T. ) ;
#25 = PRODUCT_CONTEXT ( 'NONE', #186, 'mechanical' ) ;
#26 = PRESENTATION_LAYER_ASSIGNMENT (  '', '', ( #132 ) ) ;
#27 = EDGE_LOOP ( 'NONE', ( #143, #373 ) ) ;
#28 = APPLICATION_PROTOCOL_DEFINITION ( 'draft international standard', 'automotive_design', 1998, #186 ) ;
#29 = ORIENTED_EDGE ( 'NONE', *, *, #12, .F. ) ;
#30 = DIRECTION ( 'NONE',  ( -0.0000000000000000000, -0.0000000000000000000, -1.000000000000000000 ) ) ;
#31 = COLOUR_RGB ( '',0.7921568627450980005, 0.8196078431372548767, 0.9333333333333333481 ) ;
#32 = PLANE ( 'NONE',  #246 ) ;
#33 = EDGE_CURVE ( 'NONE', #213, #280, #290, .T. ) ;
#34 = SURFACE_SIDE_STYLE ('',( #208 ) ) ;
#35 = CARTESIAN_POINT ( 'NONE',  ( 0.0000000000000000000, 0.0000000000000000000, 0.2214999999999998359 ) ) ;
#36 = FACE_BOUND ( 'NONE', #297, .T. ) ;
#37 = DIRECTION ( 'NONE',  ( -0.0000000000000000000, -0.0000000000000000000, -1.000000000000000000 ) ) ;
#38 = MECHANICAL_DESIGN_GEOMETRIC_PRESENTATION_REPRESENTATION (  '', ( #156 ), #69 ) ;
#39 = CYLINDRICAL_SURFACE ( 'NONE', #339, 0.03100000000000000672 ) ;
#40 = DIRECTION ( 'NONE',  ( 0.7071067811865489050, 0.0000000000000000000, 0.7071067811865461294 ) ) ;
#41 = CARTESIAN_POINT ( 'NONE',  ( 0.03100000000000001713, 0.0000000000000000000, 0.1899999999999999745 ) ) ;
#42 = AXIS2_PLACEMENT_3D ( 'NONE', #61, #372, #349 ) ;
#43 = DIRECTION ( 'NONE',  ( 0.0000000000000000000, 0.0000000000000000000, -1.000000000000000000 ) ) ;
#44 = FILL_AREA_STYLE_COLOUR ( '', #169 ) ;
#45 = ORIENTED_EDGE ( 'NONE', *, *, #333, .T. ) ;
#46 = CIRCLE ( 'NONE', #310, 0.03100000000000001713 ) ;
#47 = DIRECTION ( 'NONE',  ( -0.0000000000000000000, -0.0000000000000000000, -1.000000000000000000 ) ) ;
#48 = EDGE_LOOP ( 'NONE', ( #147, #232, #207, #255 ) ) ;
#49 = SURFACE_STYLE_FILL_AREA ( #163 ) ;
#50 = ORIENTED_EDGE ( 'NONE', *, *, #363, .T. ) ;
#51 = ADVANCED_FACE ( 'NONE', ( #233 ), #32, .F. ) ;
#52 = EDGE_CURVE ( 'NONE', #238, #257, #251, .T. ) ;
#53 = CIRCLE ( 'NONE', #42, 0.03100000000000000325 ) ;
#54 = DIRECTION ( 'NONE',  ( 1.000000000000000000, 0.0000000000000000000, 0.0000000000000000000 ) ) ;
#55 = CARTESIAN_POINT ( 'NONE',  ( 0.0000000000000000000, 0.0000000000000000000, 0.0000000000000000000 ) ) ;
#56 = DIRECTION ( 'NONE',  ( 0.0000000000000000000, 0.0000000000000000000, 1.000000000000000000 ) ) ;
#57 = ADVANCED_FACE ( 'NONE', ( #89 ), #276, .T. ) ;
#58 = CYLINDRICAL_SURFACE ( 'NONE', #222, 0.06250000000000000000 ) ;
#59 =( NAMED_UNIT ( * ) SI_UNIT ( $, .STERADIAN. ) SOLID_ANGLE_UNIT ( ) );
#60 = CARTESIAN_POINT ( 'NONE',  ( 0.0000000000000000000, 0.0000000000000000000, 1.500000000000000222 ) ) ;
#61 = CARTESIAN_POINT ( 'NONE',  ( 0.0000000000000000000, 0.0000000000000000000, 0.02500000000000000486 ) ) ;
#62 = VECTOR ( 'NONE', #245, 39.37007874015748143 ) ;
#63 = ORIENTED_EDGE ( 'NONE', *, *, #12, .T. ) ;
#64 = CARTESIAN_POINT ( 'NONE',  ( 0.0000000000000000000, 0.0000000000000000000, 1.500000000000000222 ) ) ;
#65 = EDGE_CURVE ( 'NONE', #257, #238, #155, .T. ) ;
#66 = DIRECTION ( 'NONE',  ( 1.000000000000000000, 0.0000000000000000000, 0.0000000000000000000 ) ) ;
#67 = CARTESIAN_POINT ( 'NONE',  ( -0.06250000000000000000, 0.0000000000000000000, 1.500000000000000222 ) ) ;
#68 = CONICAL_SURFACE ( 'NONE', #141, 0.03100000000000001713, 0.7853981633974502774 ) ;
#69 =( GEOMETRIC_REPRESENTATION_CONTEXT ( 3 ) GLOBAL_UNCERTAINTY_ASSIGNED_CONTEXT ( ( #135 ) ) GLOBAL_UNIT_ASSIGNED_CONTEXT ( ( #370, #326, #59 ) ) REPRESENTATION_CONTEXT ( 'NONE', 'WORKASPACE' ) );
#70 = DIRECTION ( 'NONE',  ( -1.000000000000000000, 0.0000000000000000000, 0.0000000000000000000 ) ) ;
#71 = ADVANCED_FACE ( 'NONE', ( #268 ), #3, .T. ) ;
#72 = CARTESIAN_POINT ( 'NONE',  ( 0.06250000000000000000, 7.654042494670956004E-18, 0.0000000000000000000 ) ) ;
#73 = EDGE_CURVE ( 'NONE', #364, #129, #350, .T. ) ;
#74 = LENGTH_MEASURE_WITH_UNIT ( LENGTH_MEASURE( 0.02539999999999999897 ), #223 );
#75 = MECHANICAL_DESIGN_GEOMETRIC_PRESENTATION_REPRESENTATION (  '', ( #132 ), #360 ) ;
#76 = ADVANCED_FACE ( 'NONE', ( #270 ), #68, .T. ) ;
#77 = CARTESIAN_POINT ( 'NONE',  ( 0.0000000000000000000, 0.0000000000000000000, 1.500000000000000222 ) ) ;
#78 = ORIENTED_EDGE ( 'NONE', *, *, #117, .F. ) ;
#79 = CARTESIAN_POINT ( 'NONE',  ( -0.04750000000000064587, 0.0000000000000000000, 1.500000000000000222 ) ) ;
#80 = DIRECTION ( 'NONE',  ( -1.000000000000000000, 0.0000000000000000000, 0.0000000000000000000 ) ) ;
#81 = ORIENTED_EDGE ( 'NONE', *, *, #87, .T. ) ;
#82 =( GEOMETRIC_REPRESENTATION_CONTEXT ( 3 ) GLOBAL_UNCERTAINTY_ASSIGNED_CONTEXT ( ( #178 ) ) GLOBAL_UNIT_ASSIGNED_CONTEXT ( ( #1, #108, #293 ) ) REPRESENTATION_CONTEXT ( 'NONE', 'WORKASPACE' ) );
#83 = DIRECTION ( 'NONE',  ( -0.0000000000000000000, -0.0000000000000000000, -1.000000000000000000 ) ) ;
#84 = ADVANCED_FACE ( 'NONE', ( #36, #336 ), #215, .T. ) ;
#85 = DIRECTION ( 'NONE',  ( 1.000000000000000000, 0.0000000000000000000, 0.0000000000000000000 ) ) ;
#86 = LINE ( 'NONE', #204, #264 ) ;
#87 = EDGE_CURVE ( 'NONE', #115, #238, #9, .T. ) ;
#88 = VECTOR ( 'NONE', #332, 39.37007874015748143 ) ;
#89 = FACE_OUTER_BOUND ( 'NONE', #192, .T. ) ;
#90 = DIRECTION ( 'NONE',  ( 1.000000000000000000, 0.0000000000000000000, -0.0000000000000000000 ) ) ;
#91 = ORIENTED_EDGE ( 'NONE', *, *, #175, .F. ) ;
#92 = AXIS2_PLACEMENT_3D ( 'NONE', #369, #105, #228 ) ;
#93 = LINE ( 'NONE', #154, #88 ) ;
#94 = CARTESIAN_POINT ( 'NONE',  ( 0.0000000000000000000, 0.0000000000000000000, 1.500000000000000222 ) ) ;
#95 = EDGE_CURVE ( 'NONE', #280, #213, #378, .T. ) ;
#96 = DIRECTION ( 'NONE',  ( 0.0000000000000000000, 0.0000000000000000000, 1.000000000000000000 ) ) ;
#97 = DIRECTION ( 'NONE',  ( 0.0000000000000000000, 0.0000000000000000000, -1.000000000000000000 ) ) ;
#98 = LINE ( 'NONE', #357, #229 ) ;
#99 = DIRECTION ( 'NONE',  ( -1.000000000000000000, 0.0000000000000000000, 0.0000000000000000000 ) ) ;
#100 = CONICAL_SURFACE ( 'NONE', #292, 0.04750000000000064587, 0.7853981633974457255 ) ;
#101 = CARTESIAN_POINT ( 'NONE',  ( 0.03100000000000000672, 3.796405077356795780E-18, 0.0000000000000000000 ) ) ;
#102 = EDGE_LOOP ( 'NONE', ( #173, #239, #322, #116 ) ) ;
#103 = EDGE_LOOP ( 'NONE', ( #137, #253, #197, #354 ) ) ;
#104 = EDGE_CURVE ( 'NONE', #115, #341, #345, .T. ) ;
#105 = DIRECTION ( 'NONE',  ( -0.0000000000000000000, -0.0000000000000000000, -1.000000000000000000 ) ) ;
#106 = VERTEX_POINT ( 'NONE', #248 ) ;
#107 = AXIS2_PLACEMENT_3D ( 'NONE', #94, #127, #189 ) ;
#108 =( NAMED_UNIT ( * ) PLANE_ANGLE_UNIT ( ) SI_UNIT ( $, .RADIAN. ) );
#109 = ORIENTED_EDGE ( 'NONE', *, *, #234, .F. ) ;
#110 = EDGE_CURVE ( 'NONE', #348, #150, #6, .T. ) ;
#111 = DIRECTION ( 'NONE',  ( 0.0000000000000000000, 0.0000000000000000000, 1.000000000000000000 ) ) ;
#112 = DIRECTION ( 'NONE',  ( -0.0000000000000000000, -0.0000000000000000000, -1.000000000000000000 ) ) ;
#113 = AXIS2_PLACEMENT_3D ( 'NONE', #331, #96, #308 ) ;
#114 = PRODUCT_DEFINITION_FORMATION_WITH_SPECIFIED_SOURCE ( 'ANY', '', #312, .NOT_KNOWN. ) ;
#115 = VERTEX_POINT ( 'NONE', #220 ) ;
#116 = ORIENTED_EDGE ( 'NONE', *, *, #87, .F. ) ;
#117 = EDGE_CURVE ( 'NONE', #280, #129, #122, .T. ) ;
#118 = DIRECTION ( 'NONE',  ( -0.0000000000000000000, -0.0000000000000000000, -1.000000000000000000 ) ) ;
#119 = CIRCLE ( 'NONE', #351, 0.03100000000000000325 ) ;
#120 = DIRECTION ( 'NONE',  ( 1.000000000000000000, 0.0000000000000000000, 0.0000000000000000000 ) ) ;
#121 = ADVANCED_BREP_SHAPE_REPRESENTATION ( 'Micro_KC-125-190-025', ( #275, #7 ), #82 ) ;
#122 = LINE ( 'NONE', #185, #11 ) ;
#123 = EDGE_CURVE ( 'NONE', #364, #238, #98, .T. ) ;
#124 = CARTESIAN_POINT ( 'NONE',  ( 0.0000000000000000000, 0.0000000000000000000, 0.1899999999999999745 ) ) ;
#125 = CARTESIAN_POINT ( 'NONE',  ( 0.0000000000000000000, 0.0000000000000000000, 0.02499999999999999792 ) ) ;
#126 = AXIS2_PLACEMENT_3D ( 'NONE', #64, #184, #244 ) ;
#127 = DIRECTION ( 'NONE',  ( 0.0000000000000000000, 0.0000000000000000000, 1.000000000000000000 ) ) ;
#128 = DIRECTION ( 'NONE',  ( -0.0000000000000000000, -0.0000000000000000000, -1.000000000000000000 ) ) ;
#129 = VERTEX_POINT ( 'NONE', #5 ) ;
#130 =( NAMED_UNIT ( * ) SI_UNIT ( $, .STERADIAN. ) SOLID_ANGLE_UNIT ( ) );
#131 = ORIENTED_EDGE ( 'NONE', *, *, #104, .F. ) ;
#132 = STYLED_ITEM ( 'NONE', ( #221 ), #275 ) ;
#133 = CYLINDRICAL_SURFACE ( 'NONE', #371, 0.03100000000000000672 ) ;
#134 = ORIENTED_EDGE ( 'NONE', *, *, #307, .T. ) ;
#135 = UNCERTAINTY_MEASURE_WITH_UNIT (LENGTH_MEASURE( 1.000000000000000082E-05 ), #370, 'distance_accuracy_value', 'NONE');
#136 = CARTESIAN_POINT ( 'NONE',  ( 0.06250000000000000000, 7.654042494670956004E-18, 0.2214999999999998359 ) ) ;
#137 = ORIENTED_EDGE ( 'NONE', *, *, #307, .F. ) ;
#138 = EDGE_CURVE ( 'NONE', #129, #257, #358, .T. ) ;
#139 = FACE_OUTER_BOUND ( 'NONE', #311, .T. ) ;
#140 = ORIENTED_EDGE ( 'NONE', *, *, #117, .T. ) ;
#141 = AXIS2_PLACEMENT_3D ( 'NONE', #273, #303, #120 ) ;
#142 = VECTOR ( 'NONE', #47, 39.37007874015748143 ) ;
#143 = ORIENTED_EDGE ( 'NONE', *, *, #243, .F. ) ;
#144 = DIRECTION ( 'NONE',  ( -1.000000000000000000, 0.0000000000000000000, 0.0000000000000000000 ) ) ;
#145 = DIRECTION ( 'NONE',  ( 0.0000000000000000000, 0.0000000000000000000, 1.000000000000000000 ) ) ;
#146 = SHAPE_DEFINITION_REPRESENTATION ( #261, #121 ) ;
#147 = ORIENTED_EDGE ( 'NONE', *, *, #193, .F. ) ;
#148 = AXIS2_PLACEMENT_3D ( 'NONE', #60, #324, #301 ) ;
#149 = CARTESIAN_POINT ( 'NONE',  ( 0.03100000000000000325, 3.796405077356795010E-18, 0.02500000000000000486 ) ) ;
#150 = VERTEX_POINT ( 'NONE', #188 ) ;
#151 = ADVANCED_FACE ( 'NONE', ( #216 ), #359, .T. ) ;
#152 = CARTESIAN_POINT ( 'NONE',  ( 0.0000000000000000000, 0.0000000000000000000, 1.500000000000000222 ) ) ;
#153 = DIMENSIONAL_EXPONENTS ( 1.000000000000000000, 0.0000000000000000000, 0.0000000000000000000, 0.0000000000000000000, 0.0000000000000000000, 0.0000000000000000000, 0.0000000000000000000 ) ;
#154 = CARTESIAN_POINT ( 'NONE',  ( 0.06250000000000000000, 7.654042494670956004E-18, 1.500000000000000222 ) ) ;
#155 = CIRCLE ( 'NONE', #298, 0.06250000000000000000 ) ;
#156 = STYLED_ITEM ( 'NONE', ( #237 ), #121 ) ;
#157 = CARTESIAN_POINT ( 'NONE',  ( 0.0000000000000000000, 0.0000000000000000000, 0.1899999999999999745 ) ) ;
#158 = CARTESIAN_POINT ( 'NONE',  ( 0.0000000000000000000, 0.0000000000000000000, 0.0000000000000000000 ) ) ;
#159 = DIRECTION ( 'NONE',  ( -0.7071067811865489050, 8.659560562354950115E-17, 0.7071067811865461294 ) ) ;
#160 = DIRECTION ( 'NONE',  ( -0.0000000000000000000, -0.0000000000000000000, -1.000000000000000000 ) ) ;
#161 = VECTOR ( 'NONE', #159, 39.37007874015748143 ) ;
#162 = PRODUCT_DEFINITION_CONTEXT ( 'detailed design', #299, 'design' ) ;
#163 = FILL_AREA_STYLE ('',( #44 ) ) ;
#164 = ORIENTED_EDGE ( 'NONE', *, *, #52, .F. ) ;
#165 =( CONVERSION_BASED_UNIT ( 'INCH', #74 ) LENGTH_UNIT ( ) NAMED_UNIT ( #153 ) );
#166 = PRODUCT_RELATED_PRODUCT_CATEGORY ( 'part', '', ( #312 ) ) ;
#167 = CARTESIAN_POINT ( 'NONE',  ( -0.03100000000000000325, 0.0000000000000000000, 0.02500000000000000486 ) ) ;
#168 = VERTEX_POINT ( 'NONE', #72 ) ;
#169 = COLOUR_RGB ( '',0.7921568627450980005, 0.8196078431372548767, 0.9333333333333333481 ) ;
#170 = FACE_OUTER_BOUND ( 'NONE', #368, .T. ) ;
#171 = ORIENTED_EDGE ( 'NONE', *, *, #52, .T. ) ;
#172 = ORIENTED_EDGE ( 'NONE', *, *, #73, .T. ) ;
#173 = ORIENTED_EDGE ( 'NONE', *, *, #333, .F. ) ;
#174 = DIRECTION ( 'NONE',  ( -0.0000000000000000000, -0.0000000000000000000, -1.000000000000000000 ) ) ;
#175 = EDGE_CURVE ( 'NONE', #341, #257, #306, .T. ) ;
#176 = LENGTH_MEASURE_WITH_UNIT ( LENGTH_MEASURE( 0.02539999999999999897 ), #182 );
#177 = DIRECTION ( 'NONE',  ( 0.0000000000000000000, 0.0000000000000000000, -1.000000000000000000 ) ) ;
#178 = UNCERTAINTY_MEASURE_WITH_UNIT (LENGTH_MEASURE( 1.000000000000000082E-05 ), #1, 'distance_accuracy_value', 'NONE');
#179 = FILL_AREA_STYLE ('',( #212 ) ) ;
#180 = EDGE_LOOP ( 'NONE', ( #15, #267 ) ) ;
#181 = AXIS2_PLACEMENT_3D ( 'NONE', #35, #174, #325 ) ;
#182 =( LENGTH_UNIT ( ) NAMED_UNIT ( * ) SI_UNIT ( $, .METRE. ) );
#183 = ORIENTED_EDGE ( 'NONE', *, *, #320, .T. ) ;
#184 = DIRECTION ( 'NONE',  ( 0.0000000000000000000, 0.0000000000000000000, 1.000000000000000000 ) ) ;
#185 = CARTESIAN_POINT ( 'NONE',  ( -0.04750000000000064587, 0.0000000000000000000, 1.500000000000000222 ) ) ;
#186 = APPLICATION_CONTEXT ( 'automotive_design' ) ;
#187 = DIRECTION ( 'NONE',  ( -1.000000000000000000, 0.0000000000000000000, 0.0000000000000000000 ) ) ;
#188 = CARTESIAN_POINT ( 'NONE',  ( -0.06250000000000001388, 0.0000000000000000000, 0.02499999999999999792 ) ) ;
#189 = DIRECTION ( 'NONE',  ( 1.000000000000000000, 0.0000000000000000000, -0.0000000000000000000 ) ) ;
#190 = AXIS2_PLACEMENT_3D ( 'NONE', #124, #37, #242 ) ;
#191 = AXIS2_PLACEMENT_3D ( 'NONE', #77, #256, #362 ) ;
#192 = EDGE_LOOP ( 'NONE', ( #291, #63, #250, #78 ) ) ;
#193 = EDGE_CURVE ( 'NONE', #348, #168, #93, .T. ) ;
#194 = CARTESIAN_POINT ( 'NONE',  ( 0.0000000000000000000, 0.0000000000000000000, 1.485000000000000764 ) ) ;
#195 = EDGE_LOOP ( 'NONE', ( #200, #24, #17, #109 ) ) ;
#196 = DIRECTION ( 'NONE',  ( 1.000000000000000000, 0.0000000000000000000, 0.0000000000000000000 ) ) ;
#197 = ORIENTED_EDGE ( 'NONE', *, *, #294, .T. ) ;
#198 = CIRCLE ( 'NONE', #323, 0.06250000000000000000 ) ;
#199 = CARTESIAN_POINT ( 'NONE',  ( -0.03100000000000000672, 0.0000000000000000000, 0.0000000000000000000 ) ) ;
#200 = ORIENTED_EDGE ( 'NONE', *, *, #214, .T. ) ;
#201 = CARTESIAN_POINT ( 'NONE',  ( 0.0000000000000000000, 0.0000000000000000000, 0.0000000000000000000 ) ) ;
#202 = DIRECTION ( 'NONE',  ( 1.000000000000000000, 0.0000000000000000000, 0.0000000000000000000 ) ) ;
#203 = ADVANCED_FACE ( 'NONE', ( #13 ), #335, .T. ) ;
#204 = CARTESIAN_POINT ( 'NONE',  ( 0.04750000000000064587, 5.817072295950006528E-18, 1.500000000000000222 ) ) ;
#205 = PRESENTATION_LAYER_ASSIGNMENT (  '', '', ( #156 ) ) ;
#206 = CARTESIAN_POINT ( 'NONE',  ( 0.0000000000000000000, 0.0000000000000000000, 0.0000000000000000000 ) ) ;
#207 = ORIENTED_EDGE ( 'NONE', *, *, #234, .T. ) ;
#208 = SURFACE_STYLE_FILL_AREA ( #179 ) ;
#209 = DIMENSIONAL_EXPONENTS ( 1.000000000000000000, 0.0000000000000000000, 0.0000000000000000000, 0.0000000000000000000, 0.0000000000000000000, 0.0000000000000000000, 0.0000000000000000000 ) ;
#210 = ADVANCED_FACE ( 'NONE', ( #334 ), #39, .T. ) ;
#211 = DIRECTION ( 'NONE',  ( -1.000000000000000000, 0.0000000000000000000, 0.0000000000000000000 ) ) ;
#212 = FILL_AREA_STYLE_COLOUR ( '', #31 ) ;
#213 = VERTEX_POINT ( 'NONE', #10 ) ;
#214 = EDGE_CURVE ( 'NONE', #150, #348, #271, .T. ) ;
#215 = PLANE ( 'NONE',  #113 ) ;
#216 = FACE_OUTER_BOUND ( 'NONE', #286, .T. ) ;
#217 = DIRECTION ( 'NONE',  ( 1.000000000000000000, 0.0000000000000000000, 0.0000000000000000000 ) ) ;
#218 = CLOSED_SHELL ( 'NONE', ( #71, #317, #203, #57, #329, #269, #151, #288, #76, #210, #84, #51, #18 ) ) ;
#219 = DIRECTION ( 'NONE',  ( -0.0000000000000000000, -0.0000000000000000000, -1.000000000000000000 ) ) ;
#220 = CARTESIAN_POINT ( 'NONE',  ( 0.03100000000000001713, 0.0000000000000000000, 0.1899999999999999745 ) ) ;
#221 = PRESENTATION_STYLE_ASSIGNMENT (( #23 ) ) ;
#222 = AXIS2_PLACEMENT_3D ( 'NONE', #328, #112, #265 ) ;
#223 =( LENGTH_UNIT ( ) NAMED_UNIT ( * ) SI_UNIT ( $, .METRE. ) );
#224 = ORIENTED_EDGE ( 'NONE', *, *, #33, .T. ) ;
#225 = FACE_OUTER_BOUND ( 'NONE', #353, .T. ) ;
#226 = ORIENTED_EDGE ( 'NONE', *, *, #123, .F. ) ;
#227 = PRODUCT_DEFINITION ( 'UNKNOWN', '', #114, #162 ) ;
#228 = DIRECTION ( 'NONE',  ( -1.000000000000000000, 0.0000000000000000000, 0.0000000000000000000 ) ) ;
#229 = VECTOR ( 'NONE', #337, 39.37007874015748143 ) ;
#230 = ORIENTED_EDGE ( 'NONE', *, *, #231, .T. ) ;
#231 = EDGE_CURVE ( 'NONE', #295, #379, #119, .T. ) ;
#232 = ORIENTED_EDGE ( 'NONE', *, *, #110, .T. ) ;
#233 = FACE_OUTER_BOUND ( 'NONE', #27, .T. ) ;
#234 = EDGE_CURVE ( 'NONE', #150, #106, #254, .T. ) ;
#235 =( LENGTH_UNIT ( ) NAMED_UNIT ( * ) SI_UNIT ( $, .METRE. ) );
#236 = CARTESIAN_POINT ( 'NONE',  ( 0.0000000000000000000, 0.0000000000000000000, 1.500000000000000222 ) ) ;
#237 = PRESENTATION_STYLE_ASSIGNMENT (( #262 ) ) ;
#238 = VERTEX_POINT ( 'NONE', #136 ) ;
#239 = ORIENTED_EDGE ( 'NONE', *, *, #175, .T. ) ;
#240 = AXIS2_PLACEMENT_3D ( 'NONE', #152, #177, #296 ) ;
#241 = AXIS2_PLACEMENT_3D ( 'NONE', #157, #272, #217 ) ;
#242 = DIRECTION ( 'NONE',  ( -1.000000000000000000, 0.0000000000000000000, 0.0000000000000000000 ) ) ;
#243 = EDGE_CURVE ( 'NONE', #106, #168, #277, .T. ) ;
#244 = DIRECTION ( 'NONE',  ( 1.000000000000000000, 0.0000000000000000000, 0.0000000000000000000 ) ) ;
#245 = DIRECTION ( 'NONE',  ( -0.0000000000000000000, -0.0000000000000000000, -1.000000000000000000 ) ) ;
#246 = AXIS2_PLACEMENT_3D ( 'NONE', #55, #145, #90 ) ;
#247 = DIRECTION ( 'NONE',  ( -0.0000000000000000000, -0.0000000000000000000, -1.000000000000000000 ) ) ;
#248 = CARTESIAN_POINT ( 'NONE',  ( -0.06250000000000000000, 0.0000000000000000000, 0.0000000000000000000 ) ) ;
#249 = DIRECTION ( 'NONE',  ( 1.000000000000000000, 0.0000000000000000000, 0.0000000000000000000 ) ) ;
#250 = ORIENTED_EDGE ( 'NONE', *, *, #320, .F. ) ;
#251 = CIRCLE ( 'NONE', #181, 0.06250000000000000000 ) ;
#252 = DIRECTION ( 'NONE',  ( -0.0000000000000000000, -0.0000000000000000000, -1.000000000000000000 ) ) ;
#253 = ORIENTED_EDGE ( 'NONE', *, *, #104, .T. ) ;
#254 = LINE ( 'NONE', #340, #305 ) ;
#255 = ORIENTED_EDGE ( 'NONE', *, *, #243, .T. ) ;
#256 = DIRECTION ( 'NONE',  ( -0.0000000000000000000, -0.0000000000000000000, -1.000000000000000000 ) ) ;
#257 = VERTEX_POINT ( 'NONE', #21 ) ;
#258 = AXIS2_PLACEMENT_3D ( 'NONE', #125, #247, #361 ) ;
#259 = LENGTH_MEASURE_WITH_UNIT ( LENGTH_MEASURE( 0.02539999999999999897 ), #235 );
#260 = ORIENTED_EDGE ( 'NONE', *, *, #123, .T. ) ;
#261 = PRODUCT_DEFINITION_SHAPE ( 'NONE', 'NONE',  #227 ) ;
#262 = SURFACE_STYLE_USAGE ( .BOTH. , #34 ) ;
#263 = EDGE_LOOP ( 'NONE', ( #91, #131, #81, #171 ) ) ;
#264 = VECTOR ( 'NONE', #352, 39.37007874015748143 ) ;
#265 = DIRECTION ( 'NONE',  ( -1.000000000000000000, 0.0000000000000000000, 0.0000000000000000000 ) ) ;
#266 = AXIS2_PLACEMENT_3D ( 'NONE', #201, #56, #85 ) ;
#267 = ORIENTED_EDGE ( 'NONE', *, *, #110, .F. ) ;
#268 = FACE_OUTER_BOUND ( 'NONE', #195, .T. ) ;
#269 = ADVANCED_FACE ( 'NONE', ( #367 ), #279, .T. ) ;
#270 = FACE_OUTER_BOUND ( 'NONE', #263, .T. ) ;
#271 = CIRCLE ( 'NONE', #258, 0.06250000000000001388 ) ;
#272 = DIRECTION ( 'NONE',  ( 0.0000000000000000000, 0.0000000000000000000, 1.000000000000000000 ) ) ;
#273 = CARTESIAN_POINT ( 'NONE',  ( 0.0000000000000000000, 0.0000000000000000000, 0.1899999999999999745 ) ) ;
#274 = DIRECTION ( 'NONE',  ( -0.7071067811865456854, 0.0000000000000000000, -0.7071067811865493491 ) ) ;
#275 = MANIFOLD_SOLID_BREP ( 'Cut-Revolve1', #218 ) ;
#276 = CONICAL_SURFACE ( 'NONE', #240, 0.04750000000000064587, 0.7853981633974457255 ) ;
#277 = CIRCLE ( 'NONE', #365, 0.06250000000000000000 ) ;
#278 = CARTESIAN_POINT ( 'NONE',  ( -0.03100000000000001713, 3.796405077356796551E-18, 0.1899999999999999745 ) ) ;
#279 = CYLINDRICAL_SURFACE ( 'NONE', #191, 0.06250000000000000000 ) ;
#280 = VERTEX_POINT ( 'NONE', #79 ) ;
#281 = CARTESIAN_POINT ( 'NONE',  ( 0.0000000000000000000, 0.0000000000000000000, 1.500000000000000222 ) ) ;
#282 = CARTESIAN_POINT ( 'NONE',  ( 0.0000000000000000000, 0.0000000000000000000, 0.0000000000000000000 ) ) ;
#283 = ORIENTED_EDGE ( 'NONE', *, *, #231, .F. ) ;
#284 = UNCERTAINTY_MEASURE_WITH_UNIT (LENGTH_MEASURE( 1.000000000000000082E-05 ), #165, 'distance_accuracy_value', 'NONE');
#285 = CYLINDRICAL_SURFACE ( 'NONE', #92, 0.06250000000000000000 ) ;
#286 = EDGE_LOOP ( 'NONE', ( #347, #224 ) ) ;
#287 = ORIENTED_EDGE ( 'NONE', *, *, #294, .F. ) ;
#288 = ADVANCED_FACE ( 'NONE', ( #139 ), #100, .T. ) ;
#289 = AXIS2_PLACEMENT_3D ( 'NONE', #8, #302, #187 ) ;
#290 = CIRCLE ( 'NONE', #148, 0.04750000000000064587 ) ;
#291 = ORIENTED_EDGE ( 'NONE', *, *, #33, .F. ) ;
#292 = AXIS2_PLACEMENT_3D ( 'NONE', #281, #43, #80 ) ;
#293 =( NAMED_UNIT ( * ) SI_UNIT ( $, .STERADIAN. ) SOLID_ANGLE_UNIT ( ) );
#294 = EDGE_CURVE ( 'NONE', #341, #295, #16, .T. ) ;
#295 = VERTEX_POINT ( 'NONE', #167 ) ;
#296 = DIRECTION ( 'NONE',  ( -1.000000000000000000, 0.0000000000000000000, 0.0000000000000000000 ) ) ;
#297 = EDGE_LOOP ( 'NONE', ( #230, #50 ) ) ;
#298 = AXIS2_PLACEMENT_3D ( 'NONE', #2, #30, #202 ) ;
#299 = APPLICATION_CONTEXT ( 'automotive_design' ) ;
#300 = CARTESIAN_POINT ( 'NONE',  ( 0.06250000000000001388, 7.654042494670957545E-18, 0.02499999999999999792 ) ) ;
#301 = DIRECTION ( 'NONE',  ( 1.000000000000000000, 0.0000000000000000000, 0.0000000000000000000 ) ) ;
#302 = DIRECTION ( 'NONE',  ( -0.0000000000000000000, -0.0000000000000000000, -1.000000000000000000 ) ) ;
#303 = DIRECTION ( 'NONE',  ( 0.0000000000000000000, 0.0000000000000000000, 1.000000000000000000 ) ) ;
#304 = AXIS2_PLACEMENT_3D ( 'NONE', #236, #118, #211 ) ;
#305 = VECTOR ( 'NONE', #315, 39.37007874015748143 ) ;
#306 = LINE ( 'NONE', #278, #161 ) ;
#307 = EDGE_CURVE ( 'NONE', #115, #379, #366, .T. ) ;
#308 = DIRECTION ( 'NONE',  ( 1.000000000000000000, 0.0000000000000000000, -0.0000000000000000000 ) ) ;
#309 = CARTESIAN_POINT ( 'NONE',  ( 0.0000000000000000000, 0.0000000000000000000, 0.02500000000000000486 ) ) ;
#310 = AXIS2_PLACEMENT_3D ( 'NONE', #346, #83, #144 ) ;
#311 = EDGE_LOOP ( 'NONE', ( #29, #319, #140, #316 ) ) ;
#312 = PRODUCT ( 'Micro_KC-125-190-025', 'Micro_KC-125-190-025', '', ( #25 ) ) ;
#313 = DIRECTION ( 'NONE',  ( 0.0000000000000000000, 0.0000000000000000000, -1.000000000000000000 ) ) ;
#314 = ORIENTED_EDGE ( 'NONE', *, *, #138, .T. ) ;
#315 = DIRECTION ( 'NONE',  ( -0.0000000000000000000, -0.0000000000000000000, -1.000000000000000000 ) ) ;
#316 = ORIENTED_EDGE ( 'NONE', *, *, #73, .F. ) ;
#317 = ADVANCED_FACE ( 'NONE', ( #225 ), #133, .T. ) ;
#318 =( NAMED_UNIT ( * ) PLANE_ANGLE_UNIT ( ) SI_UNIT ( $, .RADIAN. ) );
#319 = ORIENTED_EDGE ( 'NONE', *, *, #95, .F. ) ;
#320 = EDGE_CURVE ( 'NONE', #129, #364, #198, .T. ) ;
#321 = CARTESIAN_POINT ( 'NONE',  ( -0.03100000000000001713, 5.725223786013877433E-18, 0.1899999999999999745 ) ) ;
#322 = ORIENTED_EDGE ( 'NONE', *, *, #65, .T. ) ;
#323 = AXIS2_PLACEMENT_3D ( 'NONE', #194, #313, #196 ) ;
#324 = DIRECTION ( 'NONE',  ( 0.0000000000000000000, 0.0000000000000000000, 1.000000000000000000 ) ) ;
#325 = DIRECTION ( 'NONE',  ( 1.000000000000000000, 0.0000000000000000000, 0.0000000000000000000 ) ) ;
#326 =( NAMED_UNIT ( * ) PLANE_ANGLE_UNIT ( ) SI_UNIT ( $, .RADIAN. ) );
#327 = CARTESIAN_POINT ( 'NONE',  ( 0.0000000000000000000, 0.0000000000000000000, 1.485000000000000764 ) ) ;
#328 = CARTESIAN_POINT ( 'NONE',  ( 0.0000000000000000000, 0.0000000000000000000, 1.500000000000000222 ) ) ;
#329 = ADVANCED_FACE ( 'NONE', ( #170 ), #285, .T. ) ;
#330 = VECTOR ( 'NONE', #252, 39.37007874015748143 ) ;
#331 = CARTESIAN_POINT ( 'NONE',  ( 0.06250000000000001388, 0.0000000000000000000, 0.02500000000000000139 ) ) ;
#332 = DIRECTION ( 'NONE',  ( -0.0000000000000000000, -0.0000000000000000000, -1.000000000000000000 ) ) ;
#333 = EDGE_CURVE ( 'NONE', #341, #115, #46, .T. ) ;
#334 = FACE_OUTER_BOUND ( 'NONE', #103, .T. ) ;
#335 = CONICAL_SURFACE ( 'NONE', #241, 0.03100000000000001713, 0.7853981633974502774 ) ;
#336 = FACE_OUTER_BOUND ( 'NONE', #180, .T. ) ;
#337 = DIRECTION ( 'NONE',  ( -0.0000000000000000000, -0.0000000000000000000, -1.000000000000000000 ) ) ;
#338 = CIRCLE ( 'NONE', #266, 0.06250000000000000000 ) ;
#339 = AXIS2_PLACEMENT_3D ( 'NONE', #158, #219, #70 ) ;
#340 = CARTESIAN_POINT ( 'NONE',  ( -0.06250000000000000000, 0.0000000000000000000, 1.500000000000000222 ) ) ;
#341 = VERTEX_POINT ( 'NONE', #321 ) ;
#342 = DIRECTION ( 'NONE',  ( -1.000000000000000000, 0.0000000000000000000, 0.0000000000000000000 ) ) ;
#343 = ORIENTED_EDGE ( 'NONE', *, *, #65, .F. ) ;
#344 = SURFACE_SIDE_STYLE ('',( #49 ) ) ;
#345 = CIRCLE ( 'NONE', #190, 0.03100000000000001713 ) ;
#346 = CARTESIAN_POINT ( 'NONE',  ( 0.0000000000000000000, 0.0000000000000000000, 0.1899999999999999745 ) ) ;
#347 = ORIENTED_EDGE ( 'NONE', *, *, #95, .T. ) ;
#348 = VERTEX_POINT ( 'NONE', #300 ) ;
#349 = DIRECTION ( 'NONE',  ( -1.000000000000000000, 0.0000000000000000000, 0.0000000000000000000 ) ) ;
#350 = CIRCLE ( 'NONE', #19, 0.06250000000000000000 ) ;
#351 = AXIS2_PLACEMENT_3D ( 'NONE', #309, #160, #99 ) ;
#352 = DIRECTION ( 'NONE',  ( 0.7071067811865456854, 8.659560562354911904E-17, -0.7071067811865493491 ) ) ;
#353 = EDGE_LOOP ( 'NONE', ( #45, #134, #283, #287 ) ) ;
#354 = ORIENTED_EDGE ( 'NONE', *, *, #363, .F. ) ;
#355 = ORIENTED_EDGE ( 'NONE', *, *, #138, .F. ) ;
#356 = VECTOR ( 'NONE', #40, 39.37007874015748143 ) ;
#357 = CARTESIAN_POINT ( 'NONE',  ( 0.06250000000000000000, 7.654042494670956004E-18, 1.500000000000000222 ) ) ;
#358 = LINE ( 'NONE', #67, #62 ) ;
#359 = PLANE ( 'NONE',  #107 ) ;
#360 =( GEOMETRIC_REPRESENTATION_CONTEXT ( 3 ) GLOBAL_UNCERTAINTY_ASSIGNED_CONTEXT ( ( #284 ) ) GLOBAL_UNIT_ASSIGNED_CONTEXT ( ( #165, #318, #130 ) ) REPRESENTATION_CONTEXT ( 'NONE', 'WORKASPACE' ) );
#361 = DIRECTION ( 'NONE',  ( -1.000000000000000000, 0.0000000000000000000, 0.0000000000000000000 ) ) ;
#362 = DIRECTION ( 'NONE',  ( -1.000000000000000000, 0.0000000000000000000, 0.0000000000000000000 ) ) ;
#363 = EDGE_CURVE ( 'NONE', #379, #295, #53, .T. ) ;
#364 = VERTEX_POINT ( 'NONE', #377 ) ;
#365 = AXIS2_PLACEMENT_3D ( 'NONE', #282, #20, #249 ) ;
#366 = LINE ( 'NONE', #101, #142 ) ;
#367 = FACE_OUTER_BOUND ( 'NONE', #22, .T. ) ;
#368 = EDGE_LOOP ( 'NONE', ( #183, #260, #343, #355 ) ) ;
#369 = CARTESIAN_POINT ( 'NONE',  ( 0.0000000000000000000, 0.0000000000000000000, 1.500000000000000222 ) ) ;
#370 =( CONVERSION_BASED_UNIT ( 'INCH', #259 ) LENGTH_UNIT ( ) NAMED_UNIT ( #4 ) );
#371 = AXIS2_PLACEMENT_3D ( 'NONE', #14, #128, #342 ) ;
#372 = DIRECTION ( 'NONE',  ( -0.0000000000000000000, -0.0000000000000000000, -1.000000000000000000 ) ) ;
#373 = ORIENTED_EDGE ( 'NONE', *, *, #374, .F. ) ;
#374 = EDGE_CURVE ( 'NONE', #168, #106, #338, .T. ) ;
#375 = APPLICATION_PROTOCOL_DEFINITION ( 'draft international standard', 'automotive_design', 1998, #299 ) ;
#376 = FACE_OUTER_BOUND ( 'NONE', #48, .T. ) ;
#377 = CARTESIAN_POINT ( 'NONE',  ( 0.06250000000000000000, 7.654042494670956004E-18, 1.485000000000000764 ) ) ;
#378 = CIRCLE ( 'NONE', #126, 0.04750000000000064587 ) ;
#379 = VERTEX_POINT ( 'NONE', #149 ) ;
ENDSEC;
END-ISO-10303-21;
