ISO-10303-21;
HEADER;
FILE_DESCRIPTION (( 'STEP AP214' ),
    '1' );
FILE_NAME ('Micro_GEC-062-4-010.STEP',
    '2021-09-03T17:04:11',
    ( '' ),
    ( '' ),
    'SwSTEP 2.0',
    'SolidWorks 2020',
    '' );
FILE_SCHEMA (( 'AUTOMOTIVE_DESIGN' ));
ENDSEC;

DATA;
#1 = ORIENTED_EDGE ( 'NONE', *, *, #237, .F. ) ;
#2 = ADVANCED_FACE ( 'NONE', ( #79 ), #167, .T. ) ;
#3 = AXIS2_PLACEMENT_3D ( 'NONE', #89, #312, #139 ) ;
#4 = CIRCLE ( 'NONE', #252, 0.03121875000000000691 ) ;
#5 = AXIS2_PLACEMENT_3D ( 'NONE', #124, #20, #67 ) ;
#6 = EDGE_CURVE ( 'NONE', #294, #16, #192, .T. ) ;
#7 = CARTESIAN_POINT ( 'NONE',  ( 0.0000000000000000000, 0.0000000000000000000, 0.0000000000000000000 ) ) ;
#8 = CIRCLE ( 'NONE', #226, 0.06250000000000002776 ) ;
#9 = PRESENTATION_LAYER_ASSIGNMENT (  '', '', ( #59 ) ) ;
#10 = DIRECTION ( 'NONE',  ( -1.224646799147353700E-16, -0.0000000000000000000, -1.000000000000000000 ) ) ;
#11 = CARTESIAN_POINT ( 'NONE',  ( 0.0000000000000000000, 0.0000000000000000000, 1.500000000000000222 ) ) ;
#12 = DIRECTION ( 'NONE',  ( 0.0000000000000000000, 0.0000000000000000000, 1.000000000000000000 ) ) ;
#13 = DIRECTION ( 'NONE',  ( 0.0000000000000000000, 0.0000000000000000000, -1.000000000000000000 ) ) ;
#14 = ORIENTED_EDGE ( 'NONE', *, *, #77, .F. ) ;
#15 = VERTEX_POINT ( 'NONE', #161 ) ;
#16 = VERTEX_POINT ( 'NONE', #273 ) ;
#17 = LENGTH_MEASURE_WITH_UNIT ( LENGTH_MEASURE( 0.02539999999999999897 ), #348 );
#18 = VECTOR ( 'NONE', #283, 39.37007874015748854 ) ;
#19 = ORIENTED_EDGE ( 'NONE', *, *, #77, .T. ) ;
#20 = DIRECTION ( 'NONE',  ( -1.224646799147353700E-16, -0.0000000000000000000, -1.000000000000000000 ) ) ;
#21 = VERTEX_POINT ( 'NONE', #247 ) ;
#22 = DIRECTION ( 'NONE',  ( 1.000000000000000000, 0.0000000000000000000, 0.0000000000000000000 ) ) ;
#23 = EDGE_CURVE ( 'NONE', #15, #294, #30, .T. ) ;
#24 = DIRECTION ( 'NONE',  ( 0.0000000000000000000, -1.000000000000000000, 0.0000000000000000000 ) ) ;
#25 = CARTESIAN_POINT ( 'NONE',  ( 2.302335982397025094E-17, 0.0000000000000000000, 0.1880000000000000282 ) ) ;
#26 = ADVANCED_FACE ( 'NONE', ( #309 ), #141, .T. ) ;
#27 = AXIS2_PLACEMENT_3D ( 'NONE', #7, #331, #88 ) ;
#28 = DIRECTION ( 'NONE',  ( 1.000000000000000000, 0.0000000000000000000, 0.0000000000000000000 ) ) ;
#29 = APPLICATION_PROTOCOL_DEFINITION ( 'draft international standard', 'automotive_design', 1998, #55 ) ;
#30 = CIRCLE ( 'NONE', #310, 0.04750000000000064587 ) ;
#31 = LINE ( 'NONE', #115, #86 ) ;
#32 = LINE ( 'NONE', #230, #18 ) ;
#33 = CIRCLE ( 'NONE', #58, 0.03121875000000000691 ) ;
#34 = CARTESIAN_POINT ( 'NONE',  ( -0.03121875000000000691, 0.0000000000000000000, 3.823194226088145998E-18 ) ) ;
#35 = UNCERTAINTY_MEASURE_WITH_UNIT (LENGTH_MEASURE( 1.000000000000000082E-05 ), #132, 'distance_accuracy_value', 'NONE');
#36 = CYLINDRICAL_SURFACE ( 'NONE', #335, 0.06250000000000002776 ) ;
#37 = DIRECTION ( 'NONE',  ( 1.000000000000000000, 0.0000000000000000000, 0.0000000000000000000 ) ) ;
#38 = CIRCLE ( 'NONE', #107, 0.02121875000000000497 ) ;
#39 = FILL_AREA_STYLE_COLOUR ( '', #163 ) ;
#40 = VERTEX_POINT ( 'NONE', #61 ) ;
#41 = DIRECTION ( 'NONE',  ( 1.000000000000000000, 0.0000000000000000000, 0.0000000000000000000 ) ) ;
#42 = ORIENTED_EDGE ( 'NONE', *, *, #277, .F. ) ;
#43 = FILL_AREA_STYLE ('',( #183 ) ) ;
#44 =( NAMED_UNIT ( * ) SI_UNIT ( $, .STERADIAN. ) SOLID_ANGLE_UNIT ( ) );
#45 = ORIENTED_EDGE ( 'NONE', *, *, #277, .T. ) ;
#46 = SURFACE_STYLE_FILL_AREA ( #43 ) ;
#47 = FACE_OUTER_BOUND ( 'NONE', #242, .T. ) ;
#48 = PRODUCT_DEFINITION_FORMATION_WITH_SPECIFIED_SOURCE ( 'ANY', '', #211, .NOT_KNOWN. ) ;
#49 = MECHANICAL_DESIGN_GEOMETRIC_PRESENTATION_REPRESENTATION (  '', ( #306 ), #203 ) ;
#50 = EDGE_CURVE ( 'NONE', #15, #40, #32, .T. ) ;
#51 = ORIENTED_EDGE ( 'NONE', *, *, #208, .F. ) ;
#52 = CARTESIAN_POINT ( 'NONE',  ( 0.03121875000000002773, 0.0000000000000000000, 0.1880000000000000282 ) ) ;
#53 = ORIENTED_EDGE ( 'NONE', *, *, #169, .F. ) ;
#54 = LINE ( 'NONE', #52, #204 ) ;
#55 = APPLICATION_CONTEXT ( 'automotive_design' ) ;
#56 = AXIS2_PLACEMENT_3D ( 'NONE', #342, #102, #184 ) ;
#57 = DIRECTION ( 'NONE',  ( 0.0000000000000000000, 0.0000000000000000000, 1.000000000000000000 ) ) ;
#58 = AXIS2_PLACEMENT_3D ( 'NONE', #66, #138, #251 ) ;
#59 = STYLED_ITEM ( 'NONE', ( #289 ), #241 ) ;
#60 = VECTOR ( 'NONE', #129, 39.37007874015748854 ) ;
#61 = CARTESIAN_POINT ( 'NONE',  ( 0.06250000000000002776, 7.654042494670959086E-18, 1.485000000000000764 ) ) ;
#62 = DIRECTION ( 'NONE',  ( -1.000000000000000000, 1.224646799147353454E-16, 0.0000000000000000000 ) ) ;
#63 = DIRECTION ( 'NONE',  ( 0.0000000000000000000, 0.0000000000000000000, 1.000000000000000000 ) ) ;
#64 = AXIS2_PLACEMENT_3D ( 'NONE', #187, #285, #265 ) ;
#65 = DIRECTION ( 'NONE',  ( -1.000000000000000000, 0.0000000000000000000, 0.0000000000000000000 ) ) ;
#66 = CARTESIAN_POINT ( 'NONE',  ( 2.302335982397025094E-17, 0.0000000000000000000, 0.1880000000000000282 ) ) ;
#67 = DIRECTION ( 'NONE',  ( 1.000000000000000000, 0.0000000000000000000, 0.0000000000000000000 ) ) ;
#68 = ORIENTED_EDGE ( 'NONE', *, *, #307, .F. ) ;
#69 = CIRCLE ( 'NONE', #301, 0.04750000000000064587 ) ;
#70 = LINE ( 'NONE', #150, #328 ) ;
#71 = ORIENTED_EDGE ( 'NONE', *, *, #171, .T. ) ;
#72 = FACE_OUTER_BOUND ( 'NONE', #95, .T. ) ;
#73 = FILL_AREA_STYLE ('',( #39 ) ) ;
#74 = ORIENTED_EDGE ( 'NONE', *, *, #131, .T. ) ;
#75 =( NAMED_UNIT ( * ) PLANE_ANGLE_UNIT ( ) SI_UNIT ( $, .RADIAN. ) );
#76 =( LENGTH_UNIT ( ) NAMED_UNIT ( * ) SI_UNIT ( $, .METRE. ) );
#77 = EDGE_CURVE ( 'NONE', #40, #16, #8, .T. ) ;
#78 = ORIENTED_EDGE ( 'NONE', *, *, #133, .F. ) ;
#79 = FACE_OUTER_BOUND ( 'NONE', #180, .T. ) ;
#80 = ADVANCED_FACE ( 'NONE', ( #234 ), #332, .T. ) ;
#81 = SURFACE_STYLE_USAGE ( .BOTH. , #109 ) ;
#82 = AXIS2_PLACEMENT_3D ( 'NONE', #202, #91, #173 ) ;
#83 = ORIENTED_EDGE ( 'NONE', *, *, #237, .T. ) ;
#84 = ADVANCED_FACE ( 'NONE', ( #311 ), #36, .T. ) ;
#85 = SHAPE_DEFINITION_REPRESENTATION ( #338, #174 ) ;
#86 = VECTOR ( 'NONE', #205, 39.37007874015747433 ) ;
#87 = ADVANCED_FACE ( 'NONE', ( #112 ), #266, .T. ) ;
#88 = DIRECTION ( 'NONE',  ( 1.000000000000000000, 0.0000000000000000000, -0.0000000000000000000 ) ) ;
#89 = CARTESIAN_POINT ( 'NONE',  ( 0.0000000000000000000, 0.0000000000000000000, 1.500000000000000222 ) ) ;
#90 = PRODUCT_DEFINITION_CONTEXT ( 'detailed design', #55, 'design' ) ;
#91 = DIRECTION ( 'NONE',  ( -1.224646799147353700E-16, -0.0000000000000000000, -1.000000000000000000 ) ) ;
#92 = TOROIDAL_SURFACE ( 'NONE', #279, 0.02121875000000000497, 0.01000000000000000021 ) ;
#93 = DIRECTION ( 'NONE',  ( -1.224646799147353700E-16, -0.0000000000000000000, -1.000000000000000000 ) ) ;
#94 = DIRECTION ( 'NONE',  ( 0.0000000000000000000, 0.0000000000000000000, -1.000000000000000000 ) ) ;
#95 = EDGE_LOOP ( 'NONE', ( #329, #71, #347, #125 ) ) ;
#96 = DIRECTION ( 'NONE',  ( -1.000000000000000000, 0.0000000000000000000, 0.0000000000000000000 ) ) ;
#97 = EDGE_CURVE ( 'NONE', #345, #215, #257, .T. ) ;
#98 = EDGE_LOOP ( 'NONE', ( #42, #19, #149, #1 ) ) ;
#99 = CARTESIAN_POINT ( 'NONE',  ( 0.03121875000000000691, 3.823194226088144458E-18, 0.01000000000000000021 ) ) ;
#100 = ORIENTED_EDGE ( 'NONE', *, *, #23, .T. ) ;
#101 = ADVANCED_FACE ( 'NONE', ( #256 ), #250, .T. ) ;
#102 = DIRECTION ( 'NONE',  ( -0.0000000000000000000, -0.0000000000000000000, -1.000000000000000000 ) ) ;
#103 = ORIENTED_EDGE ( 'NONE', *, *, #227, .F. ) ;
#104 = EDGE_LOOP ( 'NONE', ( #178, #45, #316, #103 ) ) ;
#105 = CYLINDRICAL_SURFACE ( 'NONE', #140, 0.03121875000000000691 ) ;
#106 = SURFACE_SIDE_STYLE ('',( #148 ) ) ;
#107 = AXIS2_PLACEMENT_3D ( 'NONE', #222, #190, #291 ) ;
#108 = CARTESIAN_POINT ( 'NONE',  ( -0.04750000000000064587, 0.0000000000000000000, 1.500000000000000222 ) ) ;
#109 = SURFACE_SIDE_STYLE ('',( #46 ) ) ;
#110 = CARTESIAN_POINT ( 'NONE',  ( -0.04750000000000064587, 0.0000000000000000000, 1.500000000000000222 ) ) ;
#111 = CIRCLE ( 'NONE', #168, 0.06250000000000002776 ) ;
#112 = FACE_OUTER_BOUND ( 'NONE', #286, .T. ) ;
#113 = CARTESIAN_POINT ( 'NONE',  ( 0.06250000000000006939, 7.654042494670963708E-18, 0.3654047844199155848 ) ) ;
#114 = CARTESIAN_POINT ( 'NONE',  ( 1.224646799147353770E-18, 0.0000000000000000000, 0.01000000000000000021 ) ) ;
#115 = CARTESIAN_POINT ( 'NONE',  ( -0.03121874999999998609, 3.823194226088144458E-18, 0.1880000000000000282 ) ) ;
#116 = ORIENTED_EDGE ( 'NONE', *, *, #133, .T. ) ;
#117 = EDGE_CURVE ( 'NONE', #236, #21, #229, .T. ) ;
#118 = VERTEX_POINT ( 'NONE', #113 ) ;
#119 = DIRECTION ( 'NONE',  ( 1.000000000000000000, 0.0000000000000000000, 0.0000000000000000000 ) ) ;
#120 = ORIENTED_EDGE ( 'NONE', *, *, #297, .F. ) ;
#121 = LENGTH_MEASURE_WITH_UNIT ( LENGTH_MEASURE( 0.02539999999999999897 ), #249 );
#122 = DIMENSIONAL_EXPONENTS ( 1.000000000000000000, 0.0000000000000000000, 0.0000000000000000000, 0.0000000000000000000, 0.0000000000000000000, 0.0000000000000000000, 0.0000000000000000000 ) ;
#123 = TOROIDAL_SURFACE ( 'NONE', #146, 0.02121875000000000497, 0.01000000000000000021 ) ;
#124 = CARTESIAN_POINT ( 'NONE',  ( 4.474917996329784544E-17, 0.0000000000000000000, 0.3654047844199155848 ) ) ;
#125 = ORIENTED_EDGE ( 'NONE', *, *, #128, .T. ) ;
#126 = EDGE_LOOP ( 'NONE', ( #151, #196, #209, #159 ) ) ;
#127 = DIRECTION ( 'NONE',  ( 0.0000000000000000000, 0.0000000000000000000, 1.000000000000000000 ) ) ;
#128 = EDGE_CURVE ( 'NONE', #21, #215, #4, .T. ) ;
#129 = DIRECTION ( 'NONE',  ( -0.7071067811865462405, 0.0000000000000000000, -0.7071067811865486830 ) ) ;
#130 = CARTESIAN_POINT ( 'NONE',  ( 0.0000000000000000000, 0.0000000000000000000, 0.0000000000000000000 ) ) ;
#131 = EDGE_CURVE ( 'NONE', #215, #21, #136, .T. ) ;
#132 =( CONVERSION_BASED_UNIT ( 'INCH', #121 ) LENGTH_UNIT ( ) NAMED_UNIT ( #343 ) );
#133 = EDGE_CURVE ( 'NONE', #236, #288, #31, .T. ) ;
#134 = CARTESIAN_POINT ( 'NONE',  ( -0.06249999999999997918, 0.0000000000000000000, 0.3654047844199155848 ) ) ;
#135 = DIRECTION ( 'NONE',  ( 1.000000000000000000, 0.0000000000000000000, 0.0000000000000000000 ) ) ;
#136 = CIRCLE ( 'NONE', #233, 0.03121875000000000691 ) ;
#137 = CIRCLE ( 'NONE', #198, 0.01000000000000000021 ) ;
#138 = DIRECTION ( 'NONE',  ( -1.224646799147353700E-16, -0.0000000000000000000, -1.000000000000000000 ) ) ;
#139 = DIRECTION ( 'NONE',  ( -1.000000000000000000, 0.0000000000000000000, 0.0000000000000000000 ) ) ;
#140 = AXIS2_PLACEMENT_3D ( 'NONE', #130, #269, #299 ) ;
#141 = CYLINDRICAL_SURFACE ( 'NONE', #82, 0.03121875000000000691 ) ;
#142 = EDGE_CURVE ( 'NONE', #236, #345, #33, .T. ) ;
#143 = CARTESIAN_POINT ( 'NONE',  ( 0.03121875000000000691, 3.823194226088144458E-18, -3.823194226088145998E-18 ) ) ;
#144 = DIRECTION ( 'NONE',  ( 1.000000000000000000, 0.0000000000000000000, 0.0000000000000000000 ) ) ;
#145 = CIRCLE ( 'NONE', #278, 0.01000000000000000021 ) ;
#146 = AXIS2_PLACEMENT_3D ( 'NONE', #160, #127, #272 ) ;
#147 = EDGE_LOOP ( 'NONE', ( #317, #341, #74, #155 ) ) ;
#148 = SURFACE_STYLE_FILL_AREA ( #73 ) ;
#149 = ORIENTED_EDGE ( 'NONE', *, *, #227, .T. ) ;
#150 = CARTESIAN_POINT ( 'NONE',  ( 0.06250000000000002776, 7.654042494670959086E-18, 1.500000000000000222 ) ) ;
#151 = ORIENTED_EDGE ( 'NONE', *, *, #23, .F. ) ;
#152 = DIRECTION ( 'NONE',  ( 0.0000000000000000000, 0.0000000000000000000, -1.000000000000000000 ) ) ;
#153 =( CONVERSION_BASED_UNIT ( 'INCH', #244 ) LENGTH_UNIT ( ) NAMED_UNIT ( #207 ) );
#154 = VECTOR ( 'NONE', #93, 39.37007874015748143 ) ;
#155 = ORIENTED_EDGE ( 'NONE', *, *, #117, .F. ) ;
#156 =( NAMED_UNIT ( * ) PLANE_ANGLE_UNIT ( ) SI_UNIT ( $, .RADIAN. ) );
#157 = CIRCLE ( 'NONE', #267, 0.02121875000000000497 ) ;
#158 = FACE_OUTER_BOUND ( 'NONE', #104, .T. ) ;
#159 = ORIENTED_EDGE ( 'NONE', *, *, #6, .F. ) ;
#160 = CARTESIAN_POINT ( 'NONE',  ( 1.224646799147353770E-18, 0.0000000000000000000, 0.01000000000000000021 ) ) ;
#161 = CARTESIAN_POINT ( 'NONE',  ( 0.04750000000000064587, 6.735557395310483192E-18, 1.500000000000000222 ) ) ;
#162 = UNCERTAINTY_MEASURE_WITH_UNIT (LENGTH_MEASURE( 1.000000000000000082E-05 ), #193, 'distance_accuracy_value', 'NONE');
#163 = COLOUR_RGB ( '',0.7921568627450980005, 0.8196078431372548767, 0.9333333333333333481 ) ;
#164 = ADVANCED_FACE ( 'NONE', ( #177 ), #231, .F. ) ;
#165 = PRODUCT_DEFINITION ( 'UNKNOWN', '', #48, #90 ) ;
#166 = CARTESIAN_POINT ( 'NONE',  ( 0.0000000000000000000, 0.0000000000000000000, 0.0000000000000000000 ) ) ;
#167 = CONICAL_SURFACE ( 'NONE', #305, 0.03121875000000000691, 0.1745329251994338915 ) ;
#168 = AXIS2_PLACEMENT_3D ( 'NONE', #295, #152, #22 ) ;
#169 = EDGE_CURVE ( 'NONE', #238, #21, #145, .T. ) ;
#170 = DIRECTION ( 'NONE',  ( -0.0000000000000000000, -0.0000000000000000000, -1.000000000000000000 ) ) ;
#171 = EDGE_CURVE ( 'NONE', #345, #236, #228, .T. ) ;
#172 = DIRECTION ( 'NONE',  ( 1.224646799147353207E-16, 1.000000000000000000, -0.0000000000000000000 ) ) ;
#173 = DIRECTION ( 'NONE',  ( -1.000000000000000000, 0.0000000000000000000, 1.224646799147353700E-16 ) ) ;
#174 = ADVANCED_BREP_SHAPE_REPRESENTATION ( 'Micro_GEC-062-4-010', ( #241, #212 ), #254 ) ;
#175 = PRESENTATION_LAYER_ASSIGNMENT (  '', '', ( #306 ) ) ;
#176 = DIRECTION ( 'NONE',  ( 1.000000000000000000, 0.0000000000000000000, 0.0000000000000000000 ) ) ;
#177 = FACE_OUTER_BOUND ( 'NONE', #185, .T. ) ;
#178 = ORIENTED_EDGE ( 'NONE', *, *, #313, .T. ) ;
#179 = CARTESIAN_POINT ( 'NONE',  ( -0.02121875000000000497, 3.210870826514467669E-18, 0.0000000000000000000 ) ) ;
#180 = EDGE_LOOP ( 'NONE', ( #259, #116, #245, #189 ) ) ;
#181 = DIRECTION ( 'NONE',  ( -0.0000000000000000000, -0.0000000000000000000, -1.000000000000000000 ) ) ;
#182 = VERTEX_POINT ( 'NONE', #191 ) ;
#183 = FILL_AREA_STYLE_COLOUR ( '', #303 ) ;
#184 = DIRECTION ( 'NONE',  ( -1.000000000000000000, 0.0000000000000000000, 0.0000000000000000000 ) ) ;
#185 = EDGE_LOOP ( 'NONE', ( #284, #319 ) ) ;
#186 =( NAMED_UNIT ( * ) SI_UNIT ( $, .STERADIAN. ) SOLID_ANGLE_UNIT ( ) );
#187 = CARTESIAN_POINT ( 'NONE',  ( 4.474917996329784544E-17, 0.0000000000000000000, 0.3654047844199155848 ) ) ;
#188 = AXIS2_PLACEMENT_3D ( 'NONE', #199, #13, #337 ) ;
#189 = ORIENTED_EDGE ( 'NONE', *, *, #315, .F. ) ;
#190 = DIRECTION ( 'NONE',  ( -0.0000000000000000000, -0.0000000000000000000, -1.000000000000000000 ) ) ;
#191 = CARTESIAN_POINT ( 'NONE',  ( 0.02121875000000000497, 0.0000000000000000000, 0.0000000000000000000 ) ) ;
#192 = LINE ( 'NONE', #108, #60 ) ;
#193 =( CONVERSION_BASED_UNIT ( 'INCH', #17 ) LENGTH_UNIT ( ) NAMED_UNIT ( #122 ) );
#194 = EDGE_CURVE ( 'NONE', #288, #118, #350, .T. ) ;
#195 = VECTOR ( 'NONE', #181, 39.37007874015748143 ) ;
#196 = ORIENTED_EDGE ( 'NONE', *, *, #50, .T. ) ;
#197 = VECTOR ( 'NONE', #206, 39.37007874015748143 ) ;
#198 = AXIS2_PLACEMENT_3D ( 'NONE', #292, #24, #246 ) ;
#199 = CARTESIAN_POINT ( 'NONE',  ( 0.0000000000000000000, 0.0000000000000000000, 1.500000000000000222 ) ) ;
#200 = ADVANCED_FACE ( 'NONE', ( #158 ), #349, .T. ) ;
#201 = DIRECTION ( 'NONE',  ( 0.0000000000000000000, 0.0000000000000000000, 1.000000000000000000 ) ) ;
#202 = CARTESIAN_POINT ( 'NONE',  ( 0.0000000000000000000, 0.0000000000000000000, 0.0000000000000000000 ) ) ;
#203 =( GEOMETRIC_REPRESENTATION_CONTEXT ( 3 ) GLOBAL_UNCERTAINTY_ASSIGNED_CONTEXT ( ( #162 ) ) GLOBAL_UNIT_ASSIGNED_CONTEXT ( ( #193, #156, #186 ) ) REPRESENTATION_CONTEXT ( 'NONE', 'WORKASPACE' ) );
#204 = VECTOR ( 'NONE', #275, 39.37007874015748143 ) ;
#205 = DIRECTION ( 'NONE',  ( -0.1736481776669311916, 2.126576849575783316E-17, 0.9848077530122080203 ) ) ;
#206 = DIRECTION ( 'NONE',  ( -1.224646799147353700E-16, -0.0000000000000000000, -1.000000000000000000 ) ) ;
#207 = DIMENSIONAL_EXPONENTS ( 1.000000000000000000, 0.0000000000000000000, 0.0000000000000000000, 0.0000000000000000000, 0.0000000000000000000, 0.0000000000000000000, 0.0000000000000000000 ) ;
#208 = EDGE_CURVE ( 'NONE', #294, #15, #69, .T. ) ;
#209 = ORIENTED_EDGE ( 'NONE', *, *, #313, .F. ) ;
#210 = FACE_OUTER_BOUND ( 'NONE', #325, .T. ) ;
#211 = PRODUCT ( 'Micro_GEC-062-4-010', 'Micro_GEC-062-4-010', '', ( #304 ) ) ;
#212 = AXIS2_PLACEMENT_3D ( 'NONE', #166, #57, #135 ) ;
#213 = ORIENTED_EDGE ( 'NONE', *, *, #50, .F. ) ;
#214 = CARTESIAN_POINT ( 'NONE',  ( -0.03121874999999998609, 5.738618360379552157E-18, 0.1880000000000000282 ) ) ;
#215 = VERTEX_POINT ( 'NONE', #99 ) ;
#216 = APPLICATION_PROTOCOL_DEFINITION ( 'draft international standard', 'automotive_design', 1998, #276 ) ;
#217 = ORIENTED_EDGE ( 'NONE', *, *, #248, .T. ) ;
#218 = DIRECTION ( 'NONE',  ( 1.000000000000000000, 0.0000000000000000000, 0.0000000000000000000 ) ) ;
#219 = AXIS2_PLACEMENT_3D ( 'NONE', #281, #10, #96 ) ;
#220 = ORIENTED_EDGE ( 'NONE', *, *, #128, .F. ) ;
#221 = AXIS2_PLACEMENT_3D ( 'NONE', #270, #318, #218 ) ;
#222 = CARTESIAN_POINT ( 'NONE',  ( 1.224646799147353770E-18, 0.0000000000000000000, 0.0000000000000000000 ) ) ;
#223 = DIRECTION ( 'NONE',  ( 1.224646799147353700E-16, 0.0000000000000000000, 1.000000000000000000 ) ) ;
#224 =( NAMED_UNIT ( * ) SI_UNIT ( $, .STERADIAN. ) SOLID_ANGLE_UNIT ( ) );
#225 = ADVANCED_FACE ( 'NONE', ( #47 ), #293, .T. ) ;
#226 = AXIS2_PLACEMENT_3D ( 'NONE', #282, #94, #176 ) ;
#227 = EDGE_CURVE ( 'NONE', #16, #288, #320, .T. ) ;
#228 = CIRCLE ( 'NONE', #219, 0.03121875000000000691 ) ;
#229 = LINE ( 'NONE', #34, #197 ) ;
#230 = CARTESIAN_POINT ( 'NONE',  ( 0.04750000000000064587, 5.817072295950006528E-18, 1.500000000000000222 ) ) ;
#231 = PLANE ( 'NONE',  #27 ) ;
#232 = CARTESIAN_POINT ( 'NONE',  ( 0.0000000000000000000, 0.0000000000000000000, 1.500000000000000222 ) ) ;
#233 = AXIS2_PLACEMENT_3D ( 'NONE', #114, #280, #37 ) ;
#234 = FACE_OUTER_BOUND ( 'NONE', #290, .T. ) ;
#235 = CARTESIAN_POINT ( 'NONE',  ( 1.224646799147353770E-18, 0.0000000000000000000, 0.0000000000000000000 ) ) ;
#236 = VERTEX_POINT ( 'NONE', #214 ) ;
#237 = EDGE_CURVE ( 'NONE', #118, #288, #351, .T. ) ;
#238 = VERTEX_POINT ( 'NONE', #179 ) ;
#239 = CARTESIAN_POINT ( 'NONE',  ( -0.06250000000000002776, 0.0000000000000000000, 1.500000000000000222 ) ) ;
#240 = ORIENTED_EDGE ( 'NONE', *, *, #131, .F. ) ;
#241 = MANIFOLD_SOLID_BREP ( 'Fillet1', #302 ) ;
#242 = EDGE_LOOP ( 'NONE', ( #78, #321, #261, #83 ) ) ;
#243 = ADVANCED_FACE ( 'NONE', ( #323 ), #123, .T. ) ;
#244 = LENGTH_MEASURE_WITH_UNIT ( LENGTH_MEASURE( 0.02539999999999999897 ), #76 );
#245 = ORIENTED_EDGE ( 'NONE', *, *, #194, .T. ) ;
#246 = DIRECTION ( 'NONE',  ( 0.0000000000000000000, 0.0000000000000000000, -1.000000000000000000 ) ) ;
#247 = CARTESIAN_POINT ( 'NONE',  ( -0.03121875000000000691, 0.0000000000000000000, 0.01000000000000000021 ) ) ;
#248 = EDGE_CURVE ( 'NONE', #182, #215, #137, .T. ) ;
#249 =( LENGTH_UNIT ( ) NAMED_UNIT ( * ) SI_UNIT ( $, .METRE. ) );
#250 = CONICAL_SURFACE ( 'NONE', #3, 0.04750000000000064587, 0.7853981633974466137 ) ;
#251 = DIRECTION ( 'NONE',  ( -1.000000000000000000, 0.0000000000000000000, 0.0000000000000000000 ) ) ;
#252 = AXIS2_PLACEMENT_3D ( 'NONE', #253, #12, #255 ) ;
#253 = CARTESIAN_POINT ( 'NONE',  ( 1.224646799147353770E-18, 0.0000000000000000000, 0.01000000000000000021 ) ) ;
#254 =( GEOMETRIC_REPRESENTATION_CONTEXT ( 3 ) GLOBAL_UNCERTAINTY_ASSIGNED_CONTEXT ( ( #35 ) ) GLOBAL_UNIT_ASSIGNED_CONTEXT ( ( #132, #75, #224 ) ) REPRESENTATION_CONTEXT ( 'NONE', 'WORKASPACE' ) );
#255 = DIRECTION ( 'NONE',  ( 1.000000000000000000, 0.0000000000000000000, 0.0000000000000000000 ) ) ;
#256 = FACE_OUTER_BOUND ( 'NONE', #126, .T. ) ;
#257 = LINE ( 'NONE', #143, #154 ) ;
#258 = MECHANICAL_DESIGN_GEOMETRIC_PRESENTATION_REPRESENTATION (  '', ( #59 ), #324 ) ;
#259 = ORIENTED_EDGE ( 'NONE', *, *, #142, .F. ) ;
#260 = DIRECTION ( 'NONE',  ( 0.0000000000000000000, 0.0000000000000000000, 1.000000000000000000 ) ) ;
#261 = ORIENTED_EDGE ( 'NONE', *, *, #315, .T. ) ;
#262 = DIRECTION ( 'NONE',  ( 0.0000000000000000000, 0.0000000000000000000, 1.000000000000000000 ) ) ;
#263 = ADVANCED_FACE ( 'NONE', ( #210 ), #92, .T. ) ;
#264 = ORIENTED_EDGE ( 'NONE', *, *, #6, .T. ) ;
#265 = DIRECTION ( 'NONE',  ( 1.000000000000000000, 0.0000000000000000000, 0.0000000000000000000 ) ) ;
#266 = CONICAL_SURFACE ( 'NONE', #188, 0.04750000000000064587, 0.7853981633974466137 ) ;
#267 = AXIS2_PLACEMENT_3D ( 'NONE', #235, #274, #28 ) ;
#268 = ORIENTED_EDGE ( 'NONE', *, *, #248, .F. ) ;
#269 = DIRECTION ( 'NONE',  ( -1.224646799147353700E-16, -0.0000000000000000000, -1.000000000000000000 ) ) ;
#270 = CARTESIAN_POINT ( 'NONE',  ( 2.302335982397025094E-17, 0.0000000000000000000, 0.1880000000000000282 ) ) ;
#271 = ORIENTED_EDGE ( 'NONE', *, *, #169, .T. ) ;
#272 = DIRECTION ( 'NONE',  ( 1.000000000000000000, 0.0000000000000000000, 0.0000000000000000000 ) ) ;
#273 = CARTESIAN_POINT ( 'NONE',  ( -0.06250000000000002776, 0.0000000000000000000, 1.485000000000000764 ) ) ;
#274 = DIRECTION ( 'NONE',  ( -0.0000000000000000000, -0.0000000000000000000, -1.000000000000000000 ) ) ;
#275 = DIRECTION ( 'NONE',  ( 0.1736481776669313859, 0.0000000000000000000, 0.9848077530122077983 ) ) ;
#276 = APPLICATION_CONTEXT ( 'automotive_design' ) ;
#277 = EDGE_CURVE ( 'NONE', #40, #118, #70, .T. ) ;
#278 = AXIS2_PLACEMENT_3D ( 'NONE', #308, #172, #62 ) ;
#279 = AXIS2_PLACEMENT_3D ( 'NONE', #287, #262, #41 ) ;
#280 = DIRECTION ( 'NONE',  ( 0.0000000000000000000, 0.0000000000000000000, 1.000000000000000000 ) ) ;
#281 = CARTESIAN_POINT ( 'NONE',  ( 2.302335982397025094E-17, 0.0000000000000000000, 0.1880000000000000282 ) ) ;
#282 = CARTESIAN_POINT ( 'NONE',  ( 0.0000000000000000000, 0.0000000000000000000, 1.485000000000000764 ) ) ;
#283 = DIRECTION ( 'NONE',  ( 0.7071067811865462405, 8.659560562354916834E-17, -0.7071067811865486830 ) ) ;
#284 = ORIENTED_EDGE ( 'NONE', *, *, #297, .T. ) ;
#285 = DIRECTION ( 'NONE',  ( -1.224646799147353700E-16, -0.0000000000000000000, -1.000000000000000000 ) ) ;
#286 = EDGE_LOOP ( 'NONE', ( #213, #51, #264, #14 ) ) ;
#287 = CARTESIAN_POINT ( 'NONE',  ( 1.224646799147353770E-18, 0.0000000000000000000, 0.01000000000000000021 ) ) ;
#288 = VERTEX_POINT ( 'NONE', #134 ) ;
#289 = PRESENTATION_STYLE_ASSIGNMENT (( #346 ) ) ;
#290 = EDGE_LOOP ( 'NONE', ( #339, #100 ) ) ;
#291 = DIRECTION ( 'NONE',  ( 1.000000000000000000, 0.0000000000000000000, 0.0000000000000000000 ) ) ;
#292 = CARTESIAN_POINT ( 'NONE',  ( 0.02121875000000000497, 0.0000000000000000000, 0.01000000000000000021 ) ) ;
#293 = CONICAL_SURFACE ( 'NONE', #221, 0.03121875000000000691, 0.1745329251994338915 ) ;
#294 = VERTEX_POINT ( 'NONE', #110 ) ;
#295 = CARTESIAN_POINT ( 'NONE',  ( 0.0000000000000000000, 0.0000000000000000000, 1.485000000000000764 ) ) ;
#296 = CARTESIAN_POINT ( 'NONE',  ( 0.0000000000000000000, 0.0000000000000000000, 1.500000000000000222 ) ) ;
#297 = EDGE_CURVE ( 'NONE', #182, #238, #157, .T. ) ;
#298 = DIRECTION ( 'NONE',  ( 1.000000000000000000, 0.0000000000000000000, 0.0000000000000000000 ) ) ;
#299 = DIRECTION ( 'NONE',  ( -1.000000000000000000, 0.0000000000000000000, 1.224646799147353700E-16 ) ) ;
#300 = ADVANCED_FACE ( 'NONE', ( #72 ), #105, .T. ) ;
#301 = AXIS2_PLACEMENT_3D ( 'NONE', #296, #260, #119 ) ;
#302 = CLOSED_SHELL ( 'NONE', ( #243, #26, #2, #101, #200, #84, #80, #87, #225, #300, #164, #263 ) ) ;
#303 = COLOUR_RGB ( '',0.7921568627450980005, 0.8196078431372548767, 0.9333333333333333481 ) ;
#304 = PRODUCT_CONTEXT ( 'NONE', #276, 'mechanical' ) ;
#305 = AXIS2_PLACEMENT_3D ( 'NONE', #25, #223, #298 ) ;
#306 = STYLED_ITEM ( 'NONE', ( #322 ), #174 ) ;
#307 = EDGE_CURVE ( 'NONE', #238, #182, #38, .T. ) ;
#308 = CARTESIAN_POINT ( 'NONE',  ( -0.02121875000000000497, 2.598547426940790881E-18, 0.01000000000000000021 ) ) ;
#309 = FACE_OUTER_BOUND ( 'NONE', #147, .T. ) ;
#310 = AXIS2_PLACEMENT_3D ( 'NONE', #336, #201, #144 ) ;
#311 = FACE_OUTER_BOUND ( 'NONE', #98, .T. ) ;
#312 = DIRECTION ( 'NONE',  ( 0.0000000000000000000, 0.0000000000000000000, -1.000000000000000000 ) ) ;
#313 = EDGE_CURVE ( 'NONE', #16, #40, #111, .T. ) ;
#314 = DIRECTION ( 'NONE',  ( -0.0000000000000000000, -0.0000000000000000000, -1.000000000000000000 ) ) ;
#315 = EDGE_CURVE ( 'NONE', #345, #118, #54, .T. ) ;
#316 = ORIENTED_EDGE ( 'NONE', *, *, #194, .F. ) ;
#317 = ORIENTED_EDGE ( 'NONE', *, *, #142, .T. ) ;
#318 = DIRECTION ( 'NONE',  ( 1.224646799147353700E-16, 0.0000000000000000000, 1.000000000000000000 ) ) ;
#319 = ORIENTED_EDGE ( 'NONE', *, *, #307, .T. ) ;
#320 = LINE ( 'NONE', #239, #195 ) ;
#321 = ORIENTED_EDGE ( 'NONE', *, *, #171, .F. ) ;
#322 = PRESENTATION_STYLE_ASSIGNMENT (( #81 ) ) ;
#323 = FACE_OUTER_BOUND ( 'NONE', #344, .T. ) ;
#324 =( GEOMETRIC_REPRESENTATION_CONTEXT ( 3 ) GLOBAL_UNCERTAINTY_ASSIGNED_CONTEXT ( ( #334 ) ) GLOBAL_UNIT_ASSIGNED_CONTEXT ( ( #153, #340, #44 ) ) REPRESENTATION_CONTEXT ( 'NONE', 'WORKASPACE' ) );
#325 = EDGE_LOOP ( 'NONE', ( #53, #120, #217, #220 ) ) ;
#326 = CARTESIAN_POINT ( 'NONE',  ( 0.03121875000000002773, 0.0000000000000000000, 0.1880000000000000282 ) ) ;
#327 = PRODUCT_RELATED_PRODUCT_CATEGORY ( 'part', '', ( #211 ) ) ;
#328 = VECTOR ( 'NONE', #314, 39.37007874015748143 ) ;
#329 = ORIENTED_EDGE ( 'NONE', *, *, #97, .F. ) ;
#330 = AXIS2_PLACEMENT_3D ( 'NONE', #232, #63, #333 ) ;
#331 = DIRECTION ( 'NONE',  ( 0.0000000000000000000, 0.0000000000000000000, 1.000000000000000000 ) ) ;
#332 = PLANE ( 'NONE',  #330 ) ;
#333 = DIRECTION ( 'NONE',  ( 1.000000000000000000, 0.0000000000000000000, -0.0000000000000000000 ) ) ;
#334 = UNCERTAINTY_MEASURE_WITH_UNIT (LENGTH_MEASURE( 1.000000000000000082E-05 ), #153, 'distance_accuracy_value', 'NONE');
#335 = AXIS2_PLACEMENT_3D ( 'NONE', #11, #170, #65 ) ;
#336 = CARTESIAN_POINT ( 'NONE',  ( 0.0000000000000000000, 0.0000000000000000000, 1.500000000000000222 ) ) ;
#337 = DIRECTION ( 'NONE',  ( -1.000000000000000000, 0.0000000000000000000, 0.0000000000000000000 ) ) ;
#338 = PRODUCT_DEFINITION_SHAPE ( 'NONE', 'NONE',  #165 ) ;
#339 = ORIENTED_EDGE ( 'NONE', *, *, #208, .T. ) ;
#340 =( NAMED_UNIT ( * ) PLANE_ANGLE_UNIT ( ) SI_UNIT ( $, .RADIAN. ) );
#341 = ORIENTED_EDGE ( 'NONE', *, *, #97, .T. ) ;
#342 = CARTESIAN_POINT ( 'NONE',  ( 0.0000000000000000000, 0.0000000000000000000, 1.500000000000000222 ) ) ;
#343 = DIMENSIONAL_EXPONENTS ( 1.000000000000000000, 0.0000000000000000000, 0.0000000000000000000, 0.0000000000000000000, 0.0000000000000000000, 0.0000000000000000000, 0.0000000000000000000 ) ;
#344 = EDGE_LOOP ( 'NONE', ( #68, #271, #240, #268 ) ) ;
#345 = VERTEX_POINT ( 'NONE', #326 ) ;
#346 = SURFACE_STYLE_USAGE ( .BOTH. , #106 ) ;
#347 = ORIENTED_EDGE ( 'NONE', *, *, #117, .T. ) ;
#348 =( LENGTH_UNIT ( ) NAMED_UNIT ( * ) SI_UNIT ( $, .METRE. ) );
#349 = CYLINDRICAL_SURFACE ( 'NONE', #56, 0.06250000000000002776 ) ;
#350 = CIRCLE ( 'NONE', #64, 0.06250000000000002776 ) ;
#351 = CIRCLE ( 'NONE', #5, 0.06250000000000002776 ) ;
ENDSEC;
END-ISO-10303-21;
