ISO-10303-21;
HEADER;
FILE_DESCRIPTION (( 'STEP AP214' ),
    '1' );
FILE_NAME ('00242.STEP',
    '2023-06-22T14:04:47',
    ( '' ),
    ( '' ),
    'SwSTEP 2.0',
    'SolidWorks 2023',
    '' );
FILE_SCHEMA (( 'AUTOMOTIVE_DESIGN' ));
ENDSEC;

DATA;
#1 = COLOUR_RGB ( '',0.7921568627450980005, 0.8196078431372548767, 0.9333333333333333481 ) ;
#2 = DIRECTION ( 'NONE',  ( -0.000000000000000000, -1.000000000000000000, -0.000000000000000000 ) ) ;
#3 = CARTESIAN_POINT ( 'NONE',  ( 0.000000000000000000, 0.4374999999999998890, 0.000000000000000000 ) ) ;
#4 = EDGE_LOOP ( 'NONE', ( #80, #152 ) ) ;
#5 = DIRECTION ( 'NONE',  ( 1.000000000000000000, -1.567547902908612085E-16, 0.000000000000000000 ) ) ;
#6 = CARTESIAN_POINT ( 'NONE',  ( 1.913510623667739463E-17, 0.4374999999999998890, 0.1562500000000000000 ) ) ;
#7 = ORIENTED_EDGE ( 'NONE', *, *, #167, .F. ) ;
#8 = VECTOR ( 'NONE', #225, 39.37007874015748143 ) ;
#9 = LENGTH_MEASURE_WITH_UNIT ( LENGTH_MEASURE( 0.02539999999999999897 ), #62 );
#10 = ORIENTED_EDGE ( 'NONE', *, *, #176, .T. ) ;
#11 =( NAMED_UNIT ( * ) SI_UNIT ( $, .STERADIAN. ) SOLID_ANGLE_UNIT ( ) );
#12 = ORIENTED_EDGE ( 'NONE', *, *, #184, .T. ) ;
#13 =( NAMED_UNIT ( * ) SI_UNIT ( $, .STERADIAN. ) SOLID_ANGLE_UNIT ( ) );
#14 = COLOUR_RGB ( '',1.000000000000000000, 0.000000000000000000, 0.000000000000000000 ) ;
#15 = CARTESIAN_POINT ( 'NONE',  ( 0.000000000000000000, 0.000000000000000000, 0.000000000000000000 ) ) ;
#16 = VERTEX_POINT ( 'NONE', #82 ) ;
#17 = DIRECTION ( 'NONE',  ( 1.567547902908612085E-16, 1.000000000000000000, -0.000000000000000000 ) ) ;
#18 =( NAMED_UNIT ( * ) PLANE_ANGLE_UNIT ( ) SI_UNIT ( $, .RADIAN. ) );
#19 = CARTESIAN_POINT ( 'NONE',  ( 1.919692521807178203E-33, 0.4374999999999998890, 0.000000000000000000 ) ) ;
#20 = ADVANCED_FACE ( 'NONE', ( #175 ), #222, .T. ) ;
#21 = PRESENTATION_STYLE_ASSIGNMENT (( #275 ) ) ;
#22 = EDGE_CURVE ( 'NONE', #144, #16, #45, .T. ) ;
#23 = ADVANCED_FACE ( 'NONE', ( #64 ), #213, .T. ) ;
#24 = PRESENTATION_STYLE_ASSIGNMENT (( #137 ) ) ;
#25 = APPLICATION_CONTEXT ( 'automotive_design' ) ;
#26 = DIMENSIONAL_EXPONENTS ( 1.000000000000000000, 0.000000000000000000, 0.000000000000000000, 0.000000000000000000, 0.000000000000000000, 0.000000000000000000, 0.000000000000000000 ) ;
#27 = FILL_AREA_STYLE ('',( #281 ) ) ;
#28 = ADVANCED_FACE ( 'NONE', ( #303 ), #228, .F. ) ;
#29 = COLOUR_RGB ( '',1.000000000000000000, 0.000000000000000000, 0.000000000000000000 ) ;
#30 = DIRECTION ( 'NONE',  ( -0.000000000000000000, -1.000000000000000000, -0.000000000000000000 ) ) ;
#31 = UNCERTAINTY_MEASURE_WITH_UNIT (LENGTH_MEASURE( 1.000000000000000082E-05 ), #186, 'distance_accuracy_value', 'NONE');
#32 = FILL_AREA_STYLE ('',( #54 ) ) ;
#33 = PRODUCT_DEFINITION ( 'UNKNOWN', '', #77, #117 ) ;
#34 = EDGE_LOOP ( 'NONE', ( #109, #130, #43, #105 ) ) ;
#35 = UNCERTAINTY_MEASURE_WITH_UNIT (LENGTH_MEASURE( 1.000000000000000082E-05 ), #203, 'distance_accuracy_value', 'NONE');
#36 = DIRECTION ( 'NONE',  ( -0.000000000000000000, -1.000000000000000000, -0.000000000000000000 ) ) ;
#37 = AXIS2_PLACEMENT_3D ( 'NONE', #100, #118, #233 ) ;
#38 = ORIENTED_EDGE ( 'NONE', *, *, #237, .F. ) ;
#39 = SURFACE_STYLE_USAGE ( .BOTH. , #178 ) ;
#40 = ORIENTED_EDGE ( 'NONE', *, *, #51, .T. ) ;
#41 = EDGE_LOOP ( 'NONE', ( #104, #40 ) ) ;
#42 = CARTESIAN_POINT ( 'NONE',  ( 0.1562500000000000000, 2.000000000000000000, 1.913510623667738539E-17 ) ) ;
#43 = ORIENTED_EDGE ( 'NONE', *, *, #129, .F. ) ;
#44 = AXIS2_PLACEMENT_3D ( 'NONE', #299, #301, #157 ) ;
#45 = LINE ( 'NONE', #114, #271 ) ;
#46 = LENGTH_MEASURE_WITH_UNIT ( LENGTH_MEASURE( 0.02539999999999999897 ), #230 );
#47 = FILL_AREA_STYLE ('',( #49 ) ) ;
#48 = DIRECTION ( 'NONE',  ( 0.000000000000000000, -1.000000000000000000, -0.000000000000000000 ) ) ;
#49 = FILL_AREA_STYLE_COLOUR ( '', #139 ) ;
#50 = DIRECTION ( 'NONE',  ( 0.000000000000000000, 0.000000000000000000, -1.000000000000000000 ) ) ;
#51 = EDGE_CURVE ( 'NONE', #84, #58, #220, .T. ) ;
#52 = PLANE ( 'NONE',  #88 ) ;
#53 = UNCERTAINTY_MEASURE_WITH_UNIT (LENGTH_MEASURE( 1.000000000000000082E-05 ), #199, 'distance_accuracy_value', 'NONE');
#54 = FILL_AREA_STYLE_COLOUR ( '', #112 ) ;
#55 = DIRECTION ( 'NONE',  ( 0.000000000000000000, 0.000000000000000000, -1.000000000000000000 ) ) ;
#56 = SURFACE_SIDE_STYLE ('',( #78 ) ) ;
#57 = FILL_AREA_STYLE_COLOUR ( '', #14 ) ;
#58 = VERTEX_POINT ( 'NONE', #91 ) ;
#59 = DIRECTION ( 'NONE',  ( -0.000000000000000000, -1.000000000000000000, -0.000000000000000000 ) ) ;
#60 = VECTOR ( 'NONE', #36, 39.37007874015748143 ) ;
#61 = EDGE_LOOP ( 'NONE', ( #247, #243, #12, #106 ) ) ;
#62 =( LENGTH_UNIT ( ) NAMED_UNIT ( * ) SI_UNIT ( $, .METRE. ) );
#63 = PRODUCT_DEFINITION_SHAPE ( 'NONE', 'NONE',  #33 ) ;
#64 = FACE_OUTER_BOUND ( 'NONE', #295, .T. ) ;
#65 = CIRCLE ( 'NONE', #165, 0.1562500000000000000 ) ;
#66 = DIRECTION ( 'NONE',  ( 0.000000000000000000, 0.000000000000000000, -1.000000000000000000 ) ) ;
#67 = CARTESIAN_POINT ( 'NONE',  ( 0.000000000000000000, 0.4374999999999998890, 0.000000000000000000 ) ) ;
#68 = SURFACE_STYLE_FILL_AREA ( #85 ) ;
#69 =( GEOMETRIC_REPRESENTATION_CONTEXT ( 3 ) GLOBAL_UNCERTAINTY_ASSIGNED_CONTEXT ( ( #162 ) ) GLOBAL_UNIT_ASSIGNED_CONTEXT ( ( #280, #198, #11 ) ) REPRESENTATION_CONTEXT ( 'NONE', 'WORKASPACE' ) );
#70 = STYLED_ITEM ( 'NONE', ( #21 ), #20 ) ;
#71 = APPLICATION_CONTEXT ( 'automotive_design' ) ;
#72 = LENGTH_MEASURE_WITH_UNIT ( LENGTH_MEASURE( 0.02539999999999999897 ), #110 );
#73 = DIRECTION ( 'NONE',  ( -1.567547902908612085E-16, -1.000000000000000000, 0.000000000000000000 ) ) ;
#74 = CIRCLE ( 'NONE', #239, 0.1562500000000000000 ) ;
#75 = ADVANCED_FACE ( 'NONE', ( #159 ), #52, .F. ) ;
#76 = SURFACE_STYLE_USAGE ( .BOTH. , #143 ) ;
#77 = PRODUCT_DEFINITION_FORMATION_WITH_SPECIFIED_SOURCE ( 'ANY', '', #205, .NOT_KNOWN. ) ;
#78 = SURFACE_STYLE_FILL_AREA ( #218 ) ;
#79 = DIMENSIONAL_EXPONENTS ( 1.000000000000000000, 0.000000000000000000, 0.000000000000000000, 0.000000000000000000, 0.000000000000000000, 0.000000000000000000, 0.000000000000000000 ) ;
#80 = ORIENTED_EDGE ( 'NONE', *, *, #129, .T. ) ;
#81 = CARTESIAN_POINT ( 'NONE',  ( 0.000000000000000000, 0.000000000000000000, -0.1562500000000000000 ) ) ;
#82 = CARTESIAN_POINT ( 'NONE',  ( -0.1562499999999995282, 2.000000000000000000, 0.000000000000000000 ) ) ;
#83 = DIRECTION ( 'NONE',  ( -1.000000000000000000, 0.000000000000000000, 0.000000000000000000 ) ) ;
#84 = VERTEX_POINT ( 'NONE', #257 ) ;
#85 = FILL_AREA_STYLE ('',( #204 ) ) ;
#86 = DIRECTION ( 'NONE',  ( 0.000000000000000000, -0.000000000000000000, 1.000000000000000000 ) ) ;
#87 =( NAMED_UNIT ( * ) SI_UNIT ( $, .STERADIAN. ) SOLID_ANGLE_UNIT ( ) );
#88 = AXIS2_PLACEMENT_3D ( 'NONE', #98, #73, #5 ) ;
#89 = PRODUCT_CONTEXT ( 'NONE', #25, 'mechanical' ) ;
#90 =( NAMED_UNIT ( * ) PLANE_ANGLE_UNIT ( ) SI_UNIT ( $, .RADIAN. ) );
#91 = CARTESIAN_POINT ( 'NONE',  ( 0.000000000000000000, 0.000000000000000000, -0.1562500000000000000 ) ) ;
#92 = STYLED_ITEM ( 'NONE', ( #259 ), #128 ) ;
#93 = EDGE_LOOP ( 'NONE', ( #244, #146, #217, #179 ) ) ;
#94 = DIRECTION ( 'NONE',  ( 1.567547902908612085E-16, 1.000000000000000000, -0.000000000000000000 ) ) ;
#95 = CARTESIAN_POINT ( 'NONE',  ( 0.000000000000000000, 0.4374999999999998890, 0.000000000000000000 ) ) ;
#96 = MECHANICAL_DESIGN_GEOMETRIC_PRESENTATION_REPRESENTATION (  '', ( #70 ), #107 ) ;
#97 = SURFACE_STYLE_FILL_AREA ( #27 ) ;
#98 = CARTESIAN_POINT ( 'NONE',  ( 0.1562500000000000000, 2.000000000000000000, 0.000000000000000000 ) ) ;
#99 = UNCERTAINTY_MEASURE_WITH_UNIT (LENGTH_MEASURE( 1.000000000000000082E-05 ), #212, 'distance_accuracy_value', 'NONE');
#100 = CARTESIAN_POINT ( 'NONE',  ( 2.449293598294706414E-16, 2.000000000000000000, 0.000000000000000000 ) ) ;
#101 = DIMENSIONAL_EXPONENTS ( 1.000000000000000000, 0.000000000000000000, 0.000000000000000000, 0.000000000000000000, 0.000000000000000000, 0.000000000000000000, 0.000000000000000000 ) ;
#102 = AXIS2_PLACEMENT_3D ( 'NONE', #279, #48, #66 ) ;
#103 = DIRECTION ( 'NONE',  ( 1.567547902908612085E-16, 1.000000000000000000, -0.000000000000000000 ) ) ;
#104 = ORIENTED_EDGE ( 'NONE', *, *, #269, .T. ) ;
#105 = ORIENTED_EDGE ( 'NONE', *, *, #22, .F. ) ;
#106 = ORIENTED_EDGE ( 'NONE', *, *, #51, .F. ) ;
#107 =( GEOMETRIC_REPRESENTATION_CONTEXT ( 3 ) GLOBAL_UNCERTAINTY_ASSIGNED_CONTEXT ( ( #241 ) ) GLOBAL_UNIT_ASSIGNED_CONTEXT ( ( #183, #154, #87 ) ) REPRESENTATION_CONTEXT ( 'NONE', 'WORKASPACE' ) );
#108 = LENGTH_MEASURE_WITH_UNIT ( LENGTH_MEASURE( 0.02539999999999999897 ), #248 );
#109 = ORIENTED_EDGE ( 'NONE', *, *, #237, .T. ) ;
#110 =( LENGTH_UNIT ( ) NAMED_UNIT ( * ) SI_UNIT ( $, .METRE. ) );
#111 = DIRECTION ( 'NONE',  ( -1.000000000000000000, 1.567547902908612085E-16, 0.000000000000000000 ) ) ;
#112 = COLOUR_RGB ( '',0.7921568627450980005, 0.8196078431372548767, 0.9333333333333333481 ) ;
#113 = EDGE_CURVE ( 'NONE', #150, #223, #125, .T. ) ;
#114 = CARTESIAN_POINT ( 'NONE',  ( -0.1562499999999996392, 2.000000000000000000, 0.000000000000000000 ) ) ;
#115 = AXIS2_PLACEMENT_3D ( 'NONE', #251, #133, #252 ) ;
#116 =( NAMED_UNIT ( * ) SI_UNIT ( $, .STERADIAN. ) SOLID_ANGLE_UNIT ( ) );
#117 = PRODUCT_DEFINITION_CONTEXT ( 'detailed design', #71, 'design' ) ;
#118 = DIRECTION ( 'NONE',  ( 1.567547902908612085E-16, 1.000000000000000000, -0.000000000000000000 ) ) ;
#119 = CARTESIAN_POINT ( 'NONE',  ( 0.000000000000000000, 0.000000000000000000, 0.000000000000000000 ) ) ;
#120 = CLOSED_SHELL ( 'NONE', ( #23, #292, #128, #20 ) ) ;
#121 =( GEOMETRIC_REPRESENTATION_CONTEXT ( 3 ) GLOBAL_UNCERTAINTY_ASSIGNED_CONTEXT ( ( #35 ) ) GLOBAL_UNIT_ASSIGNED_CONTEXT ( ( #203, #90, #302 ) ) REPRESENTATION_CONTEXT ( 'NONE', 'WORKASPACE' ) );
#122 = LENGTH_MEASURE_WITH_UNIT ( LENGTH_MEASURE( 0.02539999999999999897 ), #189 );
#123 = DIMENSIONAL_EXPONENTS ( 1.000000000000000000, 0.000000000000000000, 0.000000000000000000, 0.000000000000000000, 0.000000000000000000, 0.000000000000000000, 0.000000000000000000 ) ;
#124 = DIRECTION ( 'NONE',  ( 1.567547902908612085E-16, 1.000000000000000000, -0.000000000000000000 ) ) ;
#125 = CIRCLE ( 'NONE', #296, 0.1562500000000000000 ) ;
#126 = MECHANICAL_DESIGN_GEOMETRIC_PRESENTATION_REPRESENTATION (  '', ( #177 ), #202 ) ;
#127 = ORIENTED_EDGE ( 'NONE', *, *, #269, .F. ) ;
#128 = ADVANCED_FACE ( 'NONE', ( #308 ), #215, .T. ) ;
#129 = EDGE_CURVE ( 'NONE', #16, #197, #214, .T. ) ;
#130 = ORIENTED_EDGE ( 'NONE', *, *, #221, .T. ) ;
#131 = DIRECTION ( 'NONE',  ( 0.000000000000000000, 1.000000000000000000, 0.000000000000000000 ) ) ;
#132 =( NAMED_UNIT ( * ) PLANE_ANGLE_UNIT ( ) SI_UNIT ( $, .RADIAN. ) );
#133 = DIRECTION ( 'NONE',  ( -0.000000000000000000, -1.000000000000000000, -0.000000000000000000 ) ) ;
#134 = FACE_OUTER_BOUND ( 'NONE', #34, .T. ) ;
#135 = MECHANICAL_DESIGN_GEOMETRIC_PRESENTATION_REPRESENTATION (  '', ( #282 ), #69 ) ;
#136 = ADVANCED_BREP_SHAPE_REPRESENTATION ( '00242', ( #182, #185, #261 ), #307 ) ;
#137 = SURFACE_STYLE_USAGE ( .BOTH. , #276 ) ;
#138 = SURFACE_SIDE_STYLE ('',( #68 ) ) ;
#139 = COLOUR_RGB ( '',1.000000000000000000, 0.000000000000000000, 0.000000000000000000 ) ;
#140 = CIRCLE ( 'NONE', #171, 0.1562500000000000000 ) ;
#141 =( LENGTH_UNIT ( ) NAMED_UNIT ( * ) SI_UNIT ( $, .METRE. ) );
#142 = DIRECTION ( 'NONE',  ( 0.000000000000000000, 0.000000000000000000, -1.000000000000000000 ) ) ;
#143 = SURFACE_SIDE_STYLE ('',( #192 ) ) ;
#144 = VERTEX_POINT ( 'NONE', #236 ) ;
#145 = PRESENTATION_STYLE_ASSIGNMENT (( #39 ) ) ;
#146 = ORIENTED_EDGE ( 'NONE', *, *, #167, .T. ) ;
#147 = PRESENTATION_LAYER_ASSIGNMENT (  '', '', ( #282 ) ) ;
#148 = PRESENTATION_LAYER_ASSIGNMENT (  '', '', ( #177 ) ) ;
#149 = FACE_OUTER_BOUND ( 'NONE', #249, .T. ) ;
#150 = VERTEX_POINT ( 'NONE', #190 ) ;
#151 = PRODUCT_RELATED_PRODUCT_CATEGORY ( 'part', '', ( #205 ) ) ;
#152 = ORIENTED_EDGE ( 'NONE', *, *, #264, .T. ) ;
#153 = AXIS2_PLACEMENT_3D ( 'NONE', #95, #283, #55 ) ;
#154 =( NAMED_UNIT ( * ) PLANE_ANGLE_UNIT ( ) SI_UNIT ( $, .RADIAN. ) );
#155 = CYLINDRICAL_SURFACE ( 'NONE', #289, 0.1562499999999998612 ) ;
#156 = DIRECTION ( 'NONE',  ( 1.000000000000000000, 0.000000000000000000, 0.000000000000000000 ) ) ;
#157 = DIRECTION ( 'NONE',  ( 0.000000000000000000, 0.000000000000000000, -1.000000000000000000 ) ) ;
#158 = DIRECTION ( 'NONE',  ( -1.000000000000000000, 0.000000000000000000, 0.000000000000000000 ) ) ;
#159 = FACE_OUTER_BOUND ( 'NONE', #4, .T. ) ;
#160 = SURFACE_SIDE_STYLE ('',( #97 ) ) ;
#161 = ORIENTED_EDGE ( 'NONE', *, *, #113, .T. ) ;
#162 = UNCERTAINTY_MEASURE_WITH_UNIT (LENGTH_MEASURE( 1.000000000000000082E-05 ), #280, 'distance_accuracy_value', 'NONE');
#163 = CARTESIAN_POINT ( 'NONE',  ( 1.913510623667739463E-17, 0.000000000000000000, 0.1562500000000000000 ) ) ;
#164 = MECHANICAL_DESIGN_GEOMETRIC_PRESENTATION_REPRESENTATION (  '', ( #92 ), #201 ) ;
#165 = AXIS2_PLACEMENT_3D ( 'NONE', #15, #59, #290 ) ;
#166 =( CONVERSION_BASED_UNIT ( 'INCH', #122 ) LENGTH_UNIT ( ) NAMED_UNIT ( #101 ) );
#167 = EDGE_CURVE ( 'NONE', #187, #144, #74, .T. ) ;
#168 =( NAMED_UNIT ( * ) PLANE_ANGLE_UNIT ( ) SI_UNIT ( $, .RADIAN. ) );
#169 = EDGE_CURVE ( 'NONE', #223, #150, #288, .T. ) ;
#170 = PRESENTATION_LAYER_ASSIGNMENT (  '', '', ( #266 ) ) ;
#171 = AXIS2_PLACEMENT_3D ( 'NONE', #267, #124, #263 ) ;
#172 = FILL_AREA_STYLE_COLOUR ( '', #1 ) ;
#173 = SURFACE_STYLE_FILL_AREA ( #246 ) ;
#174 = CARTESIAN_POINT ( 'NONE',  ( 0.1562500000000001110, 2.000000000000000000, 1.913510623667737923E-17 ) ) ;
#175 = FACE_OUTER_BOUND ( 'NONE', #41, .T. ) ;
#176 = EDGE_CURVE ( 'NONE', #223, #84, #285, .T. ) ;
#177 = STYLED_ITEM ( 'NONE', ( #270 ), #185 ) ;
#178 = SURFACE_SIDE_STYLE ('',( #173 ) ) ;
#179 = ORIENTED_EDGE ( 'NONE', *, *, #264, .F. ) ;
#180 = AXIS2_PLACEMENT_3D ( 'NONE', #67, #131, #86 ) ;
#181 = CARTESIAN_POINT ( 'NONE',  ( 0.000000000000000000, 0.000000000000000000, 0.000000000000000000 ) ) ;
#182 = MANIFOLD_SOLID_BREP ( 'Revolve - Cutting Edge', #120 ) ;
#183 =( CONVERSION_BASED_UNIT ( 'INCH', #273 ) LENGTH_UNIT ( ) NAMED_UNIT ( #219 ) );
#184 = EDGE_CURVE ( 'NONE', #150, #58, #287, .T. ) ;
#185 = MANIFOLD_SOLID_BREP ( 'Revolve - Tool Body (Straight Shanked)', #304 ) ;
#186 =( CONVERSION_BASED_UNIT ( 'INCH', #46 ) LENGTH_UNIT ( ) NAMED_UNIT ( #79 ) );
#187 = VERTEX_POINT ( 'NONE', #196 ) ;
#188 = CARTESIAN_POINT ( 'NONE',  ( 0.000000000000000000, 0.4374999999999998890, 0.000000000000000000 ) ) ;
#189 =( LENGTH_UNIT ( ) NAMED_UNIT ( * ) SI_UNIT ( $, .METRE. ) );
#190 = CARTESIAN_POINT ( 'NONE',  ( 0.000000000000000000, 0.4374999999999998890, -0.1562500000000000000 ) ) ;
#191 = DIMENSIONAL_EXPONENTS ( 1.000000000000000000, 0.000000000000000000, 0.000000000000000000, 0.000000000000000000, 0.000000000000000000, 0.000000000000000000, 0.000000000000000000 ) ;
#192 = SURFACE_STYLE_FILL_AREA ( #32 ) ;
#193 = DIMENSIONAL_EXPONENTS ( 1.000000000000000000, 0.000000000000000000, 0.000000000000000000, 0.000000000000000000, 0.000000000000000000, 0.000000000000000000, 0.000000000000000000 ) ;
#194 = PLANE ( 'NONE',  #180 ) ;
#195 = MECHANICAL_DESIGN_GEOMETRIC_PRESENTATION_REPRESENTATION (  '', ( #266 ), #238 ) ;
#196 = CARTESIAN_POINT ( 'NONE',  ( 0.1562500000000000000, 0.4374999999999998890, 1.913510623667738539E-17 ) ) ;
#197 = VERTEX_POINT ( 'NONE', #42 ) ;
#198 =( NAMED_UNIT ( * ) PLANE_ANGLE_UNIT ( ) SI_UNIT ( $, .RADIAN. ) );
#199 =( CONVERSION_BASED_UNIT ( 'INCH', #9 ) LENGTH_UNIT ( ) NAMED_UNIT ( #191 ) );
#200 = ORIENTED_EDGE ( 'NONE', *, *, #184, .F. ) ;
#201 =( GEOMETRIC_REPRESENTATION_CONTEXT ( 3 ) GLOBAL_UNCERTAINTY_ASSIGNED_CONTEXT ( ( #284 ) ) GLOBAL_UNIT_ASSIGNED_CONTEXT ( ( #166, #168, #116 ) ) REPRESENTATION_CONTEXT ( 'NONE', 'WORKASPACE' ) );
#202 =( GEOMETRIC_REPRESENTATION_CONTEXT ( 3 ) GLOBAL_UNCERTAINTY_ASSIGNED_CONTEXT ( ( #53 ) ) GLOBAL_UNIT_ASSIGNED_CONTEXT ( ( #199, #242, #13 ) ) REPRESENTATION_CONTEXT ( 'NONE', 'WORKASPACE' ) );
#203 =( CONVERSION_BASED_UNIT ( 'INCH', #108 ) LENGTH_UNIT ( ) NAMED_UNIT ( #123 ) );
#204 = FILL_AREA_STYLE_COLOUR ( '', #224 ) ;
#206 = FACE_OUTER_BOUND ( 'NONE', #93, .T. ) ;
#205 = PRODUCT ( '00242', '00242', '', ( #89 ) ) ;
#207 =( NAMED_UNIT ( * ) SI_UNIT ( $, .STERADIAN. ) SOLID_ANGLE_UNIT ( ) );
#208 = AXIS2_PLACEMENT_3D ( 'NONE', #119, #216, #50 ) ;
#209 = CARTESIAN_POINT ( 'NONE',  ( 2.449293598294706414E-16, 2.000000000000000000, 0.000000000000000000 ) ) ;
#210 = CIRCLE ( 'NONE', #297, 0.1562499999999997780 ) ;
#211 = DIRECTION ( 'NONE',  ( 1.567547902908612085E-16, 1.000000000000000000, -0.000000000000000000 ) ) ;
#212 =( CONVERSION_BASED_UNIT ( 'INCH', #72 ) LENGTH_UNIT ( ) NAMED_UNIT ( #193 ) );
#213 = CYLINDRICAL_SURFACE ( 'NONE', #115, 0.1562500000000000000 ) ;
#214 = CIRCLE ( 'NONE', #37, 0.1562499999999997780 ) ;
#215 = CYLINDRICAL_SURFACE ( 'NONE', #208, 0.1562500000000000000 ) ;
#216 = DIRECTION ( 'NONE',  ( -0.000000000000000000, -1.000000000000000000, -0.000000000000000000 ) ) ;
#217 = ORIENTED_EDGE ( 'NONE', *, *, #22, .T. ) ;
#218 = FILL_AREA_STYLE ('',( #172 ) ) ;
#219 = DIMENSIONAL_EXPONENTS ( 1.000000000000000000, 0.000000000000000000, 0.000000000000000000, 0.000000000000000000, 0.000000000000000000, 0.000000000000000000, 0.000000000000000000 ) ;
#220 = CIRCLE ( 'NONE', #44, 0.1562500000000000000 ) ;
#221 = EDGE_CURVE ( 'NONE', #187, #197, #258, .T. ) ;
#222 = PLANE ( 'NONE',  #102 ) ;
#223 = VERTEX_POINT ( 'NONE', #6 ) ;
#224 = COLOUR_RGB ( '',1.000000000000000000, 0.000000000000000000, 0.000000000000000000 ) ;
#225 = DIRECTION ( 'NONE',  ( 1.567547902908612085E-16, 1.000000000000000000, -0.000000000000000000 ) ) ;
#226 = ORIENTED_EDGE ( 'NONE', *, *, #113, .F. ) ;
#227 = DIRECTION ( 'NONE',  ( -1.000000000000000000, 0.000000000000000000, 0.000000000000000000 ) ) ;
#228 = PLANE ( 'NONE',  #306 ) ;
#229 = PRESENTATION_LAYER_ASSIGNMENT (  '', '', ( #234 ) ) ;
#230 =( LENGTH_UNIT ( ) NAMED_UNIT ( * ) SI_UNIT ( $, .METRE. ) );
#231 =( NAMED_UNIT ( * ) SI_UNIT ( $, .STERADIAN. ) SOLID_ANGLE_UNIT ( ) );
#232 = SURFACE_STYLE_FILL_AREA ( #47 ) ;
#233 = DIRECTION ( 'NONE',  ( -1.000000000000000000, 0.000000000000000000, 0.000000000000000000 ) ) ;
#234 = STYLED_ITEM ( 'NONE', ( #145 ), #292 ) ;
#235 = LENGTH_MEASURE_WITH_UNIT ( LENGTH_MEASURE( 0.02539999999999999897 ), #141 );
#236 = CARTESIAN_POINT ( 'NONE',  ( -0.1562500000000000000, 0.4374999999999998890, 0.000000000000000000 ) ) ;
#237 = EDGE_CURVE ( 'NONE', #144, #187, #140, .T. ) ;
#238 =( GEOMETRIC_REPRESENTATION_CONTEXT ( 3 ) GLOBAL_UNCERTAINTY_ASSIGNED_CONTEXT ( ( #31 ) ) GLOBAL_UNIT_ASSIGNED_CONTEXT ( ( #186, #18, #231 ) ) REPRESENTATION_CONTEXT ( 'NONE', 'WORKASPACE' ) );
#239 = AXIS2_PLACEMENT_3D ( 'NONE', #3, #94, #309 ) ;
#240 = PRESENTATION_STYLE_ASSIGNMENT (( #76 ) ) ;
#241 = UNCERTAINTY_MEASURE_WITH_UNIT (LENGTH_MEASURE( 1.000000000000000082E-05 ), #183, 'distance_accuracy_value', 'NONE');
#242 =( NAMED_UNIT ( * ) PLANE_ANGLE_UNIT ( ) SI_UNIT ( $, .RADIAN. ) );
#243 = ORIENTED_EDGE ( 'NONE', *, *, #169, .T. ) ;
#244 = ORIENTED_EDGE ( 'NONE', *, *, #221, .F. ) ;
#245 = VECTOR ( 'NONE', #30, 39.37007874015748143 ) ;
#246 = FILL_AREA_STYLE ('',( #57 ) ) ;
#247 = ORIENTED_EDGE ( 'NONE', *, *, #176, .F. ) ;
#248 =( LENGTH_UNIT ( ) NAMED_UNIT ( * ) SI_UNIT ( $, .METRE. ) );
#249 = EDGE_LOOP ( 'NONE', ( #226, #268 ) ) ;
#250 = DIRECTION ( 'NONE',  ( 1.567547902908612085E-16, 1.000000000000000000, -0.000000000000000000 ) ) ;
#251 = CARTESIAN_POINT ( 'NONE',  ( 0.000000000000000000, 0.000000000000000000, 0.000000000000000000 ) ) ;
#252 = DIRECTION ( 'NONE',  ( 0.000000000000000000, 0.000000000000000000, -1.000000000000000000 ) ) ;
#253 = APPLICATION_PROTOCOL_DEFINITION ( 'draft international standard', 'automotive_design', 1998, #25 ) ;
#254 =( LENGTH_UNIT ( ) NAMED_UNIT ( * ) SI_UNIT ( $, .METRE. ) );
#255 = SHAPE_DEFINITION_REPRESENTATION ( #63, #136 ) ;
#256 = DIRECTION ( 'NONE',  ( 1.567547902908612085E-16, 1.000000000000000000, -0.000000000000000000 ) ) ;
#257 = CARTESIAN_POINT ( 'NONE',  ( 1.913510623667739463E-17, 0.000000000000000000, 0.1562500000000000000 ) ) ;
#258 = LINE ( 'NONE', #174, #8 ) ;
#259 = PRESENTATION_STYLE_ASSIGNMENT (( #286 ) ) ;
#260 = PRESENTATION_LAYER_ASSIGNMENT (  '', '', ( #70 ) ) ;
#261 = AXIS2_PLACEMENT_3D ( 'NONE', #181, #274, #156 ) ;
#262 = SURFACE_STYLE_USAGE ( .BOTH. , #56 ) ;
#263 = DIRECTION ( 'NONE',  ( -1.000000000000000000, 0.000000000000000000, 0.000000000000000000 ) ) ;
#264 = EDGE_CURVE ( 'NONE', #197, #16, #210, .T. ) ;
#265 = CARTESIAN_POINT ( 'NONE',  ( 2.449293598294706414E-16, 2.000000000000000000, 0.000000000000000000 ) ) ;
#266 = STYLED_ITEM ( 'NONE', ( #24 ), #23 ) ;
#267 = CARTESIAN_POINT ( 'NONE',  ( 0.000000000000000000, 0.4374999999999998890, 0.000000000000000000 ) ) ;
#268 = ORIENTED_EDGE ( 'NONE', *, *, #169, .F. ) ;
#269 = EDGE_CURVE ( 'NONE', #58, #84, #65, .T. ) ;
#270 = PRESENTATION_STYLE_ASSIGNMENT (( #262 ) ) ;
#271 = VECTOR ( 'NONE', #256, 39.37007874015748143 ) ;
#272 = AXIS2_PLACEMENT_3D ( 'NONE', #209, #17, #158 ) ;
#273 = LENGTH_MEASURE_WITH_UNIT ( LENGTH_MEASURE( 0.02539999999999999897 ), #254 );
#274 = DIRECTION ( 'NONE',  ( 0.000000000000000000, 0.000000000000000000, 1.000000000000000000 ) ) ;
#275 = SURFACE_STYLE_USAGE ( .BOTH. , #138 ) ;
#276 = SURFACE_SIDE_STYLE ('',( #232 ) ) ;
#277 = MECHANICAL_DESIGN_GEOMETRIC_PRESENTATION_REPRESENTATION (  '', ( #234 ), #121 ) ;
#278 = APPLICATION_PROTOCOL_DEFINITION ( 'draft international standard', 'automotive_design', 1998, #71 ) ;
#279 = CARTESIAN_POINT ( 'NONE',  ( 0.000000000000000000, 0.000000000000000000, 0.000000000000000000 ) ) ;
#280 =( CONVERSION_BASED_UNIT ( 'INCH', #235 ) LENGTH_UNIT ( ) NAMED_UNIT ( #26 ) );
#281 = FILL_AREA_STYLE_COLOUR ( '', #29 ) ;
#282 = STYLED_ITEM ( 'NONE', ( #240 ), #182 ) ;
#283 = DIRECTION ( 'NONE',  ( -0.000000000000000000, -1.000000000000000000, -0.000000000000000000 ) ) ;
#284 = UNCERTAINTY_MEASURE_WITH_UNIT (LENGTH_MEASURE( 1.000000000000000082E-05 ), #166, 'distance_accuracy_value', 'NONE');
#285 = LINE ( 'NONE', #163, #245 ) ;
#286 = SURFACE_STYLE_USAGE ( .BOTH. , #160 ) ;
#287 = LINE ( 'NONE', #81, #60 ) ;
#288 = CIRCLE ( 'NONE', #153, 0.1562500000000000000 ) ;
#289 = AXIS2_PLACEMENT_3D ( 'NONE', #298, #250, #227 ) ;
#290 = DIRECTION ( 'NONE',  ( 0.000000000000000000, 0.000000000000000000, -1.000000000000000000 ) ) ;
#291 = EDGE_LOOP ( 'NONE', ( #38, #7 ) ) ;
#292 = ADVANCED_FACE ( 'NONE', ( #149 ), #194, .T. ) ;
#293 = PRESENTATION_LAYER_ASSIGNMENT (  '', '', ( #92 ) ) ;
#294 = CYLINDRICAL_SURFACE ( 'NONE', #272, 0.1562499999999998612 ) ;
#295 = EDGE_LOOP ( 'NONE', ( #161, #10, #127, #200 ) ) ;
#296 = AXIS2_PLACEMENT_3D ( 'NONE', #188, #2, #142 ) ;
#297 = AXIS2_PLACEMENT_3D ( 'NONE', #265, #103, #83 ) ;
#298 = CARTESIAN_POINT ( 'NONE',  ( 2.449293598294706414E-16, 2.000000000000000000, 0.000000000000000000 ) ) ;
#299 = CARTESIAN_POINT ( 'NONE',  ( 0.000000000000000000, 0.000000000000000000, 0.000000000000000000 ) ) ;
#300 = ADVANCED_FACE ( 'NONE', ( #206 ), #294, .T. ) ;
#301 = DIRECTION ( 'NONE',  ( -0.000000000000000000, -1.000000000000000000, -0.000000000000000000 ) ) ;
#302 =( NAMED_UNIT ( * ) SI_UNIT ( $, .STERADIAN. ) SOLID_ANGLE_UNIT ( ) );
#303 = FACE_OUTER_BOUND ( 'NONE', #291, .T. ) ;
#304 = CLOSED_SHELL ( 'NONE', ( #305, #28, #300, #75 ) ) ;
#305 = ADVANCED_FACE ( 'NONE', ( #134 ), #155, .T. ) ;
#306 = AXIS2_PLACEMENT_3D ( 'NONE', #19, #211, #111 ) ;
#307 =( GEOMETRIC_REPRESENTATION_CONTEXT ( 3 ) GLOBAL_UNCERTAINTY_ASSIGNED_CONTEXT ( ( #99 ) ) GLOBAL_UNIT_ASSIGNED_CONTEXT ( ( #212, #132, #207 ) ) REPRESENTATION_CONTEXT ( 'NONE', 'WORKASPACE' ) );
#308 = FACE_OUTER_BOUND ( 'NONE', #61, .T. ) ;
#309 = DIRECTION ( 'NONE',  ( -1.000000000000000000, 0.000000000000000000, 0.000000000000000000 ) ) ;
ENDSEC;
END-ISO-10303-21;
