ISO-10303-21;
HEADER;
FILE_DESCRIPTION (( 'STEP AP214' ),
    '1' );
FILE_NAME ('44512.STEP',
    '2023-06-22T20:48:30',
    ( '' ),
    ( '' ),
    'SwSTEP 2.0',
    'SolidWorks 2023',
    '' );
FILE_SCHEMA (( 'AUTOMOTIVE_DESIGN' ));
ENDSEC;

DATA;
#1 = PRESENTATION_STYLE_ASSIGNMENT (( #162 ) ) ;
#2 = AXIS2_PLACEMENT_3D ( 'NONE', #69, #62, #110 ) ;
#3 = FILL_AREA_STYLE ('',( #248 ) ) ;
#4 = EDGE_LOOP ( 'NONE', ( #6, #199 ) ) ;
#5 = EDGE_CURVE ( 'NONE', #270, #14, #249, .T. ) ;
#6 = ORIENTED_EDGE ( 'NONE', *, *, #178, .F. ) ;
#7 = ORIENTED_EDGE ( 'NONE', *, *, #189, .F. ) ;
#8 = EDGE_CURVE ( 'NONE', #100, #79, #221, .T. ) ;
#9 = PRESENTATION_STYLE_ASSIGNMENT (( #122 ) ) ;
#10 = DIRECTION ( 'NONE',  ( -4.898587196589408761E-17, 1.000000000000000000, -0.000000000000000000 ) ) ;
#11 = ORIENTED_EDGE ( 'NONE', *, *, #279, .F. ) ;
#12 = DIRECTION ( 'NONE',  ( -4.898587196589408761E-17, 1.000000000000000000, -0.000000000000000000 ) ) ;
#13 = DIRECTION ( 'NONE',  ( -4.898587196589408761E-17, 1.000000000000000000, -0.000000000000000000 ) ) ;
#14 = VERTEX_POINT ( 'NONE', #103 ) ;
#15 =( GEOMETRIC_REPRESENTATION_CONTEXT ( 3 ) GLOBAL_UNCERTAINTY_ASSIGNED_CONTEXT ( ( #19 ) ) GLOBAL_UNIT_ASSIGNED_CONTEXT ( ( #213, #95, #49 ) ) REPRESENTATION_CONTEXT ( 'NONE', 'WORKASPACE' ) );
#16 =( GEOMETRIC_REPRESENTATION_CONTEXT ( 3 ) GLOBAL_UNCERTAINTY_ASSIGNED_CONTEXT ( ( #30 ) ) GLOBAL_UNIT_ASSIGNED_CONTEXT ( ( #92, #183, #164 ) ) REPRESENTATION_CONTEXT ( 'NONE', 'WORKASPACE' ) );
#17 = FILL_AREA_STYLE ('',( #20 ) ) ;
#18 = FILL_AREA_STYLE ('',( #275 ) ) ;
#19 = UNCERTAINTY_MEASURE_WITH_UNIT (LENGTH_MEASURE( 1.000000000000000082E-05 ), #213, 'distance_accuracy_value', 'NONE');
#20 = FILL_AREA_STYLE_COLOUR ( '', #220 ) ;
#21 = CARTESIAN_POINT ( 'NONE',  ( -0.6250000000000000000, 4.500000000000000000, 0.000000000000000000 ) ) ;
#22 = CARTESIAN_POINT ( 'NONE',  ( 7.654042494670957853E-17, 0.000000000000000000, 0.6250000000000000000 ) ) ;
#23 = DIMENSIONAL_EXPONENTS ( 1.000000000000000000, 0.000000000000000000, 0.000000000000000000, 0.000000000000000000, 0.000000000000000000, 0.000000000000000000, 0.000000000000000000 ) ;
#24 = AXIS2_PLACEMENT_3D ( 'NONE', #47, #136, #130 ) ;
#25 = DIRECTION ( 'NONE',  ( 0.000000000000000000, 0.000000000000000000, -1.000000000000000000 ) ) ;
#26 = AXIS2_PLACEMENT_3D ( 'NONE', #278, #39, #150 ) ;
#27 = ADVANCED_BREP_SHAPE_REPRESENTATION ( '44512', ( #144, #254, #77 ), #15 ) ;
#28 = AXIS2_PLACEMENT_3D ( 'NONE', #288, #182, #308 ) ;
#29 = AXIS2_PLACEMENT_3D ( 'NONE', #66, #157, #259 ) ;
#30 = UNCERTAINTY_MEASURE_WITH_UNIT (LENGTH_MEASURE( 1.000000000000000082E-05 ), #92, 'distance_accuracy_value', 'NONE');
#31 = ADVANCED_FACE ( 'NONE', ( #285 ), #67, .T. ) ;
#32 = EDGE_LOOP ( 'NONE', ( #246, #292, #56, #89 ) ) ;
#33 = PLANE ( 'NONE',  #190 ) ;
#34 = SURFACE_STYLE_FILL_AREA ( #3 ) ;
#35 = ORIENTED_EDGE ( 'NONE', *, *, #225, .F. ) ;
#36 = MECHANICAL_DESIGN_GEOMETRIC_PRESENTATION_REPRESENTATION (  '', ( #71 ), #16 ) ;
#37 = EDGE_LOOP ( 'NONE', ( #119, #172, #147, #35 ) ) ;
#38 = CARTESIAN_POINT ( 'NONE',  ( 0.000000000000000000, 0.000000000000000000, 0.000000000000000000 ) ) ;
#39 = DIRECTION ( 'NONE',  ( -4.898587196589408761E-17, 1.000000000000000000, -0.000000000000000000 ) ) ;
#40 = AXIS2_PLACEMENT_3D ( 'NONE', #223, #12, #91 ) ;
#41 = CARTESIAN_POINT ( 'NONE',  ( 0.6250000000000000000, 7.000000000000000000, 0.000000000000000000 ) ) ;
#42 = CARTESIAN_POINT ( 'NONE',  ( 0.000000000000000000, 0.000000000000000000, -0.6250000000000000000 ) ) ;
#43 = SURFACE_STYLE_USAGE ( .BOTH. , #112 ) ;
#44 = VECTOR ( 'NONE', #284, 39.37007874015748143 ) ;
#45 =( CONVERSION_BASED_UNIT ( 'INCH', #114 ) LENGTH_UNIT ( ) NAMED_UNIT ( #307 ) );
#46 = COLOUR_RGB ( '',1.000000000000000000, 0.000000000000000000, 0.000000000000000000 ) ;
#47 = CARTESIAN_POINT ( 'NONE',  ( -1.224646799147351975E-16, 7.000000000000000000, 0.000000000000000000 ) ) ;
#48 = APPLICATION_CONTEXT ( 'automotive_design' ) ;
#49 =( NAMED_UNIT ( * ) SI_UNIT ( $, .STERADIAN. ) SOLID_ANGLE_UNIT ( ) );
#50 = DIRECTION ( 'NONE',  ( -0.000000000000000000, -1.000000000000000000, -0.000000000000000000 ) ) ;
#51 = PRESENTATION_LAYER_ASSIGNMENT (  '', '', ( #297 ) ) ;
#52 = ADVANCED_FACE ( 'NONE', ( #83 ), #255, .F. ) ;
#53 = EDGE_LOOP ( 'NONE', ( #7, #11 ) ) ;
#54 = VERTEX_POINT ( 'NONE', #21 ) ;
#55 = CARTESIAN_POINT ( 'NONE',  ( 0.000000000000000000, 0.000000000000000000, 0.000000000000000000 ) ) ;
#56 = ORIENTED_EDGE ( 'NONE', *, *, #93, .F. ) ;
#57 = CIRCLE ( 'NONE', #98, 0.6250000000000000000 ) ;
#58 = DIRECTION ( 'NONE',  ( -0.000000000000000000, -1.000000000000000000, -0.000000000000000000 ) ) ;
#59 = ORIENTED_EDGE ( 'NONE', *, *, #93, .T. ) ;
#60 =( NAMED_UNIT ( * ) PLANE_ANGLE_UNIT ( ) SI_UNIT ( $, .RADIAN. ) );
#61 =( LENGTH_UNIT ( ) NAMED_UNIT ( * ) SI_UNIT ( $, .METRE. ) );
#62 = DIRECTION ( 'NONE',  ( -0.000000000000000000, -1.000000000000000000, -0.000000000000000000 ) ) ;
#63 = DIRECTION ( 'NONE',  ( -0.000000000000000000, -1.000000000000000000, -0.000000000000000000 ) ) ;
#64 =( GEOMETRIC_REPRESENTATION_CONTEXT ( 3 ) GLOBAL_UNCERTAINTY_ASSIGNED_CONTEXT ( ( #74 ) ) GLOBAL_UNIT_ASSIGNED_CONTEXT ( ( #209, #293, #253 ) ) REPRESENTATION_CONTEXT ( 'NONE', 'WORKASPACE' ) );
#65 = PRESENTATION_STYLE_ASSIGNMENT (( #160 ) ) ;
#66 = CARTESIAN_POINT ( 'NONE',  ( 7.498798913309276920E-34, 4.500000000000000000, 0.000000000000000000 ) ) ;
#67 = CYLINDRICAL_SURFACE ( 'NONE', #2, 0.6250000000000000000 ) ;
#68 = DIRECTION ( 'NONE',  ( 0.000000000000000000, 0.000000000000000000, -1.000000000000000000 ) ) ;
#69 = CARTESIAN_POINT ( 'NONE',  ( 0.000000000000000000, 0.000000000000000000, 0.000000000000000000 ) ) ;
#70 = PRODUCT_CONTEXT ( 'NONE', #166, 'mechanical' ) ;
#71 = STYLED_ITEM ( 'NONE', ( #165 ), #156 ) ;
#72 = SURFACE_STYLE_FILL_AREA ( #264 ) ;
#73 = FILL_AREA_STYLE_COLOUR ( '', #211 ) ;
#74 = UNCERTAINTY_MEASURE_WITH_UNIT (LENGTH_MEASURE( 1.000000000000000082E-05 ), #209, 'distance_accuracy_value', 'NONE');
#75 = CLOSED_SHELL ( 'NONE', ( #156, #159, #31, #168 ) ) ;
#76 = COLOUR_RGB ( '',1.000000000000000000, 0.000000000000000000, 0.000000000000000000 ) ;
#77 = AXIS2_PLACEMENT_3D ( 'NONE', #235, #210, #299 ) ;
#78 = CIRCLE ( 'NONE', #191, 0.6250000000000000000 ) ;
#79 = VERTEX_POINT ( 'NONE', #206 ) ;
#80 = STYLED_ITEM ( 'NONE', ( #9 ), #159 ) ;
#81 = FILL_AREA_STYLE_COLOUR ( '', #46 ) ;
#82 = LENGTH_MEASURE_WITH_UNIT ( LENGTH_MEASURE( 0.02539999999999999897 ), #258 );
#83 = FACE_OUTER_BOUND ( 'NONE', #88, .T. ) ;
#84 = FACE_OUTER_BOUND ( 'NONE', #4, .T. ) ;
#85 =( GEOMETRIC_REPRESENTATION_CONTEXT ( 3 ) GLOBAL_UNCERTAINTY_ASSIGNED_CONTEXT ( ( #257 ) ) GLOBAL_UNIT_ASSIGNED_CONTEXT ( ( #252, #60, #135 ) ) REPRESENTATION_CONTEXT ( 'NONE', 'WORKASPACE' ) );
#86 = PRODUCT_RELATED_PRODUCT_CATEGORY ( 'part', '', ( #97 ) ) ;
#87 = CARTESIAN_POINT ( 'NONE',  ( 0.000000000000000000, 4.500000000000000000, -0.6250000000000000000 ) ) ;
#88 = EDGE_LOOP ( 'NONE', ( #59, #222 ) ) ;
#89 = ORIENTED_EDGE ( 'NONE', *, *, #298, .F. ) ;
#90 = CARTESIAN_POINT ( 'NONE',  ( 7.654042494670957853E-17, 4.500000000000000000, 0.6250000000000000000 ) ) ;
#91 = DIRECTION ( 'NONE',  ( -1.000000000000000000, 0.000000000000000000, 0.000000000000000000 ) ) ;
#92 =( CONVERSION_BASED_UNIT ( 'INCH', #300 ) LENGTH_UNIT ( ) NAMED_UNIT ( #23 ) );
#93 = EDGE_CURVE ( 'NONE', #251, #79, #125, .T. ) ;
#94 = FILL_AREA_STYLE ('',( #241 ) ) ;
#95 =( NAMED_UNIT ( * ) PLANE_ANGLE_UNIT ( ) SI_UNIT ( $, .RADIAN. ) );
#96 = SURFACE_STYLE_FILL_AREA ( #94 ) ;
#97 = PRODUCT ( '44512', '44512', '', ( #70 ) ) ;
#98 = AXIS2_PLACEMENT_3D ( 'NONE', #200, #276, #153 ) ;
#99 = CIRCLE ( 'NONE', #290, 0.6250000000000000000 ) ;
#100 = VERTEX_POINT ( 'NONE', #158 ) ;
#101 = AXIS2_PLACEMENT_3D ( 'NONE', #205, #58, #250 ) ;
#102 = ADVANCED_FACE ( 'NONE', ( #202 ), #105, .T. ) ;
#103 = CARTESIAN_POINT ( 'NONE',  ( 7.654042494670957853E-17, 0.000000000000000000, 0.6250000000000000000 ) ) ;
#104 =( NAMED_UNIT ( * ) SI_UNIT ( $, .STERADIAN. ) SOLID_ANGLE_UNIT ( ) );
#105 = CYLINDRICAL_SURFACE ( 'NONE', #24, 0.6250000000000000000 ) ;
#106 = PRESENTATION_LAYER_ASSIGNMENT (  '', '', ( #80 ) ) ;
#107 = DIRECTION ( 'NONE',  ( 0.000000000000000000, 1.000000000000000000, 0.000000000000000000 ) ) ;
#108 =( NAMED_UNIT ( * ) PLANE_ANGLE_UNIT ( ) SI_UNIT ( $, .RADIAN. ) );
#109 = CARTESIAN_POINT ( 'NONE',  ( 0.000000000000000000, 4.500000000000000000, 0.000000000000000000 ) ) ;
#110 = DIRECTION ( 'NONE',  ( 0.000000000000000000, 0.000000000000000000, -1.000000000000000000 ) ) ;
#111 = DIRECTION ( 'NONE',  ( -0.000000000000000000, -1.000000000000000000, -0.000000000000000000 ) ) ;
#112 = SURFACE_SIDE_STYLE ('',( #231 ) ) ;
#113 = SURFACE_SIDE_STYLE ('',( #96 ) ) ;
#114 = LENGTH_MEASURE_WITH_UNIT ( LENGTH_MEASURE( 0.02539999999999999897 ), #186 );
#115 = STYLED_ITEM ( 'NONE', ( #132 ), #168 ) ;
#116 =( LENGTH_UNIT ( ) NAMED_UNIT ( * ) SI_UNIT ( $, .METRE. ) );
#117 = DIMENSIONAL_EXPONENTS ( 1.000000000000000000, 0.000000000000000000, 0.000000000000000000, 0.000000000000000000, 0.000000000000000000, 0.000000000000000000, 0.000000000000000000 ) ;
#118 = PRESENTATION_LAYER_ASSIGNMENT (  '', '', ( #115 ) ) ;
#119 = ORIENTED_EDGE ( 'NONE', *, *, #189, .T. ) ;
#120 = ORIENTED_EDGE ( 'NONE', *, *, #8, .F. ) ;
#121 = ORIENTED_EDGE ( 'NONE', *, *, #279, .T. ) ;
#122 = SURFACE_STYLE_USAGE ( .BOTH. , #124 ) ;
#123 = VERTEX_POINT ( 'NONE', #87 ) ;
#124 = SURFACE_SIDE_STYLE ('',( #34 ) ) ;
#125 = CIRCLE ( 'NONE', #287, 0.6250000000000001110 ) ;
#126 =( LENGTH_UNIT ( ) NAMED_UNIT ( * ) SI_UNIT ( $, .METRE. ) );
#127 = DIRECTION ( 'NONE',  ( 0.000000000000000000, 0.000000000000000000, -1.000000000000000000 ) ) ;
#128 = ORIENTED_EDGE ( 'NONE', *, *, #198, .F. ) ;
#129 = LINE ( 'NONE', #42, #197 ) ;
#130 = DIRECTION ( 'NONE',  ( -1.000000000000000000, 0.000000000000000000, 0.000000000000000000 ) ) ;
#131 = AXIS2_PLACEMENT_3D ( 'NONE', #140, #236, #25 ) ;
#132 = PRESENTATION_STYLE_ASSIGNMENT (( #173 ) ) ;
#133 = DIRECTION ( 'NONE',  ( 4.898587196589408761E-17, -1.000000000000000000, 0.000000000000000000 ) ) ;
#134 = UNCERTAINTY_MEASURE_WITH_UNIT (LENGTH_MEASURE( 1.000000000000000082E-05 ), #45, 'distance_accuracy_value', 'NONE');
#135 =( NAMED_UNIT ( * ) SI_UNIT ( $, .STERADIAN. ) SOLID_ANGLE_UNIT ( ) );
#136 = DIRECTION ( 'NONE',  ( -4.898587196589408761E-17, 1.000000000000000000, -0.000000000000000000 ) ) ;
#137 = FACE_OUTER_BOUND ( 'NONE', #32, .T. ) ;
#138 = CARTESIAN_POINT ( 'NONE',  ( 0.000000000000000000, 0.000000000000000000, -0.6250000000000000000 ) ) ;
#139 = APPLICATION_PROTOCOL_DEFINITION ( 'draft international standard', 'automotive_design', 1998, #48 ) ;
#140 = CARTESIAN_POINT ( 'NONE',  ( 0.000000000000000000, 0.000000000000000000, 0.000000000000000000 ) ) ;
#141 = DIMENSIONAL_EXPONENTS ( 1.000000000000000000, 0.000000000000000000, 0.000000000000000000, 0.000000000000000000, 0.000000000000000000, 0.000000000000000000, 0.000000000000000000 ) ;
#142 = LINE ( 'NONE', #240, #44 ) ;
#143 = PRESENTATION_LAYER_ASSIGNMENT (  '', '', ( #71 ) ) ;
#144 = MANIFOLD_SOLID_BREP ( 'Revolve - Cutting Edge', #75 ) ;
#145 = CIRCLE ( 'NONE', #28, 0.6250000000000000000 ) ;
#146 = UNCERTAINTY_MEASURE_WITH_UNIT (LENGTH_MEASURE( 1.000000000000000082E-05 ), #226, 'distance_accuracy_value', 'NONE');
#147 = ORIENTED_EDGE ( 'NONE', *, *, #5, .F. ) ;
#148 = DIRECTION ( 'NONE',  ( -0.000000000000000000, -1.000000000000000000, -0.000000000000000000 ) ) ;
#149 = AXIS2_PLACEMENT_3D ( 'NONE', #55, #148, #127 ) ;
#150 = DIRECTION ( 'NONE',  ( -1.000000000000000000, 0.000000000000000000, 0.000000000000000000 ) ) ;
#151 = EDGE_LOOP ( 'NONE', ( #171, #121, #169, #128 ) ) ;
#152 = DIRECTION ( 'NONE',  ( 0.000000000000000000, -1.000000000000000000, -0.000000000000000000 ) ) ;
#153 = DIRECTION ( 'NONE',  ( -1.000000000000000000, 0.000000000000000000, 0.000000000000000000 ) ) ;
#154 = COLOUR_RGB ( '',0.7921568627450980005, 0.8196078431372548767, 0.9333333333333333481 ) ;
#155 = DIRECTION ( 'NONE',  ( 0.000000000000000000, 0.000000000000000000, -1.000000000000000000 ) ) ;
#156 = ADVANCED_FACE ( 'NONE', ( #309 ), #196, .T. ) ;
#157 = DIRECTION ( 'NONE',  ( -4.898587196589408761E-17, 1.000000000000000000, 0.000000000000000000 ) ) ;
#158 = CARTESIAN_POINT ( 'NONE',  ( 0.6250000000000000000, 4.500000000000000000, 7.654042494670957853E-17 ) ) ;
#159 = ADVANCED_FACE ( 'NONE', ( #306 ), #33, .T. ) ;
#160 = SURFACE_STYLE_USAGE ( .BOTH. , #174 ) ;
#161 = AXIS2_PLACEMENT_3D ( 'NONE', #230, #152, #181 ) ;
#162 = SURFACE_STYLE_USAGE ( .BOTH. , #243 ) ;
#163 = LENGTH_MEASURE_WITH_UNIT ( LENGTH_MEASURE( 0.02539999999999999897 ), #116 );
#164 =( NAMED_UNIT ( * ) SI_UNIT ( $, .STERADIAN. ) SOLID_ANGLE_UNIT ( ) );
#165 = PRESENTATION_STYLE_ASSIGNMENT (( #302 ) ) ;
#166 = APPLICATION_CONTEXT ( 'automotive_design' ) ;
#167 = CIRCLE ( 'NONE', #26, 0.6250000000000001110 ) ;
#168 = ADVANCED_FACE ( 'NONE', ( #282 ), #175, .T. ) ;
#169 = ORIENTED_EDGE ( 'NONE', *, *, #225, .T. ) ;
#170 = MECHANICAL_DESIGN_GEOMETRIC_PRESENTATION_REPRESENTATION (  '', ( #115 ), #85 ) ;
#171 = ORIENTED_EDGE ( 'NONE', *, *, #237, .F. ) ;
#172 = ORIENTED_EDGE ( 'NONE', *, *, #237, .T. ) ;
#173 = SURFACE_STYLE_USAGE ( .BOTH. , #208 ) ;
#174 = SURFACE_SIDE_STYLE ('',( #233 ) ) ;
#175 = PLANE ( 'NONE',  #161 ) ;
#176 =( GEOMETRIC_REPRESENTATION_CONTEXT ( 3 ) GLOBAL_UNCERTAINTY_ASSIGNED_CONTEXT ( ( #146 ) ) GLOBAL_UNIT_ASSIGNED_CONTEXT ( ( #226, #108, #295 ) ) REPRESENTATION_CONTEXT ( 'NONE', 'WORKASPACE' ) );
#177 = PLANE ( 'NONE',  #29 ) ;
#178 = EDGE_CURVE ( 'NONE', #54, #100, #57, .T. ) ;
#179 = PRESENTATION_STYLE_ASSIGNMENT (( #43 ) ) ;
#180 = ORIENTED_EDGE ( 'NONE', *, *, #301, .T. ) ;
#181 = DIRECTION ( 'NONE',  ( 0.000000000000000000, 0.000000000000000000, -1.000000000000000000 ) ) ;
#182 = DIRECTION ( 'NONE',  ( -4.898587196589408761E-17, 1.000000000000000000, -0.000000000000000000 ) ) ;
#183 =( NAMED_UNIT ( * ) PLANE_ANGLE_UNIT ( ) SI_UNIT ( $, .RADIAN. ) );
#184 =( GEOMETRIC_REPRESENTATION_CONTEXT ( 3 ) GLOBAL_UNCERTAINTY_ASSIGNED_CONTEXT ( ( #216 ) ) GLOBAL_UNIT_ASSIGNED_CONTEXT ( ( #227, #294, #104 ) ) REPRESENTATION_CONTEXT ( 'NONE', 'WORKASPACE' ) );
#185 = CARTESIAN_POINT ( 'NONE',  ( -0.6250000000000003331, 7.000000000000000000, 0.000000000000000000 ) ) ;
#186 =( LENGTH_UNIT ( ) NAMED_UNIT ( * ) SI_UNIT ( $, .METRE. ) );
#187 = VECTOR ( 'NONE', #10, 39.37007874015748143 ) ;
#188 = EDGE_CURVE ( 'NONE', #79, #251, #167, .T. ) ;
#189 = EDGE_CURVE ( 'NONE', #123, #261, #272, .T. ) ;
#190 = AXIS2_PLACEMENT_3D ( 'NONE', #109, #107, #224 ) ;
#191 = AXIS2_PLACEMENT_3D ( 'NONE', #38, #63, #155 ) ;
#192 = ORIENTED_EDGE ( 'NONE', *, *, #298, .T. ) ;
#193 = LENGTH_MEASURE_WITH_UNIT ( LENGTH_MEASURE( 0.02539999999999999897 ), #126 );
#194 =( LENGTH_UNIT ( ) NAMED_UNIT ( * ) SI_UNIT ( $, .METRE. ) );
#195 = STYLED_ITEM ( 'NONE', ( #1 ), #254 ) ;
#196 = CYLINDRICAL_SURFACE ( 'NONE', #131, 0.6250000000000000000 ) ;
#197 = VECTOR ( 'NONE', #111, 39.37007874015748143 ) ;
#198 = EDGE_CURVE ( 'NONE', #14, #270, #78, .T. ) ;
#199 = ORIENTED_EDGE ( 'NONE', *, *, #301, .F. ) ;
#200 = CARTESIAN_POINT ( 'NONE',  ( 0.000000000000000000, 4.500000000000000000, 0.000000000000000000 ) ) ;
#201 = CARTESIAN_POINT ( 'NONE',  ( -1.224646799147351975E-16, 7.000000000000000000, 0.000000000000000000 ) ) ;
#202 = FACE_OUTER_BOUND ( 'NONE', #217, .T. ) ;
#203 = EDGE_LOOP ( 'NONE', ( #247, #273 ) ) ;
#204 = PRODUCT_DEFINITION_CONTEXT ( 'detailed design', #48, 'design' ) ;
#205 = CARTESIAN_POINT ( 'NONE',  ( 0.000000000000000000, 4.500000000000000000, 0.000000000000000000 ) ) ;
#206 = CARTESIAN_POINT ( 'NONE',  ( 0.6250000000000000000, 7.000000000000000000, 7.654042494670957853E-17 ) ) ;
#207 = CLOSED_SHELL ( 'NONE', ( #229, #214, #102, #52 ) ) ;
#208 = SURFACE_SIDE_STYLE ('',( #296 ) ) ;
#209 =( CONVERSION_BASED_UNIT ( 'INCH', #280 ) LENGTH_UNIT ( ) NAMED_UNIT ( #267 ) );
#210 = DIRECTION ( 'NONE',  ( 0.000000000000000000, 0.000000000000000000, 1.000000000000000000 ) ) ;
#211 = COLOUR_RGB ( '',0.7921568627450980005, 0.8196078431372548767, 0.9333333333333333481 ) ;
#212 =( NAMED_UNIT ( * ) PLANE_ANGLE_UNIT ( ) SI_UNIT ( $, .RADIAN. ) );
#213 =( CONVERSION_BASED_UNIT ( 'INCH', #163 ) LENGTH_UNIT ( ) NAMED_UNIT ( #242 ) );
#214 = ADVANCED_FACE ( 'NONE', ( #84 ), #177, .F. ) ;
#215 = STYLED_ITEM ( 'NONE', ( #65 ), #31 ) ;
#216 = UNCERTAINTY_MEASURE_WITH_UNIT (LENGTH_MEASURE( 1.000000000000000082E-05 ), #227, 'distance_accuracy_value', 'NONE');
#217 = EDGE_LOOP ( 'NONE', ( #120, #180, #192, #218 ) ) ;
#218 = ORIENTED_EDGE ( 'NONE', *, *, #188, .F. ) ;
#219 = MECHANICAL_DESIGN_GEOMETRIC_PRESENTATION_REPRESENTATION (  '', ( #195 ), #291 ) ;
#220 = COLOUR_RGB ( '',1.000000000000000000, 0.000000000000000000, 0.000000000000000000 ) ;
#221 = LINE ( 'NONE', #245, #187 ) ;
#222 = ORIENTED_EDGE ( 'NONE', *, *, #188, .T. ) ;
#223 = CARTESIAN_POINT ( 'NONE',  ( -1.224646799147351975E-16, 7.000000000000000000, 0.000000000000000000 ) ) ;
#224 = DIRECTION ( 'NONE',  ( 0.000000000000000000, -0.000000000000000000, 1.000000000000000000 ) ) ;
#225 = EDGE_CURVE ( 'NONE', #123, #270, #129, .T. ) ;
#226 =( CONVERSION_BASED_UNIT ( 'INCH', #82 ) LENGTH_UNIT ( ) NAMED_UNIT ( #303 ) );
#227 =( CONVERSION_BASED_UNIT ( 'INCH', #193 ) LENGTH_UNIT ( ) NAMED_UNIT ( #141 ) );
#228 = DIRECTION ( 'NONE',  ( 1.000000000000000000, 4.898587196589408761E-17, 0.000000000000000000 ) ) ;
#229 = ADVANCED_FACE ( 'NONE', ( #137 ), #232, .T. ) ;
#230 = CARTESIAN_POINT ( 'NONE',  ( 0.000000000000000000, 0.000000000000000000, 0.000000000000000000 ) ) ;
#231 = SURFACE_STYLE_FILL_AREA ( #18 ) ;
#232 = CYLINDRICAL_SURFACE ( 'NONE', #40, 0.6250000000000000000 ) ;
#233 = SURFACE_STYLE_FILL_AREA ( #260 ) ;
#234 = AXIS2_PLACEMENT_3D ( 'NONE', #41, #133, #228 ) ;
#235 = CARTESIAN_POINT ( 'NONE',  ( 0.000000000000000000, 0.000000000000000000, 0.000000000000000000 ) ) ;
#236 = DIRECTION ( 'NONE',  ( -0.000000000000000000, -1.000000000000000000, -0.000000000000000000 ) ) ;
#237 = EDGE_CURVE ( 'NONE', #261, #14, #266, .T. ) ;
#238 = PRODUCT_DEFINITION_SHAPE ( 'NONE', 'NONE',  #263 ) ;
#239 = MECHANICAL_DESIGN_GEOMETRIC_PRESENTATION_REPRESENTATION (  '', ( #215 ), #176 ) ;
#240 = CARTESIAN_POINT ( 'NONE',  ( -0.6250000000000001110, 7.000000000000000000, 0.000000000000000000 ) ) ;
#241 = FILL_AREA_STYLE_COLOUR ( '', #281 ) ;
#242 = DIMENSIONAL_EXPONENTS ( 1.000000000000000000, 0.000000000000000000, 0.000000000000000000, 0.000000000000000000, 0.000000000000000000, 0.000000000000000000, 0.000000000000000000 ) ;
#243 = SURFACE_SIDE_STYLE ('',( #72 ) ) ;
#244 =( LENGTH_UNIT ( ) NAMED_UNIT ( * ) SI_UNIT ( $, .METRE. ) );
#245 = CARTESIAN_POINT ( 'NONE',  ( 0.6249999999999998890, 7.000000000000000000, 7.654042494670957853E-17 ) ) ;
#246 = ORIENTED_EDGE ( 'NONE', *, *, #178, .T. ) ;
#247 = ORIENTED_EDGE ( 'NONE', *, *, #5, .T. ) ;
#248 = FILL_AREA_STYLE_COLOUR ( '', #76 ) ;
#249 = CIRCLE ( 'NONE', #149, 0.6250000000000000000 ) ;
#250 = DIRECTION ( 'NONE',  ( 0.000000000000000000, 0.000000000000000000, -1.000000000000000000 ) ) ;
#251 = VERTEX_POINT ( 'NONE', #185 ) ;
#252 =( CONVERSION_BASED_UNIT ( 'INCH', #274 ) LENGTH_UNIT ( ) NAMED_UNIT ( #117 ) );
#253 =( NAMED_UNIT ( * ) SI_UNIT ( $, .STERADIAN. ) SOLID_ANGLE_UNIT ( ) );
#254 = MANIFOLD_SOLID_BREP ( 'Revolve - Tool Body (Straight Shanked)', #207 ) ;
#255 = PLANE ( 'NONE',  #234 ) ;
#256 = PRESENTATION_LAYER_ASSIGNMENT (  '', '', ( #215 ) ) ;
#257 = UNCERTAINTY_MEASURE_WITH_UNIT (LENGTH_MEASURE( 1.000000000000000082E-05 ), #252, 'distance_accuracy_value', 'NONE');
#258 =( LENGTH_UNIT ( ) NAMED_UNIT ( * ) SI_UNIT ( $, .METRE. ) );
#259 = DIRECTION ( 'NONE',  ( -1.000000000000000000, -4.898587196589408761E-17, 0.000000000000000000 ) ) ;
#260 = FILL_AREA_STYLE ('',( #81 ) ) ;
#261 = VERTEX_POINT ( 'NONE', #90 ) ;
#262 =( NAMED_UNIT ( * ) SI_UNIT ( $, .STERADIAN. ) SOLID_ANGLE_UNIT ( ) );
#263 = PRODUCT_DEFINITION ( 'UNKNOWN', '', #271, #204 ) ;
#264 = FILL_AREA_STYLE ('',( #73 ) ) ;
#265 = MECHANICAL_DESIGN_GEOMETRIC_PRESENTATION_REPRESENTATION (  '', ( #297 ), #64 ) ;
#266 = LINE ( 'NONE', #22, #269 ) ;
#267 = DIMENSIONAL_EXPONENTS ( 1.000000000000000000, 0.000000000000000000, 0.000000000000000000, 0.000000000000000000, 0.000000000000000000, 0.000000000000000000, 0.000000000000000000 ) ;
#268 = SHAPE_DEFINITION_REPRESENTATION ( #238, #27 ) ;
#269 = VECTOR ( 'NONE', #289, 39.37007874015748143 ) ;
#270 = VERTEX_POINT ( 'NONE', #138 ) ;
#271 = PRODUCT_DEFINITION_FORMATION_WITH_SPECIFIED_SOURCE ( 'ANY', '', #97, .NOT_KNOWN. ) ;
#272 = CIRCLE ( 'NONE', #101, 0.6250000000000000000 ) ;
#273 = ORIENTED_EDGE ( 'NONE', *, *, #198, .T. ) ;
#274 = LENGTH_MEASURE_WITH_UNIT ( LENGTH_MEASURE( 0.02539999999999999897 ), #194 );
#275 = FILL_AREA_STYLE_COLOUR ( '', #154 ) ;
#276 = DIRECTION ( 'NONE',  ( -4.898587196589408761E-17, 1.000000000000000000, -0.000000000000000000 ) ) ;
#277 = PRESENTATION_LAYER_ASSIGNMENT (  '', '', ( #195 ) ) ;
#278 = CARTESIAN_POINT ( 'NONE',  ( -1.224646799147351975E-16, 7.000000000000000000, 0.000000000000000000 ) ) ;
#279 = EDGE_CURVE ( 'NONE', #261, #123, #99, .T. ) ;
#280 = LENGTH_MEASURE_WITH_UNIT ( LENGTH_MEASURE( 0.02539999999999999897 ), #61 );
#281 = COLOUR_RGB ( '',1.000000000000000000, 0.000000000000000000, 0.000000000000000000 ) ;
#282 = FACE_OUTER_BOUND ( 'NONE', #203, .T. ) ;
#283 = DIRECTION ( 'NONE',  ( -1.000000000000000000, 0.000000000000000000, 0.000000000000000000 ) ) ;
#284 = DIRECTION ( 'NONE',  ( -4.898587196589408761E-17, 1.000000000000000000, -0.000000000000000000 ) ) ;
#285 = FACE_OUTER_BOUND ( 'NONE', #151, .T. ) ;
#286 = APPLICATION_PROTOCOL_DEFINITION ( 'draft international standard', 'automotive_design', 1998, #166 ) ;
#287 = AXIS2_PLACEMENT_3D ( 'NONE', #201, #13, #283 ) ;
#288 = CARTESIAN_POINT ( 'NONE',  ( 0.000000000000000000, 4.500000000000000000, 0.000000000000000000 ) ) ;
#289 = DIRECTION ( 'NONE',  ( -0.000000000000000000, -1.000000000000000000, -0.000000000000000000 ) ) ;
#290 = AXIS2_PLACEMENT_3D ( 'NONE', #305, #50, #68 ) ;
#291 =( GEOMETRIC_REPRESENTATION_CONTEXT ( 3 ) GLOBAL_UNCERTAINTY_ASSIGNED_CONTEXT ( ( #134 ) ) GLOBAL_UNIT_ASSIGNED_CONTEXT ( ( #45, #212, #262 ) ) REPRESENTATION_CONTEXT ( 'NONE', 'WORKASPACE' ) );
#292 = ORIENTED_EDGE ( 'NONE', *, *, #8, .T. ) ;
#293 =( NAMED_UNIT ( * ) PLANE_ANGLE_UNIT ( ) SI_UNIT ( $, .RADIAN. ) );
#294 =( NAMED_UNIT ( * ) PLANE_ANGLE_UNIT ( ) SI_UNIT ( $, .RADIAN. ) );
#295 =( NAMED_UNIT ( * ) SI_UNIT ( $, .STERADIAN. ) SOLID_ANGLE_UNIT ( ) );
#296 = SURFACE_STYLE_FILL_AREA ( #17 ) ;
#297 = STYLED_ITEM ( 'NONE', ( #179 ), #144 ) ;
#298 = EDGE_CURVE ( 'NONE', #54, #251, #142, .T. ) ;
#299 = DIRECTION ( 'NONE',  ( 1.000000000000000000, 0.000000000000000000, 0.000000000000000000 ) ) ;
#300 = LENGTH_MEASURE_WITH_UNIT ( LENGTH_MEASURE( 0.02539999999999999897 ), #244 );
#301 = EDGE_CURVE ( 'NONE', #100, #54, #145, .T. ) ;
#302 = SURFACE_STYLE_USAGE ( .BOTH. , #113 ) ;
#303 = DIMENSIONAL_EXPONENTS ( 1.000000000000000000, 0.000000000000000000, 0.000000000000000000, 0.000000000000000000, 0.000000000000000000, 0.000000000000000000, 0.000000000000000000 ) ;
#304 = MECHANICAL_DESIGN_GEOMETRIC_PRESENTATION_REPRESENTATION (  '', ( #80 ), #184 ) ;
#305 = CARTESIAN_POINT ( 'NONE',  ( 0.000000000000000000, 4.500000000000000000, 0.000000000000000000 ) ) ;
#306 = FACE_OUTER_BOUND ( 'NONE', #53, .T. ) ;
#307 = DIMENSIONAL_EXPONENTS ( 1.000000000000000000, 0.000000000000000000, 0.000000000000000000, 0.000000000000000000, 0.000000000000000000, 0.000000000000000000, 0.000000000000000000 ) ;
#308 = DIRECTION ( 'NONE',  ( -1.000000000000000000, 0.000000000000000000, 0.000000000000000000 ) ) ;
#309 = FACE_OUTER_BOUND ( 'NONE', #37, .T. ) ;
ENDSEC;
END-ISO-10303-21;
