ISO-10303-21;
HEADER;
FILE_DESCRIPTION (( 'STEP AP214' ),
    '1' );
FILE_NAME ('Micro_GEM-875-4.STEP',
    '2021-09-01T21:07:51',
    ( '' ),
    ( '' ),
    'SwSTEP 2.0',
    'SolidWorks 2020',
    '' );
FILE_SCHEMA (( 'AUTOMOTIVE_DESIGN' ));
ENDSEC;

DATA;
#1 = CLOSED_SHELL ( 'NONE', ( #10, #121, #93, #128, #139, #110, #96, #42, #169, #105 ) ) ;
#2 = CARTESIAN_POINT ( 'NONE',  ( 6.554887600096482523E-33, 0.0000000000000000000, 5.352471916523400854E-17 ) ) ;
#3 =( LENGTH_UNIT ( ) NAMED_UNIT ( * ) SI_UNIT ( $, .METRE. ) );
#4 = COLOUR_RGB ( '',0.7921568627450980005, 0.8196078431372548767, 0.9333333333333333481 ) ;
#5 = EDGE_LOOP ( 'NONE', ( #97, #7 ) ) ;
#6 = ORIENTED_EDGE ( 'NONE', *, *, #276, .T. ) ;
#7 = ORIENTED_EDGE ( 'NONE', *, *, #209, .T. ) ;
#8 = ORIENTED_EDGE ( 'NONE', *, *, #57, .F. ) ;
#9 = CYLINDRICAL_SURFACE ( 'NONE', #108, 0.4370625000000000204 ) ;
#10 = ADVANCED_FACE ( 'NONE', ( #239 ), #9, .T. ) ;
#11 = CARTESIAN_POINT ( 'NONE',  ( 1.836970198721030181E-16, 0.0000000000000000000, 1.500000000000000222 ) ) ;
#12 = CARTESIAN_POINT ( 'NONE',  ( -0.4370624999999997429, 5.355150831396535799E-17, 1.500000000000000222 ) ) ;
#13 = AXIS2_PLACEMENT_3D ( 'NONE', #227, #158, #246 ) ;
#14 = AXIS2_PLACEMENT_3D ( 'NONE', #52, #81, #149 ) ;
#15 = FACE_OUTER_BOUND ( 'NONE', #5, .T. ) ;
#16 = DIRECTION ( 'NONE',  ( -1.224646799147353207E-16, -0.0000000000000000000, -1.000000000000000000 ) ) ;
#17 = CARTESIAN_POINT ( 'NONE',  ( 0.0000000000000000000, 0.0000000000000000000, 4.000000000000000000 ) ) ;
#18 = CARTESIAN_POINT ( 'NONE',  ( 1.840008774964292920E-16, 0.0000000000000000000, 1.502481185796082919 ) ) ;
#19 = DIRECTION ( 'NONE',  ( 0.0000000000000000000, 0.0000000000000000000, -1.000000000000000000 ) ) ;
#20 = CONICAL_SURFACE ( 'NONE', #90, 0.4224999999999995981, 0.7853981633974346233 ) ;
#21 = DIRECTION ( 'NONE',  ( -0.1736481776669312471, 2.126576849575783933E-17, 0.9848077530122077983 ) ) ;
#22 = ORIENTED_EDGE ( 'NONE', *, *, #235, .T. ) ;
#23 = DIRECTION ( 'NONE',  ( -1.000000000000000000, 0.0000000000000000000, 1.224646799147353207E-16 ) ) ;
#24 = EDGE_CURVE ( 'NONE', #198, #217, #80, .T. ) ;
#25 =( GEOMETRIC_REPRESENTATION_CONTEXT ( 3 ) GLOBAL_UNCERTAINTY_ASSIGNED_CONTEXT ( ( #83 ) ) GLOBAL_UNIT_ASSIGNED_CONTEXT ( ( #119, #166, #162 ) ) REPRESENTATION_CONTEXT ( 'NONE', 'WORKASPACE' ) );
#26 = EDGE_LOOP ( 'NONE', ( #197, #54, #153, #264 ) ) ;
#27 = CARTESIAN_POINT ( 'NONE',  ( 0.4370625000000001870, 0.0000000000000000000, 1.500000000000000222 ) ) ;
#28 = EDGE_CURVE ( 'NONE', #31, #150, #38, .T. ) ;
#29 = DIRECTION ( 'NONE',  ( -1.000000000000000000, 0.0000000000000000000, 1.224646799147353207E-16 ) ) ;
#30 = CARTESIAN_POINT ( 'NONE',  ( 0.0000000000000000000, 0.0000000000000000000, 3.984999999999998987 ) ) ;
#31 = VERTEX_POINT ( 'NONE', #27 ) ;
#32 = VECTOR ( 'NONE', #248, 39.37007874015748143 ) ;
#33 =( NAMED_UNIT ( * ) SI_UNIT ( $, .STERADIAN. ) SOLID_ANGLE_UNIT ( ) );
#34 = ORIENTED_EDGE ( 'NONE', *, *, #57, .T. ) ;
#35 = DIRECTION ( 'NONE',  ( 1.000000000000000000, 0.0000000000000000000, -0.0000000000000000000 ) ) ;
#36 = FACE_OUTER_BOUND ( 'NONE', #102, .T. ) ;
#37 = PRESENTATION_LAYER_ASSIGNMENT (  '', '', ( #263 ) ) ;
#38 = CIRCLE ( 'NONE', #14, 0.4370624999999999649 ) ;
#39 = FACE_OUTER_BOUND ( 'NONE', #179, .T. ) ;
#40 = DIRECTION ( 'NONE',  ( 1.000000000000000000, 0.0000000000000000000, 0.0000000000000000000 ) ) ;
#41 = CARTESIAN_POINT ( 'NONE',  ( 1.840008774964292920E-16, 0.0000000000000000000, 1.502481185796082919 ) ) ;
#42 = ADVANCED_FACE ( 'NONE', ( #39 ), #215, .T. ) ;
#43 = DIRECTION ( 'NONE',  ( -1.224646799147353207E-16, -0.0000000000000000000, -1.000000000000000000 ) ) ;
#44 = UNCERTAINTY_MEASURE_WITH_UNIT (LENGTH_MEASURE( 1.000000000000000082E-05 ), #100, 'distance_accuracy_value', 'NONE');
#45 =( GEOMETRIC_REPRESENTATION_CONTEXT ( 3 ) GLOBAL_UNCERTAINTY_ASSIGNED_CONTEXT ( ( #44 ) ) GLOBAL_UNIT_ASSIGNED_CONTEXT ( ( #100, #55, #180 ) ) REPRESENTATION_CONTEXT ( 'NONE', 'WORKASPACE' ) );
#46 = CONICAL_SURFACE ( 'NONE', #13, 0.4224999999999995981, 0.7853981633974346233 ) ;
#47 = CARTESIAN_POINT ( 'NONE',  ( 6.554887600096482523E-33, 0.0000000000000000000, 5.352471916523400854E-17 ) ) ;
#48 = EDGE_CURVE ( 'NONE', #198, #287, #145, .T. ) ;
#49 = DIRECTION ( 'NONE',  ( 1.000000000000000000, 0.0000000000000000000, 0.0000000000000000000 ) ) ;
#50 = ORIENTED_EDGE ( 'NONE', *, *, #72, .F. ) ;
#51 = CONICAL_SURFACE ( 'NONE', #262, 0.4370624999999999649, 0.1745329251994339748 ) ;
#52 = CARTESIAN_POINT ( 'NONE',  ( 1.836970198721030181E-16, 0.0000000000000000000, 1.500000000000000222 ) ) ;
#53 = ORIENTED_EDGE ( 'NONE', *, *, #235, .F. ) ;
#54 = ORIENTED_EDGE ( 'NONE', *, *, #48, .F. ) ;
#55 =( NAMED_UNIT ( * ) PLANE_ANGLE_UNIT ( ) SI_UNIT ( $, .RADIAN. ) );
#56 = ORIENTED_EDGE ( 'NONE', *, *, #209, .F. ) ;
#57 = EDGE_CURVE ( 'NONE', #279, #238, #249, .T. ) ;
#58 =( CONVERSION_BASED_UNIT ( 'INCH', #204 ) LENGTH_UNIT ( ) NAMED_UNIT ( #71 ) );
#59 = CARTESIAN_POINT ( 'NONE',  ( 0.0000000000000000000, 0.0000000000000000000, 4.000000000000000000 ) ) ;
#60 = CARTESIAN_POINT ( 'NONE',  ( 0.0000000000000000000, 0.0000000000000000000, 4.000000000000000000 ) ) ;
#61 = AXIS2_PLACEMENT_3D ( 'NONE', #30, #122, #49 ) ;
#62 = PRODUCT ( 'Micro_GEM-875-4', 'Micro_GEM-875-4', '', ( #214 ) ) ;
#63 = FACE_OUTER_BOUND ( 'NONE', #221, .T. ) ;
#64 = AXIS2_PLACEMENT_3D ( 'NONE', #208, #292, #23 ) ;
#65 = CARTESIAN_POINT ( 'NONE',  ( -0.4370625000000000204, 0.0000000000000000000, 1.070494383304680171E-16 ) ) ;
#66 = FACE_OUTER_BOUND ( 'NONE', #282, .T. ) ;
#67 = EDGE_CURVE ( 'NONE', #31, #238, #181, .T. ) ;
#68 = DIRECTION ( 'NONE',  ( -0.0000000000000000000, -0.0000000000000000000, -1.000000000000000000 ) ) ;
#69 = AXIS2_PLACEMENT_3D ( 'NONE', #41, #16, #211 ) ;
#70 = SURFACE_SIDE_STYLE ('',( #194 ) ) ;
#71 = DIMENSIONAL_EXPONENTS ( 1.000000000000000000, 0.0000000000000000000, 0.0000000000000000000, 0.0000000000000000000, 0.0000000000000000000, 0.0000000000000000000, 0.0000000000000000000 ) ;
#72 = EDGE_CURVE ( 'NONE', #150, #125, #188, .T. ) ;
#73 = AXIS2_PLACEMENT_3D ( 'NONE', #85, #290, #134 ) ;
#74 = ORIENTED_EDGE ( 'NONE', *, *, #115, .T. ) ;
#75 = CARTESIAN_POINT ( 'NONE',  ( 0.0000000000000000000, 0.0000000000000000000, 0.0000000000000000000 ) ) ;
#76 = AXIS2_PLACEMENT_3D ( 'NONE', #206, #224, #289 ) ;
#77 = EDGE_LOOP ( 'NONE', ( #233, #6, #148, #50 ) ) ;
#78 = AXIS2_PLACEMENT_3D ( 'NONE', #288, #142, #293 ) ;
#79 = AXIS2_PLACEMENT_3D ( 'NONE', #17, #271, #40 ) ;
#80 = LINE ( 'NONE', #203, #202 ) ;
#81 = DIRECTION ( 'NONE',  ( -1.224646799147353207E-16, -0.0000000000000000000, -1.000000000000000000 ) ) ;
#82 = SURFACE_SIDE_STYLE ('',( #103 ) ) ;
#83 = UNCERTAINTY_MEASURE_WITH_UNIT (LENGTH_MEASURE( 1.000000000000000082E-05 ), #119, 'distance_accuracy_value', 'NONE');
#84 = DIRECTION ( 'NONE',  ( 1.224646799147353207E-16, 0.0000000000000000000, 1.000000000000000000 ) ) ;
#85 = CARTESIAN_POINT ( 'NONE',  ( 0.0000000000000000000, 0.0000000000000000000, 4.000000000000000000 ) ) ;
#86 = LENGTH_MEASURE_WITH_UNIT ( LENGTH_MEASURE( 0.02539999999999999897 ), #182 );
#87 = EDGE_CURVE ( 'NONE', #287, #106, #183, .T. ) ;
#88 = DIRECTION ( 'NONE',  ( -1.224646799147353207E-16, -0.0000000000000000000, -1.000000000000000000 ) ) ;
#89 = DIRECTION ( 'NONE',  ( 0.0000000000000000000, 0.0000000000000000000, 1.000000000000000000 ) ) ;
#90 = AXIS2_PLACEMENT_3D ( 'NONE', #275, #295, #252 ) ;
#91 = DIRECTION ( 'NONE',  ( 1.000000000000000000, 0.0000000000000000000, 0.0000000000000000000 ) ) ;
#92 = LINE ( 'NONE', #258, #201 ) ;
#93 = ADVANCED_FACE ( 'NONE', ( #63 ), #46, .T. ) ;
#94 = SURFACE_STYLE_USAGE ( .BOTH. , #70 ) ;
#95 = ORIENTED_EDGE ( 'NONE', *, *, #241, .F. ) ;
#96 = ADVANCED_FACE ( 'NONE', ( #244 ), #20, .T. ) ;
#97 = ORIENTED_EDGE ( 'NONE', *, *, #259, .T. ) ;
#98 = ORIENTED_EDGE ( 'NONE', *, *, #234, .T. ) ;
#99 = PRODUCT_DEFINITION_SHAPE ( 'NONE', 'NONE',  #245 ) ;
#100 =( CONVERSION_BASED_UNIT ( 'INCH', #86 ) LENGTH_UNIT ( ) NAMED_UNIT ( #163 ) );
#101 = AXIS2_PLACEMENT_3D ( 'NONE', #18, #254, #256 ) ;
#102 = EDGE_LOOP ( 'NONE', ( #22, #98, #8, #200 ) ) ;
#103 = SURFACE_STYLE_FILL_AREA ( #155 ) ;
#104 = VECTOR ( 'NONE', #68, 39.37007874015748143 ) ;
#105 = ADVANCED_FACE ( 'NONE', ( #15 ), #135, .F. ) ;
#106 = VERTEX_POINT ( 'NONE', #210 ) ;
#107 = DIRECTION ( 'NONE',  ( -1.000000000000000000, 0.0000000000000000000, 0.0000000000000000000 ) ) ;
#108 = AXIS2_PLACEMENT_3D ( 'NONE', #75, #261, #29 ) ;
#109 = FACE_OUTER_BOUND ( 'NONE', #240, .T. ) ;
#110 = ADVANCED_FACE ( 'NONE', ( #114 ), #207, .T. ) ;
#111 = ADVANCED_BREP_SHAPE_REPRESENTATION ( 'Micro_GEM-875-4', ( #247, #78 ), #45 ) ;
#112 = CYLINDRICAL_SURFACE ( 'NONE', #64, 0.4370625000000000204 ) ;
#113 = DIRECTION ( 'NONE',  ( 0.7071067811865378028, 8.659560562354815762E-17, -0.7071067811865571207 ) ) ;
#114 = FACE_OUTER_BOUND ( 'NONE', #281, .T. ) ;
#115 = EDGE_CURVE ( 'NONE', #287, #198, #273, .T. ) ;
#116 = LINE ( 'NONE', #144, #104 ) ;
#117 = LINE ( 'NONE', #140, #187 ) ;
#118 = PRODUCT_DEFINITION_CONTEXT ( 'detailed design', #267, 'design' ) ;
#119 =( CONVERSION_BASED_UNIT ( 'INCH', #298 ) LENGTH_UNIT ( ) NAMED_UNIT ( #195 ) );
#120 = DIRECTION ( 'NONE',  ( -1.000000000000000000, 0.0000000000000000000, 1.224646799147353207E-16 ) ) ;
#121 = ADVANCED_FACE ( 'NONE', ( #66 ), #51, .T. ) ;
#122 = DIRECTION ( 'NONE',  ( 0.0000000000000000000, 0.0000000000000000000, -1.000000000000000000 ) ) ;
#123 = ORIENTED_EDGE ( 'NONE', *, *, #190, .F. ) ;
#124 = AXIS2_PLACEMENT_3D ( 'NONE', #47, #164, #120 ) ;
#125 = VERTEX_POINT ( 'NONE', #65 ) ;
#126 = VECTOR ( 'NONE', #43, 39.37007874015748143 ) ;
#127 = ORIENTED_EDGE ( 'NONE', *, *, #48, .T. ) ;
#128 = ADVANCED_FACE ( 'NONE', ( #36 ), #159, .T. ) ;
#129 = CIRCLE ( 'NONE', #124, 0.4370625000000000204 ) ;
#130 = ORIENTED_EDGE ( 'NONE', *, *, #173, .T. ) ;
#131 = ORIENTED_EDGE ( 'NONE', *, *, #299, .T. ) ;
#132 = CARTESIAN_POINT ( 'NONE',  ( 0.4370625000000001870, 0.0000000000000000000, 1.500000000000000222 ) ) ;
#133 = CIRCLE ( 'NONE', #76, 0.4370624999999999649 ) ;
#134 = DIRECTION ( 'NONE',  ( -1.000000000000000000, 0.0000000000000000000, 0.0000000000000000000 ) ) ;
#135 = PLANE ( 'NONE',  #257 ) ;
#136 = PRESENTATION_LAYER_ASSIGNMENT (  '', '', ( #270 ) ) ;
#137 = APPLICATION_PROTOCOL_DEFINITION ( 'draft international standard', 'automotive_design', 1998, #267 ) ;
#138 = DIRECTION ( 'NONE',  ( -0.0000000000000000000, -0.0000000000000000000, -1.000000000000000000 ) ) ;
#139 = ADVANCED_FACE ( 'NONE', ( #223 ), #156, .T. ) ;
#140 = CARTESIAN_POINT ( 'NONE',  ( -0.4370624999999997429, 5.352471916523400238E-17, 1.500000000000000222 ) ) ;
#141 =( GEOMETRIC_REPRESENTATION_CONTEXT ( 3 ) GLOBAL_UNCERTAINTY_ASSIGNED_CONTEXT ( ( #231 ) ) GLOBAL_UNIT_ASSIGNED_CONTEXT ( ( #58, #152, #33 ) ) REPRESENTATION_CONTEXT ( 'NONE', 'WORKASPACE' ) );
#142 = DIRECTION ( 'NONE',  ( 0.0000000000000000000, 0.0000000000000000000, 1.000000000000000000 ) ) ;
#143 = EDGE_CURVE ( 'NONE', #150, #31, #133, .T. ) ;
#144 = CARTESIAN_POINT ( 'NONE',  ( 0.4375000000000000000, 5.357829746269670127E-17, 4.000000000000000000 ) ) ;
#145 = CIRCLE ( 'NONE', #79, 0.4224999999999995981 ) ;
#146 = MECHANICAL_DESIGN_GEOMETRIC_PRESENTATION_REPRESENTATION (  '', ( #263 ), #141 ) ;
#147 = FILL_AREA_STYLE_COLOUR ( '', #176 ) ;
#148 = ORIENTED_EDGE ( 'NONE', *, *, #259, .F. ) ;
#149 = DIRECTION ( 'NONE',  ( -1.000000000000000000, 0.0000000000000000000, 0.0000000000000000000 ) ) ;
#150 = VERTEX_POINT ( 'NONE', #12 ) ;
#151 = ORIENTED_EDGE ( 'NONE', *, *, #28, .T. ) ;
#152 =( NAMED_UNIT ( * ) PLANE_ANGLE_UNIT ( ) SI_UNIT ( $, .RADIAN. ) );
#153 = ORIENTED_EDGE ( 'NONE', *, *, #24, .T. ) ;
#154 = CARTESIAN_POINT ( 'NONE',  ( 1.836970198721030181E-16, 0.0000000000000000000, 1.500000000000000222 ) ) ;
#155 = FILL_AREA_STYLE ('',( #220 ) ) ;
#156 = CYLINDRICAL_SURFACE ( 'NONE', #172, 0.4375000000000000000 ) ;
#157 = SHAPE_DEFINITION_REPRESENTATION ( #99, #111 ) ;
#158 = DIRECTION ( 'NONE',  ( 0.0000000000000000000, 0.0000000000000000000, -1.000000000000000000 ) ) ;
#159 = CYLINDRICAL_SURFACE ( 'NONE', #73, 0.4375000000000000000 ) ;
#160 = CARTESIAN_POINT ( 'NONE',  ( 0.0000000000000000000, 0.0000000000000000000, 0.0000000000000000000 ) ) ;
#161 = PRESENTATION_STYLE_ASSIGNMENT (( #94 ) ) ;
#162 =( NAMED_UNIT ( * ) SI_UNIT ( $, .STERADIAN. ) SOLID_ANGLE_UNIT ( ) );
#163 = DIMENSIONAL_EXPONENTS ( 1.000000000000000000, 0.0000000000000000000, 0.0000000000000000000, 0.0000000000000000000, 0.0000000000000000000, 0.0000000000000000000, 0.0000000000000000000 ) ;
#164 = DIRECTION ( 'NONE',  ( -1.224646799147353207E-16, -0.0000000000000000000, -1.000000000000000000 ) ) ;
#165 = ORIENTED_EDGE ( 'NONE', *, *, #190, .T. ) ;
#166 =( NAMED_UNIT ( * ) PLANE_ANGLE_UNIT ( ) SI_UNIT ( $, .RADIAN. ) );
#167 = VECTOR ( 'NONE', #88, 39.37007874015748143 ) ;
#168 = CARTESIAN_POINT ( 'NONE',  ( 0.4375000000000001665, 5.357829746269672593E-17, 1.502481185796082919 ) ) ;
#169 = ADVANCED_FACE ( 'NONE', ( #109 ), #112, .T. ) ;
#170 = VERTEX_POINT ( 'NONE', #213 ) ;
#171 = ORIENTED_EDGE ( 'NONE', *, *, #115, .F. ) ;
#172 = AXIS2_PLACEMENT_3D ( 'NONE', #59, #138, #107 ) ;
#173 = EDGE_CURVE ( 'NONE', #217, #279, #92, .T. ) ;
#174 = ORIENTED_EDGE ( 'NONE', *, *, #143, .F. ) ;
#175 = PRESENTATION_STYLE_ASSIGNMENT (( #178 ) ) ;
#176 = COLOUR_RGB ( '',0.7921568627450980005, 0.8196078431372548767, 0.9333333333333333481 ) ;
#177 = ORIENTED_EDGE ( 'NONE', *, *, #241, .T. ) ;
#178 = SURFACE_STYLE_USAGE ( .BOTH. , #82 ) ;
#179 = EDGE_LOOP ( 'NONE', ( #95, #219, #260, #165 ) ) ;
#180 =( NAMED_UNIT ( * ) SI_UNIT ( $, .STERADIAN. ) SOLID_ANGLE_UNIT ( ) );
#181 = LINE ( 'NONE', #132, #32 ) ;
#182 =( LENGTH_UNIT ( ) NAMED_UNIT ( * ) SI_UNIT ( $, .METRE. ) );
#183 = LINE ( 'NONE', #272, #285 ) ;
#184 = CARTESIAN_POINT ( 'NONE',  ( 0.4224999999999995981, 5.265981236333616375E-17, 4.000000000000000000 ) ) ;
#185 = CARTESIAN_POINT ( 'NONE',  ( -0.4370625000000000204, 0.0000000000000000000, 5.352471916523400854E-17 ) ) ;
#186 = DIRECTION ( 'NONE',  ( 1.000000000000000000, 0.0000000000000000000, 0.0000000000000000000 ) ) ;
#187 = VECTOR ( 'NONE', #21, 39.37007874015748143 ) ;
#188 = LINE ( 'NONE', #185, #167 ) ;
#189 = DIRECTION ( 'NONE',  ( -0.0000000000000000000, -0.0000000000000000000, -1.000000000000000000 ) ) ;
#190 = EDGE_CURVE ( 'NONE', #238, #279, #232, .T. ) ;
#191 = LINE ( 'NONE', #230, #126 ) ;
#192 = AXIS2_PLACEMENT_3D ( 'NONE', #269, #296, #91 ) ;
#193 = AXIS2_PLACEMENT_3D ( 'NONE', #60, #89, #35 ) ;
#194 = SURFACE_STYLE_FILL_AREA ( #253 ) ;
#195 = DIMENSIONAL_EXPONENTS ( 1.000000000000000000, 0.0000000000000000000, 0.0000000000000000000, 0.0000000000000000000, 0.0000000000000000000, 0.0000000000000000000, 0.0000000000000000000 ) ;
#196 = CIRCLE ( 'NONE', #291, 0.4375000000000000000 ) ;
#197 = ORIENTED_EDGE ( 'NONE', *, *, #87, .F. ) ;
#198 = VERTEX_POINT ( 'NONE', #228 ) ;
#199 = PRODUCT_RELATED_PRODUCT_CATEGORY ( 'part', '', ( #62 ) ) ;
#200 = ORIENTED_EDGE ( 'NONE', *, *, #173, .F. ) ;
#201 = VECTOR ( 'NONE', #189, 39.37007874015748143 ) ;
#202 = VECTOR ( 'NONE', #205, 39.37007874015748854 ) ;
#203 = CARTESIAN_POINT ( 'NONE',  ( -0.4224999999999995981, 0.0000000000000000000, 4.000000000000000000 ) ) ;
#204 = LENGTH_MEASURE_WITH_UNIT ( LENGTH_MEASURE( 0.02539999999999999897 ), #266 );
#205 = DIRECTION ( 'NONE',  ( -0.7071067811865378028, 0.0000000000000000000, -0.7071067811865571207 ) ) ;
#206 = CARTESIAN_POINT ( 'NONE',  ( 1.836970198721030181E-16, 0.0000000000000000000, 1.500000000000000222 ) ) ;
#207 = PLANE ( 'NONE',  #193 ) ;
#208 = CARTESIAN_POINT ( 'NONE',  ( 0.0000000000000000000, 0.0000000000000000000, 0.0000000000000000000 ) ) ;
#209 = EDGE_CURVE ( 'NONE', #170, #125, #129, .T. ) ;
#210 = CARTESIAN_POINT ( 'NONE',  ( 0.4375000000000000000, 5.357829746269670127E-17, 3.984999999999998987 ) ) ;
#211 = DIRECTION ( 'NONE',  ( 1.000000000000000000, 0.0000000000000000000, 0.0000000000000000000 ) ) ;
#212 = DIRECTION ( 'NONE',  ( 1.000000000000000000, 0.0000000000000000000, 0.0000000000000000000 ) ) ;
#213 = CARTESIAN_POINT ( 'NONE',  ( 0.4370625000000000204, 5.352471916523400854E-17, 0.0000000000000000000 ) ) ;
#214 = PRODUCT_CONTEXT ( 'NONE', #251, 'mechanical' ) ;
#215 = CONICAL_SURFACE ( 'NONE', #283, 0.4370624999999999649, 0.1745329251994339748 ) ;
#216 = CARTESIAN_POINT ( 'NONE',  ( 0.0000000000000000000, 0.0000000000000000000, 3.984999999999998987 ) ) ;
#217 = VERTEX_POINT ( 'NONE', #277 ) ;
#218 = ORIENTED_EDGE ( 'NONE', *, *, #276, .F. ) ;
#219 = ORIENTED_EDGE ( 'NONE', *, *, #28, .F. ) ;
#220 = FILL_AREA_STYLE_COLOUR ( '', #4 ) ;
#221 = EDGE_LOOP ( 'NONE', ( #171, #268, #53, #242 ) ) ;
#222 = DIRECTION ( 'NONE',  ( 0.0000000000000000000, 0.0000000000000000000, 1.000000000000000000 ) ) ;
#223 = FACE_OUTER_BOUND ( 'NONE', #255, .T. ) ;
#224 = DIRECTION ( 'NONE',  ( -1.224646799147353207E-16, -0.0000000000000000000, -1.000000000000000000 ) ) ;
#225 = DIRECTION ( 'NONE',  ( 1.000000000000000000, 0.0000000000000000000, -0.0000000000000000000 ) ) ;
#226 = CIRCLE ( 'NONE', #61, 0.4375000000000000000 ) ;
#227 = CARTESIAN_POINT ( 'NONE',  ( 0.0000000000000000000, 0.0000000000000000000, 4.000000000000000000 ) ) ;
#228 = CARTESIAN_POINT ( 'NONE',  ( -0.4224999999999995981, 0.0000000000000000000, 4.000000000000000000 ) ) ;
#229 = DIRECTION ( 'NONE',  ( -1.224646799147353207E-16, -0.0000000000000000000, -1.000000000000000000 ) ) ;
#230 = CARTESIAN_POINT ( 'NONE',  ( 0.4370625000000000204, 5.352471916523400854E-17, -5.352471916523400854E-17 ) ) ;
#231 = UNCERTAINTY_MEASURE_WITH_UNIT (LENGTH_MEASURE( 1.000000000000000082E-05 ), #58, 'distance_accuracy_value', 'NONE');
#232 = CIRCLE ( 'NONE', #101, 0.4375000000000000000 ) ;
#233 = ORIENTED_EDGE ( 'NONE', *, *, #143, .T. ) ;
#234 = EDGE_CURVE ( 'NONE', #106, #238, #116, .T. ) ;
#235 = EDGE_CURVE ( 'NONE', #217, #106, #196, .T. ) ;
#236 = ORIENTED_EDGE ( 'NONE', *, *, #234, .F. ) ;
#237 = PRODUCT_DEFINITION_FORMATION_WITH_SPECIFIED_SOURCE ( 'ANY', '', #62, .NOT_KNOWN. ) ;
#238 = VERTEX_POINT ( 'NONE', #168 ) ;
#239 = FACE_OUTER_BOUND ( 'NONE', #77, .T. ) ;
#240 = EDGE_LOOP ( 'NONE', ( #218, #151, #265, #56 ) ) ;
#241 = EDGE_CURVE ( 'NONE', #150, #279, #117, .T. ) ;
#242 = ORIENTED_EDGE ( 'NONE', *, *, #24, .F. ) ;
#243 = CARTESIAN_POINT ( 'NONE',  ( -0.4374999999999997780, 0.0000000000000000000, 1.502481185796082919 ) ) ;
#244 = FACE_OUTER_BOUND ( 'NONE', #26, .T. ) ;
#245 = PRODUCT_DEFINITION ( 'UNKNOWN', '', #237, #118 ) ;
#246 = DIRECTION ( 'NONE',  ( -1.000000000000000000, 0.0000000000000000000, 0.0000000000000000000 ) ) ;
#247 = MANIFOLD_SOLID_BREP ( 'Cut-Revolve1', #1 ) ;
#248 = DIRECTION ( 'NONE',  ( 0.1736481776669314692, 0.0000000000000000000, 0.9848077530122077983 ) ) ;
#249 = CIRCLE ( 'NONE', #69, 0.4375000000000000000 ) ;
#250 = DIRECTION ( 'NONE',  ( 1.000000000000000000, 0.0000000000000000000, 0.0000000000000000000 ) ) ;
#251 = APPLICATION_CONTEXT ( 'automotive_design' ) ;
#252 = DIRECTION ( 'NONE',  ( -1.000000000000000000, 0.0000000000000000000, 0.0000000000000000000 ) ) ;
#253 = FILL_AREA_STYLE ('',( #147 ) ) ;
#254 = DIRECTION ( 'NONE',  ( -1.224646799147353207E-16, -0.0000000000000000000, -1.000000000000000000 ) ) ;
#255 = EDGE_LOOP ( 'NONE', ( #236, #131, #130, #123 ) ) ;
#256 = DIRECTION ( 'NONE',  ( 1.000000000000000000, 0.0000000000000000000, 0.0000000000000000000 ) ) ;
#257 = AXIS2_PLACEMENT_3D ( 'NONE', #160, #222, #225 ) ;
#258 = CARTESIAN_POINT ( 'NONE',  ( -0.4375000000000000000, 0.0000000000000000000, 4.000000000000000000 ) ) ;
#259 = EDGE_CURVE ( 'NONE', #125, #170, #294, .T. ) ;
#260 = ORIENTED_EDGE ( 'NONE', *, *, #67, .T. ) ;
#261 = DIRECTION ( 'NONE',  ( -1.224646799147353207E-16, -0.0000000000000000000, -1.000000000000000000 ) ) ;
#262 = AXIS2_PLACEMENT_3D ( 'NONE', #11, #274, #250 ) ;
#263 = STYLED_ITEM ( 'NONE', ( #175 ), #111 ) ;
#264 = ORIENTED_EDGE ( 'NONE', *, *, #299, .F. ) ;
#265 = ORIENTED_EDGE ( 'NONE', *, *, #72, .T. ) ;
#266 =( LENGTH_UNIT ( ) NAMED_UNIT ( * ) SI_UNIT ( $, .METRE. ) );
#267 = APPLICATION_CONTEXT ( 'automotive_design' ) ;
#268 = ORIENTED_EDGE ( 'NONE', *, *, #87, .T. ) ;
#269 = CARTESIAN_POINT ( 'NONE',  ( 0.0000000000000000000, 0.0000000000000000000, 4.000000000000000000 ) ) ;
#270 = STYLED_ITEM ( 'NONE', ( #161 ), #247 ) ;
#271 = DIRECTION ( 'NONE',  ( 0.0000000000000000000, 0.0000000000000000000, 1.000000000000000000 ) ) ;
#272 = CARTESIAN_POINT ( 'NONE',  ( 0.4224999999999995981, 5.174132726397562006E-17, 4.000000000000000000 ) ) ;
#273 = CIRCLE ( 'NONE', #192, 0.4224999999999995981 ) ;
#274 = DIRECTION ( 'NONE',  ( 1.224646799147353207E-16, 0.0000000000000000000, 1.000000000000000000 ) ) ;
#275 = CARTESIAN_POINT ( 'NONE',  ( 0.0000000000000000000, 0.0000000000000000000, 4.000000000000000000 ) ) ;
#276 = EDGE_CURVE ( 'NONE', #31, #170, #191, .T. ) ;
#277 = CARTESIAN_POINT ( 'NONE',  ( -0.4375000000000000000, 0.0000000000000000000, 3.984999999999998987 ) ) ;
#278 = DIRECTION ( 'NONE',  ( -1.000000000000000000, 0.0000000000000000000, 1.224646799147353207E-16 ) ) ;
#279 = VERTEX_POINT ( 'NONE', #243 ) ;
#280 = MECHANICAL_DESIGN_GEOMETRIC_PRESENTATION_REPRESENTATION (  '', ( #270 ), #25 ) ;
#281 = EDGE_LOOP ( 'NONE', ( #127, #74 ) ) ;
#282 = EDGE_LOOP ( 'NONE', ( #174, #177, #34, #286 ) ) ;
#283 = AXIS2_PLACEMENT_3D ( 'NONE', #154, #84, #186 ) ;
#284 = APPLICATION_PROTOCOL_DEFINITION ( 'draft international standard', 'automotive_design', 1998, #251 ) ;
#285 = VECTOR ( 'NONE', #113, 39.37007874015748854 ) ;
#286 = ORIENTED_EDGE ( 'NONE', *, *, #67, .F. ) ;
#287 = VERTEX_POINT ( 'NONE', #184 ) ;
#288 = CARTESIAN_POINT ( 'NONE',  ( 0.0000000000000000000, 0.0000000000000000000, 0.0000000000000000000 ) ) ;
#289 = DIRECTION ( 'NONE',  ( -1.000000000000000000, 0.0000000000000000000, 0.0000000000000000000 ) ) ;
#290 = DIRECTION ( 'NONE',  ( -0.0000000000000000000, -0.0000000000000000000, -1.000000000000000000 ) ) ;
#291 = AXIS2_PLACEMENT_3D ( 'NONE', #216, #19, #212 ) ;
#292 = DIRECTION ( 'NONE',  ( -1.224646799147353207E-16, -0.0000000000000000000, -1.000000000000000000 ) ) ;
#293 = DIRECTION ( 'NONE',  ( 1.000000000000000000, 0.0000000000000000000, 0.0000000000000000000 ) ) ;
#294 = CIRCLE ( 'NONE', #297, 0.4370625000000000204 ) ;
#295 = DIRECTION ( 'NONE',  ( 0.0000000000000000000, 0.0000000000000000000, -1.000000000000000000 ) ) ;
#296 = DIRECTION ( 'NONE',  ( 0.0000000000000000000, 0.0000000000000000000, 1.000000000000000000 ) ) ;
#297 = AXIS2_PLACEMENT_3D ( 'NONE', #2, #229, #278 ) ;
#298 = LENGTH_MEASURE_WITH_UNIT ( LENGTH_MEASURE( 0.02539999999999999897 ), #3 );
#299 = EDGE_CURVE ( 'NONE', #106, #217, #226, .T. ) ;
ENDSEC;
END-ISO-10303-21;
