ISO-10303-21;
HEADER;
FILE_DESCRIPTION (( 'STEP AP214' ),
    '1' );
FILE_NAME ('Micro_RSCM-060-1.STEP',
    '2021-09-03T17:58:07',
    ( '' ),
    ( '' ),
    'SwSTEP 2.0',
    'SolidWorks 2020',
    '' );
FILE_SCHEMA (( 'AUTOMOTIVE_DESIGN' ));
ENDSEC;

DATA;
#1 = AXIS2_PLACEMENT_3D ( 'NONE', #78, #56, #102 ) ;
#2 = FILL_AREA_STYLE_COLOUR ( '', #86 ) ;
#3 = ORIENTED_EDGE ( 'NONE', *, *, #8, .F. ) ;
#4 = ADVANCED_FACE ( 'NONE', ( #190 ), #168, .T. ) ;
#5 = FILL_AREA_STYLE ('',( #2 ) ) ;
#6 = EDGE_LOOP ( 'NONE', ( #163, #227, #9, #28 ) ) ;
#7 = MECHANICAL_DESIGN_GEOMETRIC_PRESENTATION_REPRESENTATION (  '', ( #13 ), #246 ) ;
#8 = EDGE_CURVE ( 'NONE', #23, #120, #67, .T. ) ;
#9 = ORIENTED_EDGE ( 'NONE', *, *, #8, .T. ) ;
#10 = CARTESIAN_POINT ( 'NONE',  ( 0.1181100000000000066, 1.446430334472939084E-17, 2.229093999999999465 ) ) ;
#11 = LINE ( 'NONE', #213, #68 ) ;
#12 = PRODUCT ( 'Micro_RSCM-060-1', 'Micro_RSCM-060-1', '', ( #154 ) ) ;
#13 = STYLED_ITEM ( 'NONE', ( #193 ), #44 ) ;
#14 = CARTESIAN_POINT ( 'NONE',  ( 0.0000000000000000000, 0.0000000000000000000, 0.1977534368525607211 ) ) ;
#15 = DIRECTION ( 'NONE',  ( 0.0000000000000000000, 0.0000000000000000000, -1.000000000000000000 ) ) ;
#16 = DIRECTION ( 'NONE',  ( -0.0000000000000000000, -0.0000000000000000000, -1.000000000000000000 ) ) ;
#17 = AXIS2_PLACEMENT_3D ( 'NONE', #217, #180, #239 ) ;
#18 = LINE ( 'NONE', #116, #108 ) ;
#19 = DIRECTION ( 'NONE',  ( -1.000000000000000000, 0.0000000000000000000, 0.0000000000000000000 ) ) ;
#20 = CARTESIAN_POINT ( 'NONE',  ( 0.0000000000000000000, 0.0000000000000000000, 0.1977534368525607211 ) ) ;
#21 = DIRECTION ( 'NONE',  ( 1.000000000000000000, 0.0000000000000000000, -0.0000000000000000000 ) ) ;
#22 = PRESENTATION_LAYER_ASSIGNMENT (  '', '', ( #13 ) ) ;
#23 = VERTEX_POINT ( 'NONE', #241 ) ;
#24 = CARTESIAN_POINT ( 'NONE',  ( 0.0000000000000000000, 0.0000000000000000000, 2.244094000000000033 ) ) ;
#25 = APPLICATION_PROTOCOL_DEFINITION ( 'draft international standard', 'automotive_design', 1998, #93 ) ;
#26 = PRODUCT_DEFINITION ( 'UNKNOWN', '', #77, #100 ) ;
#27 = ORIENTED_EDGE ( 'NONE', *, *, #247, .T. ) ;
#28 = ORIENTED_EDGE ( 'NONE', *, *, #140, .T. ) ;
#29 = ORIENTED_EDGE ( 'NONE', *, *, #225, .F. ) ;
#30 = EDGE_CURVE ( 'NONE', #126, #66, #11, .T. ) ;
#31 = COLOUR_RGB ( '',0.7921568627450980005, 0.8196078431372548767, 0.9333333333333333481 ) ;
#32 = FACE_OUTER_BOUND ( 'NONE', #6, .T. ) ;
#33 = ORIENTED_EDGE ( 'NONE', *, *, #247, .F. ) ;
#34 = EDGE_CURVE ( 'NONE', #66, #120, #101, .T. ) ;
#35 =( GEOMETRIC_REPRESENTATION_CONTEXT ( 3 ) GLOBAL_UNCERTAINTY_ASSIGNED_CONTEXT ( ( #133 ) ) GLOBAL_UNIT_ASSIGNED_CONTEXT ( ( #128, #201, #36 ) ) REPRESENTATION_CONTEXT ( 'NONE', 'WORKASPACE' ) );
#36 =( NAMED_UNIT ( * ) SI_UNIT ( $, .STERADIAN. ) SOLID_ANGLE_UNIT ( ) );
#37 = FACE_OUTER_BOUND ( 'NONE', #137, .T. ) ;
#38 = PRODUCT_DEFINITION_SHAPE ( 'NONE', 'NONE',  #26 ) ;
#39 = CIRCLE ( 'NONE', #231, 0.003936999999999995191 ) ;
#40 = DIRECTION ( 'NONE',  ( 0.0000000000000000000, 0.0000000000000000000, -1.000000000000000000 ) ) ;
#41 = DIRECTION ( 'NONE',  ( 0.0000000000000000000, 0.0000000000000000000, -1.000000000000000000 ) ) ;
#42 = DIRECTION ( 'NONE',  ( -1.000000000000000000, 0.0000000000000000000, 0.0000000000000000000 ) ) ;
#43 = EDGE_LOOP ( 'NONE', ( #214, #81 ) ) ;
#44 = ADVANCED_BREP_SHAPE_REPRESENTATION ( 'Micro_RSCM-060-1', ( #57, #209 ), #118 ) ;
#45 = APPLICATION_CONTEXT ( 'automotive_design' ) ;
#46 = CARTESIAN_POINT ( 'NONE',  ( 0.0000000000000000000, 0.0000000000000000000, 2.244094000000000033 ) ) ;
#47 = VECTOR ( 'NONE', #144, 39.37007874015748854 ) ;
#48 = FILL_AREA_STYLE ('',( #90 ) ) ;
#49 = ORIENTED_EDGE ( 'NONE', *, *, #140, .F. ) ;
#50 = LENGTH_MEASURE_WITH_UNIT ( LENGTH_MEASURE( 0.02539999999999999897 ), #69 );
#51 = VECTOR ( 'NONE', #111, 39.37007874015748854 ) ;
#52 = AXIS2_PLACEMENT_3D ( 'NONE', #74, #40, #205 ) ;
#53 = DIRECTION ( 'NONE',  ( 1.000000000000000000, 0.0000000000000000000, 0.0000000000000000000 ) ) ;
#54 = FACE_OUTER_BOUND ( 'NONE', #228, .T. ) ;
#55 = CARTESIAN_POINT ( 'NONE',  ( 0.0000000000000000000, 0.0000000000000000000, 2.244094000000000033 ) ) ;
#56 = DIRECTION ( 'NONE',  ( 0.0000000000000000000, 0.0000000000000000000, 1.000000000000000000 ) ) ;
#57 = MANIFOLD_SOLID_BREP ( 'Cut-Revolve1', #175 ) ;
#58 = CIRCLE ( 'NONE', #109, 0.1031100000000002570 ) ;
#59 =( NAMED_UNIT ( * ) PLANE_ANGLE_UNIT ( ) SI_UNIT ( $, .RADIAN. ) );
#60 = VERTEX_POINT ( 'NONE', #199 ) ;
#61 = APPLICATION_PROTOCOL_DEFINITION ( 'draft international standard', 'automotive_design', 1998, #45 ) ;
#62 = EDGE_LOOP ( 'NONE', ( #33, #156, #84, #49 ) ) ;
#63 = SURFACE_STYLE_USAGE ( .BOTH. , #85 ) ;
#64 = AXIS2_PLACEMENT_3D ( 'NONE', #131, #244, #19 ) ;
#65 = EDGE_LOOP ( 'NONE', ( #232, #212, #87, #194 ) ) ;
#66 = VERTEX_POINT ( 'NONE', #127 ) ;
#67 = LINE ( 'NONE', #218, #47 ) ;
#68 = VECTOR ( 'NONE', #125, 39.37007874015748143 ) ;
#69 =( LENGTH_UNIT ( ) NAMED_UNIT ( * ) SI_UNIT ( $, .METRE. ) );
#70 = EDGE_CURVE ( 'NONE', #126, #107, #245, .T. ) ;
#71 = PRESENTATION_STYLE_ASSIGNMENT (( #95 ) ) ;
#72 = AXIS2_PLACEMENT_3D ( 'NONE', #178, #89, #143 ) ;
#73 = PLANE ( 'NONE',  #76 ) ;
#74 = CARTESIAN_POINT ( 'NONE',  ( 0.0000000000000000000, 0.0000000000000000000, 2.229093999999999465 ) ) ;
#75 = ADVANCED_FACE ( 'NONE', ( #129 ), #200, .T. ) ;
#76 = AXIS2_PLACEMENT_3D ( 'NONE', #46, #124, #197 ) ;
#77 = PRODUCT_DEFINITION_FORMATION_WITH_SPECIFIED_SOURCE ( 'ANY', '', #12, .NOT_KNOWN. ) ;
#78 = CARTESIAN_POINT ( 'NONE',  ( 0.0000000000000000000, 0.0000000000000000000, 2.244094000000000033 ) ) ;
#79 = DIRECTION ( 'NONE',  ( -1.000000000000000000, 0.0000000000000000000, 0.0000000000000000000 ) ) ;
#80 = AXIS2_PLACEMENT_3D ( 'NONE', #114, #99, #21 ) ;
#81 = ORIENTED_EDGE ( 'NONE', *, *, #152, .T. ) ;
#82 =( LENGTH_UNIT ( ) NAMED_UNIT ( * ) SI_UNIT ( $, .METRE. ) );
#83 =( CONVERSION_BASED_UNIT ( 'INCH', #177 ) LENGTH_UNIT ( ) NAMED_UNIT ( #237 ) );
#84 = ORIENTED_EDGE ( 'NONE', *, *, #30, .T. ) ;
#85 = SURFACE_SIDE_STYLE ('',( #192 ) ) ;
#86 = COLOUR_RGB ( '',0.7921568627450980005, 0.8196078431372548767, 0.9333333333333333481 ) ;
#87 = ORIENTED_EDGE ( 'NONE', *, *, #70, .F. ) ;
#88 = ORIENTED_EDGE ( 'NONE', *, *, #195, .T. ) ;
#89 = DIRECTION ( 'NONE',  ( 0.0000000000000000000, 0.0000000000000000000, 1.000000000000000000 ) ) ;
#90 = FILL_AREA_STYLE_COLOUR ( '', #31 ) ;
#91 = AXIS2_PLACEMENT_3D ( 'NONE', #92, #15, #145 ) ;
#92 = CARTESIAN_POINT ( 'NONE',  ( 0.0000000000000000000, 0.0000000000000000000, 2.229093999999999465 ) ) ;
#93 = APPLICATION_CONTEXT ( 'automotive_design' ) ;
#94 = UNCERTAINTY_MEASURE_WITH_UNIT (LENGTH_MEASURE( 1.000000000000000082E-05 ), #83, 'distance_accuracy_value', 'NONE');
#95 = SURFACE_STYLE_USAGE ( .BOTH. , #238 ) ;
#96 = DIRECTION ( 'NONE',  ( 0.0000000000000000000, 0.0000000000000000000, -1.000000000000000000 ) ) ;
#97 = AXIS2_PLACEMENT_3D ( 'NONE', #184, #170, #53 ) ;
#98 = FACE_OUTER_BOUND ( 'NONE', #234, .T. ) ;
#99 = DIRECTION ( 'NONE',  ( 0.0000000000000000000, 0.0000000000000000000, 1.000000000000000000 ) ) ;
#100 = PRODUCT_DEFINITION_CONTEXT ( 'detailed design', #45, 'design' ) ;
#101 = CIRCLE ( 'NONE', #226, 0.1181100000000000066 ) ;
#102 = DIRECTION ( 'NONE',  ( 1.000000000000000000, 0.0000000000000000000, 0.0000000000000000000 ) ) ;
#103 = UNCERTAINTY_MEASURE_WITH_UNIT (LENGTH_MEASURE( 1.000000000000000082E-05 ), #249, 'distance_accuracy_value', 'NONE');
#104 = VERTEX_POINT ( 'NONE', #182 ) ;
#105 =( NAMED_UNIT ( * ) SI_UNIT ( $, .STERADIAN. ) SOLID_ANGLE_UNIT ( ) );
#106 = ORIENTED_EDGE ( 'NONE', *, *, #30, .F. ) ;
#107 = VERTEX_POINT ( 'NONE', #10 ) ;
#108 = VECTOR ( 'NONE', #187, 39.37007874015748854 ) ;
#109 = AXIS2_PLACEMENT_3D ( 'NONE', #153, #183, #243 ) ;
#110 = DIRECTION ( 'NONE',  ( -1.000000000000000000, 0.0000000000000000000, 0.0000000000000000000 ) ) ;
#111 = DIRECTION ( 'NONE',  ( -0.5000000000000013323, 6.123233995736782060E-17, 0.8660254037844377084 ) ) ;
#112 = CIRCLE ( 'NONE', #1, 0.1031100000000002570 ) ;
#113 = ADVANCED_FACE ( 'NONE', ( #242 ), #73, .T. ) ;
#114 = CARTESIAN_POINT ( 'NONE',  ( 0.0000000000000000000, 0.0000000000000000000, 0.0000000000000000000 ) ) ;
#115 = DIRECTION ( 'NONE',  ( -0.0000000000000000000, -0.0000000000000000000, -1.000000000000000000 ) ) ;
#116 = CARTESIAN_POINT ( 'NONE',  ( 0.1031100000000002570, 1.262733314600838667E-17, 2.244094000000000033 ) ) ;
#117 = ORIENTED_EDGE ( 'NONE', *, *, #215, .T. ) ;
#118 =( GEOMETRIC_REPRESENTATION_CONTEXT ( 3 ) GLOBAL_UNCERTAINTY_ASSIGNED_CONTEXT ( ( #103 ) ) GLOBAL_UNIT_ASSIGNED_CONTEXT ( ( #249, #148, #105 ) ) REPRESENTATION_CONTEXT ( 'NONE', 'WORKASPACE' ) );
#119 = ADVANCED_FACE ( 'NONE', ( #32 ), #142, .T. ) ;
#120 = VERTEX_POINT ( 'NONE', #222 ) ;
#121 = ORIENTED_EDGE ( 'NONE', *, *, #186, .F. ) ;
#122 = DIRECTION ( 'NONE',  ( 0.0000000000000000000, 0.0000000000000000000, 1.000000000000000000 ) ) ;
#123 = ORIENTED_EDGE ( 'NONE', *, *, #138, .F. ) ;
#124 = DIRECTION ( 'NONE',  ( 0.0000000000000000000, 0.0000000000000000000, 1.000000000000000000 ) ) ;
#125 = DIRECTION ( 'NONE',  ( -0.0000000000000000000, -0.0000000000000000000, -1.000000000000000000 ) ) ;
#126 = VERTEX_POINT ( 'NONE', #169 ) ;
#127 = CARTESIAN_POINT ( 'NONE',  ( -0.1181100000000000066, 0.0000000000000000000, 0.1977534368525607211 ) ) ;
#128 =( CONVERSION_BASED_UNIT ( 'INCH', #50 ) LENGTH_UNIT ( ) NAMED_UNIT ( #198 ) );
#129 = FACE_OUTER_BOUND ( 'NONE', #65, .T. ) ;
#130 = ADVANCED_FACE ( 'NONE', ( #54 ), #220, .F. ) ;
#131 = CARTESIAN_POINT ( 'NONE',  ( 0.0000000000000000000, 0.0000000000000000000, 0.0000000000000000000 ) ) ;
#132 = AXIS2_PLACEMENT_3D ( 'NONE', #55, #206, #42 ) ;
#133 = UNCERTAINTY_MEASURE_WITH_UNIT (LENGTH_MEASURE( 1.000000000000000082E-05 ), #128, 'distance_accuracy_value', 'NONE');
#134 = DIRECTION ( 'NONE',  ( -1.000000000000000000, 0.0000000000000000000, 0.0000000000000000000 ) ) ;
#135 = CARTESIAN_POINT ( 'NONE',  ( -0.003936999999999995191, 4.821434448243123477E-19, 0.0000000000000000000 ) ) ;
#136 = SHAPE_DEFINITION_REPRESENTATION ( #38, #44 ) ;
#137 = EDGE_LOOP ( 'NONE', ( #176, #121, #159, #123 ) ) ;
#138 = EDGE_CURVE ( 'NONE', #107, #126, #236, .T. ) ;
#139 = MECHANICAL_DESIGN_GEOMETRIC_PRESENTATION_REPRESENTATION (  '', ( #150 ), #35 ) ;
#140 = EDGE_CURVE ( 'NONE', #120, #66, #211, .T. ) ;
#141 = ORIENTED_EDGE ( 'NONE', *, *, #70, .T. ) ;
#142 = CONICAL_SURFACE ( 'NONE', #72, 0.003936999999999995191, 0.5235987755983005920 ) ;
#143 = DIRECTION ( 'NONE',  ( 1.000000000000000000, 0.0000000000000000000, 0.0000000000000000000 ) ) ;
#144 = DIRECTION ( 'NONE',  ( 0.5000000000000013323, 0.0000000000000000000, 0.8660254037844377084 ) ) ;
#145 = DIRECTION ( 'NONE',  ( 1.000000000000000000, 0.0000000000000000000, 0.0000000000000000000 ) ) ;
#146 = AXIS2_PLACEMENT_3D ( 'NONE', #24, #41, #134 ) ;
#147 = DIRECTION ( 'NONE',  ( -1.000000000000000000, 0.0000000000000000000, 0.0000000000000000000 ) ) ;
#148 =( NAMED_UNIT ( * ) PLANE_ANGLE_UNIT ( ) SI_UNIT ( $, .RADIAN. ) );
#149 = CARTESIAN_POINT ( 'NONE',  ( -0.1031100000000002570, 0.0000000000000000000, 2.244094000000000033 ) ) ;
#150 = STYLED_ITEM ( 'NONE', ( #71 ), #57 ) ;
#151 = CARTESIAN_POINT ( 'NONE',  ( 0.0000000000000000000, 0.0000000000000000000, 0.0000000000000000000 ) ) ;
#152 = EDGE_CURVE ( 'NONE', #60, #165, #58, .T. ) ;
#153 = CARTESIAN_POINT ( 'NONE',  ( 0.0000000000000000000, 0.0000000000000000000, 2.244094000000000033 ) ) ;
#154 = PRODUCT_CONTEXT ( 'NONE', #93, 'mechanical' ) ;
#155 = CONICAL_SURFACE ( 'NONE', #146, 0.1031100000000002570, 0.7853981633974318477 ) ;
#156 = ORIENTED_EDGE ( 'NONE', *, *, #138, .T. ) ;
#157 = ADVANCED_FACE ( 'NONE', ( #98 ), #160, .T. ) ;
#158 =( NAMED_UNIT ( * ) SI_UNIT ( $, .STERADIAN. ) SOLID_ANGLE_UNIT ( ) );
#159 = ORIENTED_EDGE ( 'NONE', *, *, #174, .T. ) ;
#160 = CONICAL_SURFACE ( 'NONE', #97, 0.003936999999999995191, 0.5235987755983005920 ) ;
#161 = CARTESIAN_POINT ( 'NONE',  ( 0.0000000000000000000, 0.0000000000000000000, 0.0000000000000000000 ) ) ;
#162 = DIMENSIONAL_EXPONENTS ( 1.000000000000000000, 0.0000000000000000000, 0.0000000000000000000, 0.0000000000000000000, 0.0000000000000000000, 0.0000000000000000000, 0.0000000000000000000 ) ;
#163 = ORIENTED_EDGE ( 'NONE', *, *, #215, .F. ) ;
#164 = ORIENTED_EDGE ( 'NONE', *, *, #34, .F. ) ;
#165 = VERTEX_POINT ( 'NONE', #149 ) ;
#166 = AXIS2_PLACEMENT_3D ( 'NONE', #202, #96, #110 ) ;
#167 = SURFACE_STYLE_FILL_AREA ( #48 ) ;
#168 = CYLINDRICAL_SURFACE ( 'NONE', #17, 0.1181100000000000066 ) ;
#169 = CARTESIAN_POINT ( 'NONE',  ( -0.1181100000000000066, 0.0000000000000000000, 2.229093999999999465 ) ) ;
#170 = DIRECTION ( 'NONE',  ( 0.0000000000000000000, 0.0000000000000000000, 1.000000000000000000 ) ) ;
#171 = DIRECTION ( 'NONE',  ( -0.7071067811865358044, 0.0000000000000000000, -0.7071067811865590080 ) ) ;
#172 = LINE ( 'NONE', #207, #208 ) ;
#173 = LENGTH_MEASURE_WITH_UNIT ( LENGTH_MEASURE( 0.02539999999999999897 ), #189 );
#174 = EDGE_CURVE ( 'NONE', #165, #126, #224, .T. ) ;
#175 = CLOSED_SHELL ( 'NONE', ( #157, #75, #229, #4, #113, #181, #119, #130 ) ) ;
#176 = ORIENTED_EDGE ( 'NONE', *, *, #240, .F. ) ;
#177 = LENGTH_MEASURE_WITH_UNIT ( LENGTH_MEASURE( 0.02539999999999999897 ), #82 );
#178 = CARTESIAN_POINT ( 'NONE',  ( 0.0000000000000000000, 0.0000000000000000000, 0.0000000000000000000 ) ) ;
#179 = PRESENTATION_LAYER_ASSIGNMENT (  '', '', ( #150 ) ) ;
#180 = DIRECTION ( 'NONE',  ( -0.0000000000000000000, -0.0000000000000000000, -1.000000000000000000 ) ) ;
#181 = ADVANCED_FACE ( 'NONE', ( #37 ), #155, .T. ) ;
#182 = CARTESIAN_POINT ( 'NONE',  ( -0.003936999999999995191, 7.473223394776852656E-18, 0.0000000000000000000 ) ) ;
#183 = DIRECTION ( 'NONE',  ( 0.0000000000000000000, 0.0000000000000000000, 1.000000000000000000 ) ) ;
#184 = CARTESIAN_POINT ( 'NONE',  ( 0.0000000000000000000, 0.0000000000000000000, 0.0000000000000000000 ) ) ;
#185 = DIRECTION ( 'NONE',  ( -0.0000000000000000000, -0.0000000000000000000, -1.000000000000000000 ) ) ;
#186 = EDGE_CURVE ( 'NONE', #165, #60, #112, .T. ) ;
#187 = DIRECTION ( 'NONE',  ( 0.7071067811865358044, 8.659560562354788645E-17, -0.7071067811865590080 ) ) ;
#188 = CIRCLE ( 'NONE', #64, 0.003936999999999995191 ) ;
#189 =( LENGTH_UNIT ( ) NAMED_UNIT ( * ) SI_UNIT ( $, .METRE. ) );
#190 = FACE_OUTER_BOUND ( 'NONE', #62, .T. ) ;
#191 = ORIENTED_EDGE ( 'NONE', *, *, #34, .T. ) ;
#192 = SURFACE_STYLE_FILL_AREA ( #5 ) ;
#193 = PRESENTATION_STYLE_ASSIGNMENT (( #63 ) ) ;
#194 = ORIENTED_EDGE ( 'NONE', *, *, #174, .F. ) ;
#195 = EDGE_CURVE ( 'NONE', #23, #104, #39, .T. ) ;
#196 = DIRECTION ( 'NONE',  ( 1.000000000000000000, 0.0000000000000000000, 0.0000000000000000000 ) ) ;
#197 = DIRECTION ( 'NONE',  ( 1.000000000000000000, 0.0000000000000000000, -0.0000000000000000000 ) ) ;
#198 = DIMENSIONAL_EXPONENTS ( 1.000000000000000000, 0.0000000000000000000, 0.0000000000000000000, 0.0000000000000000000, 0.0000000000000000000, 0.0000000000000000000, 0.0000000000000000000 ) ;
#199 = CARTESIAN_POINT ( 'NONE',  ( 0.1031100000000002570, 1.354581824536888722E-17, 2.244094000000000033 ) ) ;
#200 = CONICAL_SURFACE ( 'NONE', #166, 0.1031100000000002570, 0.7853981633974318477 ) ;
#201 =( NAMED_UNIT ( * ) PLANE_ANGLE_UNIT ( ) SI_UNIT ( $, .RADIAN. ) );
#202 = CARTESIAN_POINT ( 'NONE',  ( 0.0000000000000000000, 0.0000000000000000000, 2.244094000000000033 ) ) ;
#203 = LINE ( 'NONE', #135, #51 ) ;
#204 = DIRECTION ( 'NONE',  ( -0.0000000000000000000, -0.0000000000000000000, -1.000000000000000000 ) ) ;
#205 = DIRECTION ( 'NONE',  ( 1.000000000000000000, 0.0000000000000000000, 0.0000000000000000000 ) ) ;
#206 = DIRECTION ( 'NONE',  ( -0.0000000000000000000, -0.0000000000000000000, -1.000000000000000000 ) ) ;
#207 = CARTESIAN_POINT ( 'NONE',  ( 0.1181100000000000066, 1.446430334472939084E-17, 2.244094000000000033 ) ) ;
#208 = VECTOR ( 'NONE', #204, 39.37007874015748143 ) ;
#209 = AXIS2_PLACEMENT_3D ( 'NONE', #161, #122, #196 ) ;
#210 = ORIENTED_EDGE ( 'NONE', *, *, #225, .T. ) ;
#211 = CIRCLE ( 'NONE', #219, 0.1181100000000000066 ) ;
#212 = ORIENTED_EDGE ( 'NONE', *, *, #240, .T. ) ;
#213 = CARTESIAN_POINT ( 'NONE',  ( -0.1181100000000000066, 0.0000000000000000000, 2.244094000000000033 ) ) ;
#214 = ORIENTED_EDGE ( 'NONE', *, *, #186, .T. ) ;
#215 = EDGE_CURVE ( 'NONE', #104, #66, #203, .T. ) ;
#216 = VECTOR ( 'NONE', #171, 39.37007874015748854 ) ;
#217 = CARTESIAN_POINT ( 'NONE',  ( 0.0000000000000000000, 0.0000000000000000000, 2.244094000000000033 ) ) ;
#218 = CARTESIAN_POINT ( 'NONE',  ( 0.003936999999999995191, 0.0000000000000000000, 0.0000000000000000000 ) ) ;
#219 = AXIS2_PLACEMENT_3D ( 'NONE', #20, #185, #79 ) ;
#220 = PLANE ( 'NONE',  #80 ) ;
#221 = CYLINDRICAL_SURFACE ( 'NONE', #132, 0.1181100000000000066 ) ;
#222 = CARTESIAN_POINT ( 'NONE',  ( 0.1181100000000000066, 1.446430334472939084E-17, 0.1977534368525607211 ) ) ;
#223 = FACE_OUTER_BOUND ( 'NONE', #230, .T. ) ;
#224 = LINE ( 'NONE', #248, #216 ) ;
#225 = EDGE_CURVE ( 'NONE', #104, #23, #188, .T. ) ;
#226 = AXIS2_PLACEMENT_3D ( 'NONE', #14, #16, #235 ) ;
#227 = ORIENTED_EDGE ( 'NONE', *, *, #195, .F. ) ;
#228 = EDGE_LOOP ( 'NONE', ( #88, #210 ) ) ;
#229 = ADVANCED_FACE ( 'NONE', ( #223 ), #221, .T. ) ;
#230 = EDGE_LOOP ( 'NONE', ( #141, #27, #164, #106 ) ) ;
#231 = AXIS2_PLACEMENT_3D ( 'NONE', #151, #115, #147 ) ;
#232 = ORIENTED_EDGE ( 'NONE', *, *, #152, .F. ) ;
#233 = PRODUCT_RELATED_PRODUCT_CATEGORY ( 'part', '', ( #12 ) ) ;
#234 = EDGE_LOOP ( 'NONE', ( #29, #117, #191, #3 ) ) ;
#235 = DIRECTION ( 'NONE',  ( -1.000000000000000000, 0.0000000000000000000, 0.0000000000000000000 ) ) ;
#236 = CIRCLE ( 'NONE', #52, 0.1181100000000000066 ) ;
#237 = DIMENSIONAL_EXPONENTS ( 1.000000000000000000, 0.0000000000000000000, 0.0000000000000000000, 0.0000000000000000000, 0.0000000000000000000, 0.0000000000000000000, 0.0000000000000000000 ) ;
#238 = SURFACE_SIDE_STYLE ('',( #167 ) ) ;
#239 = DIRECTION ( 'NONE',  ( -1.000000000000000000, 0.0000000000000000000, 0.0000000000000000000 ) ) ;
#240 = EDGE_CURVE ( 'NONE', #60, #107, #18, .T. ) ;
#241 = CARTESIAN_POINT ( 'NONE',  ( 0.003936999999999995191, 0.0000000000000000000, 0.0000000000000000000 ) ) ;
#242 = FACE_OUTER_BOUND ( 'NONE', #43, .T. ) ;
#243 = DIRECTION ( 'NONE',  ( 1.000000000000000000, 0.0000000000000000000, 0.0000000000000000000 ) ) ;
#244 = DIRECTION ( 'NONE',  ( -0.0000000000000000000, -0.0000000000000000000, -1.000000000000000000 ) ) ;
#245 = CIRCLE ( 'NONE', #91, 0.1181100000000000066 ) ;
#246 =( GEOMETRIC_REPRESENTATION_CONTEXT ( 3 ) GLOBAL_UNCERTAINTY_ASSIGNED_CONTEXT ( ( #94 ) ) GLOBAL_UNIT_ASSIGNED_CONTEXT ( ( #83, #59, #158 ) ) REPRESENTATION_CONTEXT ( 'NONE', 'WORKASPACE' ) );
#247 = EDGE_CURVE ( 'NONE', #107, #120, #172, .T. ) ;
#248 = CARTESIAN_POINT ( 'NONE',  ( -0.1031100000000002570, 0.0000000000000000000, 2.244094000000000033 ) ) ;
#249 =( CONVERSION_BASED_UNIT ( 'INCH', #173 ) LENGTH_UNIT ( ) NAMED_UNIT ( #162 ) );
ENDSEC;
END-ISO-10303-21;
