ISO-10303-21;
HEADER;
FILE_DESCRIPTION (( 'STEP AP214' ),
    '1' );
FILE_NAME ('Micro_DM-375-290X.STEP',
    '2021-09-02T16:04:32',
    ( '' ),
    ( '' ),
    'SwSTEP 2.0',
    'SolidWorks 2020',
    '' );
FILE_SCHEMA (( 'AUTOMOTIVE_DESIGN' ));
ENDSEC;

DATA;
#1 = CARTESIAN_POINT ( 'NONE',  ( 0.0000000000000000000, 0.0000000000000000000, 1.000000000000000000 ) ) ;
#2 = ORIENTED_EDGE ( 'NONE', *, *, #275, .T. ) ;
#3 = CARTESIAN_POINT ( 'NONE',  ( -0.1724999999999995981, 0.0000000000000000000, 2.500000000000000000 ) ) ;
#4 = SURFACE_STYLE_USAGE ( .BOTH. , #111 ) ;
#5 = CONICAL_SURFACE ( 'NONE', #175, 0.1724999999999995981, 0.7853981633974357335 ) ;
#6 = AXIS2_PLACEMENT_3D ( 'NONE', #61, #313, #104 ) ;
#7 = ADVANCED_FACE ( 'NONE', ( #66 ), #95, .T. ) ;
#8 = DIRECTION ( 'NONE',  ( -1.000000000000000000, 0.0000000000000000000, 0.0000000000000000000 ) ) ;
#9 = CARTESIAN_POINT ( 'NONE',  ( 0.007499999999999999722, 0.0000000000000000000, 1.707404996040164512E-17 ) ) ;
#10 = LINE ( 'NONE', #266, #78 ) ;
#11 = STYLED_ITEM ( 'NONE', ( #58 ), #89 ) ;
#12 = AXIS2_PLACEMENT_3D ( 'NONE', #160, #13, #214 ) ;
#13 = DIRECTION ( 'NONE',  ( -0.0000000000000000000, -0.0000000000000000000, -1.000000000000000000 ) ) ;
#14 = ORIENTED_EDGE ( 'NONE', *, *, #102, .T. ) ;
#15 = CARTESIAN_POINT ( 'NONE',  ( -0.1874500000000001443, 0.0000000000000000000, 1.000000000000000000 ) ) ;
#16 = CARTESIAN_POINT ( 'NONE',  ( 0.0000000000000000000, 0.0000000000000000000, 2.500000000000000000 ) ) ;
#17 = EDGE_CURVE ( 'NONE', #51, #268, #68, .T. ) ;
#18 = EDGE_LOOP ( 'NONE', ( #187, #307, #329, #69 ) ) ;
#19 = VECTOR ( 'NONE', #163, 39.37007874015748143 ) ;
#20 = EDGE_CURVE ( 'NONE', #151, #41, #245, .T. ) ;
#21 = DIRECTION ( 'NONE',  ( 0.0000000000000000000, 0.0000000000000000000, 1.000000000000000000 ) ) ;
#22 = ORIENTED_EDGE ( 'NONE', *, *, #275, .F. ) ;
#23 = FACE_OUTER_BOUND ( 'NONE', #18, .T. ) ;
#24 = DIRECTION ( 'NONE',  ( 0.0000000000000000000, 0.0000000000000000000, -1.000000000000000000 ) ) ;
#25 = AXIS2_PLACEMENT_3D ( 'NONE', #124, #213, #322 ) ;
#26 =( CONVERSION_BASED_UNIT ( 'INCH', #48 ) LENGTH_UNIT ( ) NAMED_UNIT ( #149 ) );
#27 = STYLED_ITEM ( 'NONE', ( #165 ), #174 ) ;
#28 = EDGE_LOOP ( 'NONE', ( #318, #133 ) ) ;
#29 = UNCERTAINTY_MEASURE_WITH_UNIT (LENGTH_MEASURE( 1.000000000000000082E-05 ), #193, 'distance_accuracy_value', 'NONE');
#30 = ADVANCED_FACE ( 'NONE', ( #169 ), #208, .T. ) ;
#31 = AXIS2_PLACEMENT_3D ( 'NONE', #1, #184, #286 ) ;
#32 = LINE ( 'NONE', #172, #206 ) ;
#33 =( CONVERSION_BASED_UNIT ( 'INCH', #258 ) LENGTH_UNIT ( ) NAMED_UNIT ( #129 ) );
#34 = PLANE ( 'NONE',  #306 ) ;
#35 = MECHANICAL_DESIGN_GEOMETRIC_PRESENTATION_REPRESENTATION (  '', ( #11 ), #200 ) ;
#36 = PRODUCT_DEFINITION_SHAPE ( 'NONE', 'NONE',  #100 ) ;
#37 = AXIS2_PLACEMENT_3D ( 'NONE', #40, #240, #262 ) ;
#38 = CARTESIAN_POINT ( 'NONE',  ( 0.0000000000000000000, 0.0000000000000000000, 0.0000000000000000000 ) ) ;
#39 = EDGE_CURVE ( 'NONE', #45, #109, #77, .T. ) ;
#40 = CARTESIAN_POINT ( 'NONE',  ( 0.0000000000000000000, 0.0000000000000000000, 0.0000000000000000000 ) ) ;
#41 = VERTEX_POINT ( 'NONE', #49 ) ;
#42 = AXIS2_PLACEMENT_3D ( 'NONE', #65, #98, #181 ) ;
#43 = CARTESIAN_POINT ( 'NONE',  ( -0.007499999999999999722, 1.193724467468882453E-17, 1.707404996040164512E-17 ) ) ;
#44 = DIRECTION ( 'NONE',  ( -0.0000000000000000000, -0.0000000000000000000, -1.000000000000000000 ) ) ;
#45 = VERTEX_POINT ( 'NONE', #122 ) ;
#46 = DIRECTION ( 'NONE',  ( 1.000000000000000000, 0.0000000000000000000, 0.0000000000000000000 ) ) ;
#47 = VERTEX_POINT ( 'NONE', #147 ) ;
#48 = LENGTH_MEASURE_WITH_UNIT ( LENGTH_MEASURE( 0.02539999999999999897 ), #106 );
#49 = CARTESIAN_POINT ( 'NONE',  ( 0.1875000000000000278, 2.296212748401287726E-17, 1.000000000000000000 ) ) ;
#50 =( NAMED_UNIT ( * ) SI_UNIT ( $, .STERADIAN. ) SOLID_ANGLE_UNIT ( ) );
#51 = VERTEX_POINT ( 'NONE', #247 ) ;
#52 = COLOUR_RGB ( '',0.7921568627450980005, 0.8196078431372548767, 0.9333333333333333481 ) ;
#53 = MECHANICAL_DESIGN_GEOMETRIC_PRESENTATION_REPRESENTATION (  '', ( #27 ), #257 ) ;
#54 = EDGE_LOOP ( 'NONE', ( #22, #192, #173, #190 ) ) ;
#55 = ADVANCED_FACE ( 'NONE', ( #215 ), #204, .T. ) ;
#56 = EDGE_CURVE ( 'NONE', #278, #112, #231, .T. ) ;
#57 = AXIS2_PLACEMENT_3D ( 'NONE', #157, #132, #107 ) ;
#58 = PRESENTATION_STYLE_ASSIGNMENT (( #4 ) ) ;
#59 = ORIENTED_EDGE ( 'NONE', *, *, #256, .F. ) ;
#60 = DIRECTION ( 'NONE',  ( 1.000000000000000000, 0.0000000000000000000, 0.0000000000000000000 ) ) ;
#61 = CARTESIAN_POINT ( 'NONE',  ( 0.0000000000000000000, 0.0000000000000000000, 1.000000000000000000 ) ) ;
#62 = FACE_OUTER_BOUND ( 'NONE', #185, .T. ) ;
#63 = PRESENTATION_LAYER_ASSIGNMENT (  '', '', ( #27 ) ) ;
#64 = PLANE ( 'NONE',  #234 ) ;
#65 = CARTESIAN_POINT ( 'NONE',  ( 0.0000000000000000000, 0.0000000000000000000, 2.500000000000000000 ) ) ;
#66 = FACE_OUTER_BOUND ( 'NONE', #199, .T. ) ;
#67 = CARTESIAN_POINT ( 'NONE',  ( 0.0000000000000000000, 0.0000000000000000000, 0.0000000000000000000 ) ) ;
#68 = CIRCLE ( 'NONE', #87, 0.007499999999999999722 ) ;
#69 = ORIENTED_EDGE ( 'NONE', *, *, #314, .F. ) ;
#70 = CARTESIAN_POINT ( 'NONE',  ( 0.1874500000000001443, 0.0000000000000000000, 1.000000000000000000 ) ) ;
#71 = ADVANCED_FACE ( 'NONE', ( #81 ), #5, .T. ) ;
#72 = EDGE_LOOP ( 'NONE', ( #14, #226, #325, #297 ) ) ;
#73 = PRODUCT_CONTEXT ( 'NONE', #198, 'mechanical' ) ;
#74 = CARTESIAN_POINT ( 'NONE',  ( 0.1875000000000000278, 2.296212748401287726E-17, 2.500000000000000000 ) ) ;
#75 =( NAMED_UNIT ( * ) PLANE_ANGLE_UNIT ( ) SI_UNIT ( $, .RADIAN. ) );
#76 = CARTESIAN_POINT ( 'NONE',  ( 0.0000000000000000000, 0.0000000000000000000, 0.1799499999999993327 ) ) ;
#77 = CIRCLE ( 'NONE', #205, 0.1874500000000000055 ) ;
#78 = VECTOR ( 'NONE', #321, 39.37007874015748143 ) ;
#79 = DIRECTION ( 'NONE',  ( 0.0000000000000000000, 0.0000000000000000000, 1.000000000000000000 ) ) ;
#80 = SHAPE_DEFINITION_REPRESENTATION ( #36, #174 ) ;
#81 = FACE_OUTER_BOUND ( 'NONE', #54, .T. ) ;
#82 = ORIENTED_EDGE ( 'NONE', *, *, #296, .T. ) ;
#83 = AXIS2_PLACEMENT_3D ( 'NONE', #158, #119, #8 ) ;
#84 = EDGE_CURVE ( 'NONE', #308, #45, #113, .T. ) ;
#85 = CARTESIAN_POINT ( 'NONE',  ( 0.0000000000000000000, 0.0000000000000000000, 2.500000000000000000 ) ) ;
#86 = EDGE_LOOP ( 'NONE', ( #259, #166, #324, #155 ) ) ;
#87 = AXIS2_PLACEMENT_3D ( 'NONE', #288, #44, #194 ) ;
#88 = AXIS2_PLACEMENT_3D ( 'NONE', #67, #236, #183 ) ;
#89 = MANIFOLD_SOLID_BREP ( 'Cut-Revolve4', #221 ) ;
#90 = DIRECTION ( 'NONE',  ( -0.0000000000000000000, -0.0000000000000000000, -1.000000000000000000 ) ) ;
#91 = DIRECTION ( 'NONE',  ( -0.0000000000000000000, -0.0000000000000000000, -1.000000000000000000 ) ) ;
#92 = AXIS2_PLACEMENT_3D ( 'NONE', #121, #317, #94 ) ;
#93 = EDGE_CURVE ( 'NONE', #41, #112, #239, .T. ) ;
#94 = DIRECTION ( 'NONE',  ( -1.000000000000000000, 0.0000000000000000000, 0.0000000000000000000 ) ) ;
#95 = CYLINDRICAL_SURFACE ( 'NONE', #170, 0.1875000000000000278 ) ;
#96 = DIRECTION ( 'NONE',  ( 0.0000000000000000000, 0.0000000000000000000, 1.000000000000000000 ) ) ;
#97 = EDGE_LOOP ( 'NONE', ( #59, #304, #267, #244 ) ) ;
#98 = DIRECTION ( 'NONE',  ( 0.0000000000000000000, 0.0000000000000000000, 1.000000000000000000 ) ) ;
#99 = AXIS2_PLACEMENT_3D ( 'NONE', #140, #120, #217 ) ;
#100 = PRODUCT_DEFINITION ( 'UNKNOWN', '', #290, #177 ) ;
#101 = ORIENTED_EDGE ( 'NONE', *, *, #110, .F. ) ;
#102 = EDGE_CURVE ( 'NONE', #308, #145, #182, .T. ) ;
#103 = ADVANCED_FACE ( 'NONE', ( #23 ), #209, .T. ) ;
#104 = DIRECTION ( 'NONE',  ( -1.000000000000000000, 0.0000000000000000000, 0.0000000000000000000 ) ) ;
#105 = AXIS2_PLACEMENT_3D ( 'NONE', #134, #79, #60 ) ;
#106 =( LENGTH_UNIT ( ) NAMED_UNIT ( * ) SI_UNIT ( $, .METRE. ) );
#107 = DIRECTION ( 'NONE',  ( -1.000000000000000000, 0.0000000000000000000, 0.0000000000000000000 ) ) ;
#108 =( NAMED_UNIT ( * ) SI_UNIT ( $, .STERADIAN. ) SOLID_ANGLE_UNIT ( ) );
#109 = VERTEX_POINT ( 'NONE', #253 ) ;
#110 = EDGE_CURVE ( 'NONE', #47, #151, #32, .T. ) ;
#111 = SURFACE_SIDE_STYLE ('',( #220 ) ) ;
#112 = VERTEX_POINT ( 'NONE', #148 ) ;
#113 = LINE ( 'NONE', #300, #289 ) ;
#114 =( LENGTH_UNIT ( ) NAMED_UNIT ( * ) SI_UNIT ( $, .METRE. ) );
#115 = CARTESIAN_POINT ( 'NONE',  ( 0.0000000000000000000, 0.0000000000000000000, 2.500000000000000000 ) ) ;
#116 = DIRECTION ( 'NONE',  ( -0.0000000000000000000, 0.0000000000000000000, -1.000000000000000000 ) ) ;
#117 = CIRCLE ( 'NONE', #31, 0.1874500000000001443 ) ;
#118 = VERTEX_POINT ( 'NONE', #3 ) ;
#119 = DIRECTION ( 'NONE',  ( -0.0000000000000000000, -0.0000000000000000000, -1.000000000000000000 ) ) ;
#120 = DIRECTION ( 'NONE',  ( 0.0000000000000000000, 0.0000000000000000000, 1.000000000000000000 ) ) ;
#121 = CARTESIAN_POINT ( 'NONE',  ( 0.0000000000000000000, 0.0000000000000000000, 2.500000000000000000 ) ) ;
#122 = CARTESIAN_POINT ( 'NONE',  ( -0.1874499999999999778, 2.295600425001713619E-17, 0.1799499999999993327 ) ) ;
#123 =( GEOMETRIC_REPRESENTATION_CONTEXT ( 3 ) GLOBAL_UNCERTAINTY_ASSIGNED_CONTEXT ( ( #29 ) ) GLOBAL_UNIT_ASSIGNED_CONTEXT ( ( #193, #250, #108 ) ) REPRESENTATION_CONTEXT ( 'NONE', 'WORKASPACE' ) );
#124 = CARTESIAN_POINT ( 'NONE',  ( 0.0000000000000000000, 0.0000000000000000000, 2.500000000000000000 ) ) ;
#125 = ORIENTED_EDGE ( 'NONE', *, *, #168, .F. ) ;
#126 = EDGE_CURVE ( 'NONE', #118, #278, #225, .T. ) ;
#127 = DIRECTION ( 'NONE',  ( 0.7071067811865385799, 8.659560562354823157E-17, -0.7071067811865563435 ) ) ;
#128 = DIRECTION ( 'NONE',  ( 1.000000000000000000, 0.0000000000000000000, 0.0000000000000000000 ) ) ;
#129 = DIMENSIONAL_EXPONENTS ( 1.000000000000000000, 0.0000000000000000000, 0.0000000000000000000, 0.0000000000000000000, 0.0000000000000000000, 0.0000000000000000000, 0.0000000000000000000 ) ;
#130 = AXIS2_PLACEMENT_3D ( 'NONE', #115, #264, #207 ) ;
#131 = APPLICATION_PROTOCOL_DEFINITION ( 'draft international standard', 'automotive_design', 1998, #198 ) ;
#132 = DIRECTION ( 'NONE',  ( -0.0000000000000000000, -0.0000000000000000000, -1.000000000000000000 ) ) ;
#133 = ORIENTED_EDGE ( 'NONE', *, *, #224, .F. ) ;
#134 = CARTESIAN_POINT ( 'NONE',  ( 0.0000000000000000000, 0.0000000000000000000, 1.707404996040164512E-17 ) ) ;
#135 = CARTESIAN_POINT ( 'NONE',  ( -0.1875000000000000278, 0.0000000000000000000, 2.500000000000000000 ) ) ;
#136 = DIRECTION ( 'NONE',  ( 1.000000000000000000, 0.0000000000000000000, -0.0000000000000000000 ) ) ;
#137 = CARTESIAN_POINT ( 'NONE',  ( -0.1875000000000000278, 0.0000000000000000000, 2.484999999999999432 ) ) ;
#138 = DIRECTION ( 'NONE',  ( 0.0000000000000000000, 0.0000000000000000000, 1.000000000000000000 ) ) ;
#139 = CYLINDRICAL_SURFACE ( 'NONE', #37, 0.1874500000000000610 ) ;
#140 = CARTESIAN_POINT ( 'NONE',  ( 0.0000000000000000000, 0.0000000000000000000, 1.707404996040164512E-17 ) ) ;
#141 =( LENGTH_UNIT ( ) NAMED_UNIT ( * ) SI_UNIT ( $, .METRE. ) );
#142 = DIRECTION ( 'NONE',  ( -0.0000000000000000000, -0.0000000000000000000, -1.000000000000000000 ) ) ;
#143 = ORIENTED_EDGE ( 'NONE', *, *, #295, .T. ) ;
#144 = APPLICATION_PROTOCOL_DEFINITION ( 'draft international standard', 'automotive_design', 1998, #216 ) ;
#145 = VERTEX_POINT ( 'NONE', #229 ) ;
#146 = EDGE_CURVE ( 'NONE', #278, #151, #279, .T. ) ;
#147 = CARTESIAN_POINT ( 'NONE',  ( 0.1724999999999995981, 2.204364238465233357E-17, 2.500000000000000000 ) ) ;
#148 = CARTESIAN_POINT ( 'NONE',  ( -0.1875000000000000278, 0.0000000000000000000, 1.000000000000000000 ) ) ;
#149 = DIMENSIONAL_EXPONENTS ( 1.000000000000000000, 0.0000000000000000000, 0.0000000000000000000, 0.0000000000000000000, 0.0000000000000000000, 0.0000000000000000000, 0.0000000000000000000 ) ;
#150 = AXIS2_PLACEMENT_3D ( 'NONE', #328, #24, #277 ) ;
#151 = VERTEX_POINT ( 'NONE', #310 ) ;
#152 = VECTOR ( 'NONE', #232, 39.37007874015748143 ) ;
#153 = CIRCLE ( 'NONE', #12, 0.1875000000000000278 ) ;
#154 = FILL_AREA_STYLE ('',( #201 ) ) ;
#155 = ORIENTED_EDGE ( 'NONE', *, *, #243, .T. ) ;
#156 = DIRECTION ( 'NONE',  ( -0.7071067811865487940, 8.659560562354948882E-17, 0.7071067811865462405 ) ) ;
#157 = CARTESIAN_POINT ( 'NONE',  ( 0.0000000000000000000, 0.0000000000000000000, 1.000000000000000000 ) ) ;
#158 = CARTESIAN_POINT ( 'NONE',  ( 0.0000000000000000000, 0.0000000000000000000, 1.707404996040164512E-17 ) ) ;
#159 = FACE_BOUND ( 'NONE', #28, .T. ) ;
#160 = CARTESIAN_POINT ( 'NONE',  ( 0.0000000000000000000, 0.0000000000000000000, 1.000000000000000000 ) ) ;
#161 = DIRECTION ( 'NONE',  ( -0.0000000000000000000, -0.0000000000000000000, -1.000000000000000000 ) ) ;
#162 = PRODUCT ( 'Micro_DM-375-290X', 'Micro_DM-375-290X', '', ( #73 ) ) ;
#163 = DIRECTION ( 'NONE',  ( 0.7071067811865487940, 0.0000000000000000000, 0.7071067811865462405 ) ) ;
#164 = EDGE_LOOP ( 'NONE', ( #293, #219 ) ) ;
#165 = PRESENTATION_STYLE_ASSIGNMENT (( #302 ) ) ;
#166 = ORIENTED_EDGE ( 'NONE', *, *, #17, .F. ) ;
#167 = FILL_AREA_STYLE_COLOUR ( '', #176 ) ;
#168 = EDGE_CURVE ( 'NONE', #151, #278, #274, .T. ) ;
#169 = FACE_OUTER_BOUND ( 'NONE', #246, .T. ) ;
#170 = AXIS2_PLACEMENT_3D ( 'NONE', #16, #161, #269 ) ;
#171 = DIRECTION ( 'NONE',  ( -1.000000000000000000, 0.0000000000000000000, 0.0000000000000000000 ) ) ;
#172 = CARTESIAN_POINT ( 'NONE',  ( 0.1724999999999995981, 2.112515728529179297E-17, 2.500000000000000000 ) ) ;
#173 = ORIENTED_EDGE ( 'NONE', *, *, #146, .F. ) ;
#174 = ADVANCED_BREP_SHAPE_REPRESENTATION ( 'Micro_DM-375-290X', ( #89, #252 ), #123 ) ;
#175 = AXIS2_PLACEMENT_3D ( 'NONE', #85, #301, #272 ) ;
#176 = COLOUR_RGB ( '',0.7921568627450980005, 0.8196078431372548767, 0.9333333333333333481 ) ;
#177 = PRODUCT_DEFINITION_CONTEXT ( 'detailed design', #216, 'design' ) ;
#178 = CARTESIAN_POINT ( 'NONE',  ( -0.1724999999999995981, 0.0000000000000000000, 2.500000000000000000 ) ) ;
#179 = ORIENTED_EDGE ( 'NONE', *, *, #296, .F. ) ;
#180 = LINE ( 'NONE', #273, #189 ) ;
#181 = DIRECTION ( 'NONE',  ( 1.000000000000000000, 0.0000000000000000000, 0.0000000000000000000 ) ) ;
#182 = CIRCLE ( 'NONE', #57, 0.1874500000000001443 ) ;
#183 = DIRECTION ( 'NONE',  ( -1.000000000000000000, 0.0000000000000000000, 0.0000000000000000000 ) ) ;
#184 = DIRECTION ( 'NONE',  ( -0.0000000000000000000, -0.0000000000000000000, -1.000000000000000000 ) ) ;
#185 = EDGE_LOOP ( 'NONE', ( #202, #143 ) ) ;
#186 = LINE ( 'NONE', #9, #19 ) ;
#187 = ORIENTED_EDGE ( 'NONE', *, *, #295, .F. ) ;
#188 = DIRECTION ( 'NONE',  ( 1.000000000000000000, 0.0000000000000000000, -0.0000000000000000000 ) ) ;
#189 = VECTOR ( 'NONE', #156, 39.37007874015748143 ) ;
#190 = ORIENTED_EDGE ( 'NONE', *, *, #126, .F. ) ;
#191 = EDGE_CURVE ( 'NONE', #268, #45, #180, .T. ) ;
#192 = ORIENTED_EDGE ( 'NONE', *, *, #110, .T. ) ;
#193 =( CONVERSION_BASED_UNIT ( 'INCH', #218 ) LENGTH_UNIT ( ) NAMED_UNIT ( #303 ) );
#194 = DIRECTION ( 'NONE',  ( -1.000000000000000000, 0.0000000000000000000, 0.0000000000000000000 ) ) ;
#195 = CIRCLE ( 'NONE', #83, 0.007499999999999999722 ) ;
#196 = DIRECTION ( 'NONE',  ( 0.0000000000000000000, 0.0000000000000000000, -1.000000000000000000 ) ) ;
#197 = ORIENTED_EDGE ( 'NONE', *, *, #126, .T. ) ;
#198 = APPLICATION_CONTEXT ( 'automotive_design' ) ;
#199 = EDGE_LOOP ( 'NONE', ( #211, #271, #320, #230 ) ) ;
#200 =( GEOMETRIC_REPRESENTATION_CONTEXT ( 3 ) GLOBAL_UNCERTAINTY_ASSIGNED_CONTEXT ( ( #312 ) ) GLOBAL_UNIT_ASSIGNED_CONTEXT ( ( #33, #249, #50 ) ) REPRESENTATION_CONTEXT ( 'NONE', 'WORKASPACE' ) );
#201 = FILL_AREA_STYLE_COLOUR ( '', #52 ) ;
#202 = ORIENTED_EDGE ( 'NONE', *, *, #17, .T. ) ;
#203 = DIRECTION ( 'NONE',  ( -0.7071067811865385799, 0.0000000000000000000, -0.7071067811865563435 ) ) ;
#204 = CONICAL_SURFACE ( 'NONE', #99, 0.007499999999999999722, 0.7853981633974501664 ) ;
#205 = AXIS2_PLACEMENT_3D ( 'NONE', #76, #142, #171 ) ;
#206 = VECTOR ( 'NONE', #127, 39.37007874015748854 ) ;
#207 = DIRECTION ( 'NONE',  ( 1.000000000000000000, 0.0000000000000000000, 0.0000000000000000000 ) ) ;
#208 = CONICAL_SURFACE ( 'NONE', #25, 0.1724999999999995981, 0.7853981633974357335 ) ;
#209 = CONICAL_SURFACE ( 'NONE', #105, 0.007499999999999999722, 0.7853981633974501664 ) ;
#210 = FACE_OUTER_BOUND ( 'NONE', #255, .T. ) ;
#211 = ORIENTED_EDGE ( 'NONE', *, *, #20, .F. ) ;
#212 = FACE_OUTER_BOUND ( 'NONE', #97, .T. ) ;
#213 = DIRECTION ( 'NONE',  ( 0.0000000000000000000, 0.0000000000000000000, -1.000000000000000000 ) ) ;
#214 = DIRECTION ( 'NONE',  ( -1.000000000000000000, 0.0000000000000000000, 0.0000000000000000000 ) ) ;
#215 = FACE_OUTER_BOUND ( 'NONE', #86, .T. ) ;
#216 = APPLICATION_CONTEXT ( 'automotive_design' ) ;
#217 = DIRECTION ( 'NONE',  ( 1.000000000000000000, 0.0000000000000000000, 0.0000000000000000000 ) ) ;
#218 = LENGTH_MEASURE_WITH_UNIT ( LENGTH_MEASURE( 0.02539999999999999897 ), #141 );
#219 = ORIENTED_EDGE ( 'NONE', *, *, #93, .T. ) ;
#220 = SURFACE_STYLE_FILL_AREA ( #154 ) ;
#221 = CLOSED_SHELL ( 'NONE', ( #254, #103, #71, #280, #7, #309, #30, #248, #55, #237, #263 ) ) ;
#222 = PRODUCT_RELATED_PRODUCT_CATEGORY ( 'part', '', ( #162 ) ) ;
#223 = VECTOR ( 'NONE', #203, 39.37007874015748854 ) ;
#224 = EDGE_CURVE ( 'NONE', #145, #308, #117, .T. ) ;
#225 = LINE ( 'NONE', #178, #223 ) ;
#226 = ORIENTED_EDGE ( 'NONE', *, *, #256, .T. ) ;
#227 = EDGE_LOOP ( 'NONE', ( #82, #2 ) ) ;
#228 = CIRCLE ( 'NONE', #42, 0.1724999999999995981 ) ;
#229 = CARTESIAN_POINT ( 'NONE',  ( 0.1874500000000001443, 2.295600425001715468E-17, 1.000000000000000000 ) ) ;
#230 = ORIENTED_EDGE ( 'NONE', *, *, #93, .F. ) ;
#231 = LINE ( 'NONE', #135, #152 ) ;
#232 = DIRECTION ( 'NONE',  ( -0.0000000000000000000, -0.0000000000000000000, -1.000000000000000000 ) ) ;
#233 = PRESENTATION_LAYER_ASSIGNMENT (  '', '', ( #11 ) ) ;
#234 = AXIS2_PLACEMENT_3D ( 'NONE', #70, #116, #242 ) ;
#235 = DIRECTION ( 'NONE',  ( -1.000000000000000000, 0.0000000000000000000, 0.0000000000000000000 ) ) ;
#236 = DIRECTION ( 'NONE',  ( -0.0000000000000000000, -0.0000000000000000000, -1.000000000000000000 ) ) ;
#237 = ADVANCED_FACE ( 'NONE', ( #212 ), #316, .T. ) ;
#238 = PLANE ( 'NONE',  #311 ) ;
#239 = CIRCLE ( 'NONE', #6, 0.1875000000000000278 ) ;
#240 = DIRECTION ( 'NONE',  ( -0.0000000000000000000, -0.0000000000000000000, -1.000000000000000000 ) ) ;
#241 = ORIENTED_EDGE ( 'NONE', *, *, #282, .F. ) ;
#242 = DIRECTION ( 'NONE',  ( -1.000000000000000000, 0.0000000000000000000, 0.0000000000000000000 ) ) ;
#243 = EDGE_CURVE ( 'NONE', #109, #45, #251, .T. ) ;
#244 = ORIENTED_EDGE ( 'NONE', *, *, #243, .F. ) ;
#245 = LINE ( 'NONE', #74, #305 ) ;
#246 = EDGE_LOOP ( 'NONE', ( #101, #179, #197, #125 ) ) ;
#247 = CARTESIAN_POINT ( 'NONE',  ( 0.007499999999999999722, 0.0000000000000000000, 1.707404996040164512E-17 ) ) ;
#248 = ADVANCED_FACE ( 'NONE', ( #159, #291 ), #64, .T. ) ;
#249 =( NAMED_UNIT ( * ) PLANE_ANGLE_UNIT ( ) SI_UNIT ( $, .RADIAN. ) );
#250 =( NAMED_UNIT ( * ) PLANE_ANGLE_UNIT ( ) SI_UNIT ( $, .RADIAN. ) );
#251 = CIRCLE ( 'NONE', #299, 0.1874500000000000055 ) ;
#252 = AXIS2_PLACEMENT_3D ( 'NONE', #270, #21, #46 ) ;
#253 = CARTESIAN_POINT ( 'NONE',  ( 0.1874499999999999778, 0.0000000000000000000, 0.1799499999999993327 ) ) ;
#254 = ADVANCED_FACE ( 'NONE', ( #260 ), #139, .T. ) ;
#255 = EDGE_LOOP ( 'NONE', ( #292, #276, #241, #287 ) ) ;
#256 = EDGE_CURVE ( 'NONE', #145, #109, #10, .T. ) ;
#257 =( GEOMETRIC_REPRESENTATION_CONTEXT ( 3 ) GLOBAL_UNCERTAINTY_ASSIGNED_CONTEXT ( ( #281 ) ) GLOBAL_UNIT_ASSIGNED_CONTEXT ( ( #26, #75, #326 ) ) REPRESENTATION_CONTEXT ( 'NONE', 'WORKASPACE' ) );
#258 = LENGTH_MEASURE_WITH_UNIT ( LENGTH_MEASURE( 0.02539999999999999897 ), #114 );
#259 = ORIENTED_EDGE ( 'NONE', *, *, #191, .F. ) ;
#260 = FACE_OUTER_BOUND ( 'NONE', #72, .T. ) ;
#261 = AXIS2_PLACEMENT_3D ( 'NONE', #283, #196, #128 ) ;
#262 = DIRECTION ( 'NONE',  ( -1.000000000000000000, 0.0000000000000000000, 0.0000000000000000000 ) ) ;
#263 = ADVANCED_FACE ( 'NONE', ( #62 ), #34, .F. ) ;
#264 = DIRECTION ( 'NONE',  ( 0.0000000000000000000, 0.0000000000000000000, 1.000000000000000000 ) ) ;
#265 = DIRECTION ( 'NONE',  ( -0.0000000000000000000, -0.0000000000000000000, -1.000000000000000000 ) ) ;
#266 = CARTESIAN_POINT ( 'NONE',  ( 0.1874500000000000610, 2.295600425001714235E-17, 0.0000000000000000000 ) ) ;
#267 = ORIENTED_EDGE ( 'NONE', *, *, #84, .T. ) ;
#268 = VERTEX_POINT ( 'NONE', #43 ) ;
#269 = DIRECTION ( 'NONE',  ( -1.000000000000000000, 0.0000000000000000000, 0.0000000000000000000 ) ) ;
#270 = CARTESIAN_POINT ( 'NONE',  ( 0.0000000000000000000, 0.0000000000000000000, 0.0000000000000000000 ) ) ;
#271 = ORIENTED_EDGE ( 'NONE', *, *, #168, .T. ) ;
#272 = DIRECTION ( 'NONE',  ( -1.000000000000000000, 0.0000000000000000000, 0.0000000000000000000 ) ) ;
#273 = CARTESIAN_POINT ( 'NONE',  ( -0.007499999999999999722, 9.184850993605147975E-19, 1.707404996040164512E-17 ) ) ;
#274 = CIRCLE ( 'NONE', #150, 0.1875000000000000278 ) ;
#275 = EDGE_CURVE ( 'NONE', #47, #118, #228, .T. ) ;
#276 = ORIENTED_EDGE ( 'NONE', *, *, #20, .T. ) ;
#277 = DIRECTION ( 'NONE',  ( 1.000000000000000000, 0.0000000000000000000, 0.0000000000000000000 ) ) ;
#278 = VERTEX_POINT ( 'NONE', #137 ) ;
#279 = CIRCLE ( 'NONE', #261, 0.1875000000000000278 ) ;
#280 = ADVANCED_FACE ( 'NONE', ( #210 ), #284, .T. ) ;
#281 = UNCERTAINTY_MEASURE_WITH_UNIT (LENGTH_MEASURE( 1.000000000000000082E-05 ), #26, 'distance_accuracy_value', 'NONE');
#282 = EDGE_CURVE ( 'NONE', #112, #41, #153, .T. ) ;
#283 = CARTESIAN_POINT ( 'NONE',  ( 0.0000000000000000000, 0.0000000000000000000, 2.484999999999999432 ) ) ;
#284 = CYLINDRICAL_SURFACE ( 'NONE', #92, 0.1875000000000000278 ) ;
#285 = CARTESIAN_POINT ( 'NONE',  ( 0.0000000000000000000, 0.0000000000000000000, 0.1799499999999993327 ) ) ;
#286 = DIRECTION ( 'NONE',  ( -1.000000000000000000, 0.0000000000000000000, 0.0000000000000000000 ) ) ;
#287 = ORIENTED_EDGE ( 'NONE', *, *, #56, .F. ) ;
#288 = CARTESIAN_POINT ( 'NONE',  ( 0.0000000000000000000, 0.0000000000000000000, 1.707404996040164512E-17 ) ) ;
#289 = VECTOR ( 'NONE', #90, 39.37007874015748143 ) ;
#290 = PRODUCT_DEFINITION_FORMATION_WITH_SPECIFIED_SOURCE ( 'ANY', '', #162, .NOT_KNOWN. ) ;
#291 = FACE_OUTER_BOUND ( 'NONE', #164, .T. ) ;
#292 = ORIENTED_EDGE ( 'NONE', *, *, #146, .T. ) ;
#293 = ORIENTED_EDGE ( 'NONE', *, *, #282, .T. ) ;
#294 = FILL_AREA_STYLE ('',( #167 ) ) ;
#295 = EDGE_CURVE ( 'NONE', #268, #51, #195, .T. ) ;
#296 = EDGE_CURVE ( 'NONE', #118, #47, #327, .T. ) ;
#297 = ORIENTED_EDGE ( 'NONE', *, *, #84, .F. ) ;
#298 = SURFACE_SIDE_STYLE ('',( #323 ) ) ;
#299 = AXIS2_PLACEMENT_3D ( 'NONE', #285, #91, #235 ) ;
#300 = CARTESIAN_POINT ( 'NONE',  ( -0.1874500000000000610, 0.0000000000000000000, 0.0000000000000000000 ) ) ;
#301 = DIRECTION ( 'NONE',  ( 0.0000000000000000000, 0.0000000000000000000, -1.000000000000000000 ) ) ;
#302 = SURFACE_STYLE_USAGE ( .BOTH. , #298 ) ;
#303 = DIMENSIONAL_EXPONENTS ( 1.000000000000000000, 0.0000000000000000000, 0.0000000000000000000, 0.0000000000000000000, 0.0000000000000000000, 0.0000000000000000000, 0.0000000000000000000 ) ;
#304 = ORIENTED_EDGE ( 'NONE', *, *, #224, .T. ) ;
#305 = VECTOR ( 'NONE', #265, 39.37007874015748143 ) ;
#306 = AXIS2_PLACEMENT_3D ( 'NONE', #38, #138, #136 ) ;
#307 = ORIENTED_EDGE ( 'NONE', *, *, #191, .T. ) ;
#308 = VERTEX_POINT ( 'NONE', #15 ) ;
#309 = ADVANCED_FACE ( 'NONE', ( #315 ), #238, .T. ) ;
#310 = CARTESIAN_POINT ( 'NONE',  ( 0.1875000000000000278, 2.296212748401287726E-17, 2.484999999999999432 ) ) ;
#311 = AXIS2_PLACEMENT_3D ( 'NONE', #319, #96, #188 ) ;
#312 = UNCERTAINTY_MEASURE_WITH_UNIT (LENGTH_MEASURE( 1.000000000000000082E-05 ), #33, 'distance_accuracy_value', 'NONE');
#313 = DIRECTION ( 'NONE',  ( -0.0000000000000000000, -0.0000000000000000000, -1.000000000000000000 ) ) ;
#314 = EDGE_CURVE ( 'NONE', #51, #109, #186, .T. ) ;
#315 = FACE_OUTER_BOUND ( 'NONE', #227, .T. ) ;
#316 = CYLINDRICAL_SURFACE ( 'NONE', #88, 0.1874500000000000610 ) ;
#317 = DIRECTION ( 'NONE',  ( -0.0000000000000000000, -0.0000000000000000000, -1.000000000000000000 ) ) ;
#318 = ORIENTED_EDGE ( 'NONE', *, *, #102, .F. ) ;
#319 = CARTESIAN_POINT ( 'NONE',  ( 0.0000000000000000000, 0.0000000000000000000, 2.500000000000000000 ) ) ;
#320 = ORIENTED_EDGE ( 'NONE', *, *, #56, .T. ) ;
#321 = DIRECTION ( 'NONE',  ( -0.0000000000000000000, -0.0000000000000000000, -1.000000000000000000 ) ) ;
#322 = DIRECTION ( 'NONE',  ( -1.000000000000000000, 0.0000000000000000000, 0.0000000000000000000 ) ) ;
#323 = SURFACE_STYLE_FILL_AREA ( #294 ) ;
#324 = ORIENTED_EDGE ( 'NONE', *, *, #314, .T. ) ;
#325 = ORIENTED_EDGE ( 'NONE', *, *, #39, .F. ) ;
#326 =( NAMED_UNIT ( * ) SI_UNIT ( $, .STERADIAN. ) SOLID_ANGLE_UNIT ( ) );
#327 = CIRCLE ( 'NONE', #130, 0.1724999999999995981 ) ;
#328 = CARTESIAN_POINT ( 'NONE',  ( 0.0000000000000000000, 0.0000000000000000000, 2.484999999999999432 ) ) ;
#329 = ORIENTED_EDGE ( 'NONE', *, *, #39, .T. ) ;
ENDSEC;
END-ISO-10303-21;
