ISO-10303-21;
HEADER;
FILE_DESCRIPTION (( 'STEP AP214' ),
    '1' );
FILE_NAME ('Micro_BMSM-015-2X.STEP',
    '2021-09-03T15:47:34',
    ( '' ),
    ( '' ),
    'SwSTEP 2.0',
    'SolidWorks 2020',
    '' );
FILE_SCHEMA (( 'AUTOMOTIVE_DESIGN' ));
ENDSEC;

DATA;
#1 = VECTOR ( 'NONE', #68, 39.37007874015748143 ) ;
#2 = CARTESIAN_POINT ( 'NONE',  ( 3.612459760346164844E-18, 0.0000000000000000000, 0.02949797249999999704 ) ) ;
#3 = ADVANCED_FACE ( 'NONE', ( #193 ), #34, .T. ) ;
#4 = CARTESIAN_POINT ( 'NONE',  ( -0.02949797249999999704, 0.0000000000000000000, 3.612459760346164844E-18 ) ) ;
#5 = DIRECTION ( 'NONE',  ( -0.0000000000000000000, -0.0000000000000000000, -1.000000000000000000 ) ) ;
#6 = CARTESIAN_POINT ( 'NONE',  ( 3.612459760346164844E-18, 0.0000000000000000000, 0.02949797249999999704 ) ) ;
#7 = ADVANCED_FACE ( 'NONE', ( #76 ), #79, .T. ) ;
#8 = DIRECTION ( 'NONE',  ( 1.000000000000000000, 0.0000000000000000000, 0.0000000000000000000 ) ) ;
#9 =( NAMED_UNIT ( * ) SI_UNIT ( $, .STERADIAN. ) SOLID_ANGLE_UNIT ( ) );
#10 = EDGE_CURVE ( 'NONE', #130, #179, #205, .T. ) ;
#11 = STYLED_ITEM ( 'NONE', ( #92 ), #81 ) ;
#12 = DIRECTION ( 'NONE',  ( -0.1736481776669312194, 2.126576849575783625E-17, 0.9848077530122077983 ) ) ;
#13 = ORIENTED_EDGE ( 'NONE', *, *, #308, .T. ) ;
#14 = CLOSED_SHELL ( 'NONE', ( #224, #49, #313, #178, #170, #60, #195, #209, #3, #7, #256 ) ) ;
#15 = CARTESIAN_POINT ( 'NONE',  ( 0.0000000000000000000, 0.0000000000000000000, 1.496062999999999921 ) ) ;
#16 = CARTESIAN_POINT ( 'NONE',  ( 0.04405499999999973326, 5.395181473643630390E-18, 1.496062999999999921 ) ) ;
#17 = MECHANICAL_DESIGN_GEOMETRIC_PRESENTATION_REPRESENTATION (  '', ( #11 ), #156 ) ;
#18 = CARTESIAN_POINT ( 'NONE',  ( -0.02949797249999998663, 3.612459760346164844E-18, 0.09055100000000000648 ) ) ;
#19 = ORIENTED_EDGE ( 'NONE', *, *, #132, .T. ) ;
#20 = SURFACE_STYLE_USAGE ( .BOTH. , #238 ) ;
#21 = ORIENTED_EDGE ( 'NONE', *, *, #288, .T. ) ;
#22 = DIMENSIONAL_EXPONENTS ( 1.000000000000000000, 0.0000000000000000000, 0.0000000000000000000, 0.0000000000000000000, 0.0000000000000000000, 0.0000000000000000000, 0.0000000000000000000 ) ;
#23 = DIRECTION ( 'NONE',  ( 0.0000000000000000000, 0.0000000000000000000, -1.000000000000000000 ) ) ;
#24 = EDGE_LOOP ( 'NONE', ( #80, #55, #26 ) ) ;
#25 = AXIS2_PLACEMENT_3D ( 'NONE', #77, #214, #8 ) ;
#26 = ORIENTED_EDGE ( 'NONE', *, *, #308, .F. ) ;
#27 = ORIENTED_EDGE ( 'NONE', *, *, #248, .T. ) ;
#28 = AXIS2_PLACEMENT_3D ( 'NONE', #59, #203, #23 ) ;
#29 = FACE_OUTER_BOUND ( 'NONE', #129, .T. ) ;
#30 = CARTESIAN_POINT ( 'NONE',  ( 0.05905500000000004496, 7.232151672364700045E-18, 0.2581772327026897740 ) ) ;
#31 = CARTESIAN_POINT ( 'NONE',  ( -0.05905500000000000332, 0.0000000000000000000, 1.496062999999999921 ) ) ;
#32 = PRODUCT_DEFINITION ( 'UNKNOWN', '', #161, #280 ) ;
#33 = LINE ( 'NONE', #4, #53 ) ;
#34 = CONICAL_SURFACE ( 'NONE', #254, 0.02949797249999999704, 0.1745329251994339470 ) ;
#35 = VECTOR ( 'NONE', #317, 39.37007874015748143 ) ;
#36 = APPLICATION_CONTEXT ( 'automotive_design' ) ;
#37 = ORIENTED_EDGE ( 'NONE', *, *, #261, .T. ) ;
#38 = CONICAL_SURFACE ( 'NONE', #25, 0.02949797249999999704, 0.1745329251994339470 ) ;
#39 = DIRECTION ( 'NONE',  ( 1.000000000000000000, 0.0000000000000000000, 0.0000000000000000000 ) ) ;
#40 = DIRECTION ( 'NONE',  ( -1.224646799147353207E-16, -0.0000000000000000000, -1.000000000000000000 ) ) ;
#41 = DIRECTION ( 'NONE',  ( 1.000000000000000000, 0.0000000000000000000, 0.0000000000000000000 ) ) ;
#42 = ORIENTED_EDGE ( 'NONE', *, *, #228, .F. ) ;
#43 = LENGTH_MEASURE_WITH_UNIT ( LENGTH_MEASURE( 0.02539999999999999897 ), #122 );
#44 = CONICAL_SURFACE ( 'NONE', #251, 0.04405499999999973326, 0.7853981633974491672 ) ;
#45 = ORIENTED_EDGE ( 'NONE', *, *, #75, .T. ) ;
#46 = DIMENSIONAL_EXPONENTS ( 1.000000000000000000, 0.0000000000000000000, 0.0000000000000000000, 0.0000000000000000000, 0.0000000000000000000, 0.0000000000000000000, 0.0000000000000000000 ) ;
#47 = CARTESIAN_POINT ( 'NONE',  ( 0.02949797250000000398, 3.612459760346164844E-18, 0.02949797249999999357 ) ) ;
#48 = DIRECTION ( 'NONE',  ( -1.224646799147353207E-16, -0.0000000000000000000, -1.000000000000000000 ) ) ;
#49 = ADVANCED_FACE ( 'NONE', ( #325 ), #259, .T. ) ;
#50 = CARTESIAN_POINT ( 'NONE',  ( 0.0000000000000000000, 0.0000000000000000000, 1.496062999999999921 ) ) ;
#51 = EDGE_LOOP ( 'NONE', ( #217, #27 ) ) ;
#52 = ORIENTED_EDGE ( 'NONE', *, *, #111, .F. ) ;
#53 = VECTOR ( 'NONE', #182, 39.37007874015748143 ) ;
#54 = EDGE_CURVE ( 'NONE', #179, #130, #242, .T. ) ;
#55 = ORIENTED_EDGE ( 'NONE', *, *, #228, .T. ) ;
#56 = DIRECTION ( 'NONE',  ( -1.224646799147353207E-16, -0.0000000000000000000, -1.000000000000000000 ) ) ;
#57 = CIRCLE ( 'NONE', #28, 0.02949797249999999704 ) ;
#58 = CARTESIAN_POINT ( 'NONE',  ( -0.02949797249999998663, 5.422305716355429748E-18, 0.09055100000000000648 ) ) ;
#59 = CARTESIAN_POINT ( 'NONE',  ( 3.612459760346164844E-18, 0.0000000000000000000, 0.02949797249999999704 ) ) ;
#60 = ADVANCED_FACE ( 'NONE', ( #260 ), #289, .T. ) ;
#61 = CARTESIAN_POINT ( 'NONE',  ( 0.04405499999999973326, 6.313666573004162521E-18, 1.496062999999999921 ) ) ;
#62 = EDGE_CURVE ( 'NONE', #220, #196, #199, .T. ) ;
#63 = ORIENTED_EDGE ( 'NONE', *, *, #323, .T. ) ;
#64 =( LENGTH_UNIT ( ) NAMED_UNIT ( * ) SI_UNIT ( $, .METRE. ) );
#65 = CARTESIAN_POINT ( 'NONE',  ( 0.0000000000000000000, 0.0000000000000000000, 1.481062999999999574 ) ) ;
#66 = AXIS2_PLACEMENT_3D ( 'NONE', #175, #48, #267 ) ;
#67 = STYLED_ITEM ( 'NONE', ( #307 ), #201 ) ;
#68 = DIRECTION ( 'NONE',  ( 0.1736481776669314414, 0.0000000000000000000, 0.9848077530122077983 ) ) ;
#69 = ORIENTED_EDGE ( 'NONE', *, *, #96, .F. ) ;
#70 =( LENGTH_UNIT ( ) NAMED_UNIT ( * ) SI_UNIT ( $, .METRE. ) );
#71 = CARTESIAN_POINT ( 'NONE',  ( 3.161759216420703775E-17, 0.0000000000000000000, 0.2581772327026897740 ) ) ;
#72 = EDGE_LOOP ( 'NONE', ( #210, #294, #222, #321 ) ) ;
#73 = CARTESIAN_POINT ( 'NONE',  ( -0.05905499999999996863, 0.0000000000000000000, 0.2581772327026897740 ) ) ;
#74 = MECHANICAL_DESIGN_GEOMETRIC_PRESENTATION_REPRESENTATION (  '', ( #67 ), #109 ) ;
#75 = EDGE_CURVE ( 'NONE', #100, #124, #278, .T. ) ;
#76 = FACE_OUTER_BOUND ( 'NONE', #258, .T. ) ;
#77 = CARTESIAN_POINT ( 'NONE',  ( 1.108929923095919883E-17, 0.0000000000000000000, 0.09055100000000000648 ) ) ;
#78 = ORIENTED_EDGE ( 'NONE', *, *, #75, .F. ) ;
#79 = CYLINDRICAL_SURFACE ( 'NONE', #66, 0.02949797249999999704 ) ;
#80 = ORIENTED_EDGE ( 'NONE', *, *, #218, .F. ) ;
#81 = MANIFOLD_SOLID_BREP ( 'Fillet1', #14 ) ;
#82 = LINE ( 'NONE', #31, #121 ) ;
#83 = DIRECTION ( 'NONE',  ( 0.0000000000000000000, 0.0000000000000000000, 1.000000000000000000 ) ) ;
#84 = EDGE_CURVE ( 'NONE', #191, #130, #234, .T. ) ;
#85 = UNCERTAINTY_MEASURE_WITH_UNIT (LENGTH_MEASURE( 1.000000000000000082E-05 ), #211, 'distance_accuracy_value', 'NONE');
#86 = CYLINDRICAL_SURFACE ( 'NONE', #173, 0.05905500000000000332 ) ;
#87 = APPLICATION_CONTEXT ( 'automotive_design' ) ;
#88 =( NAMED_UNIT ( * ) PLANE_ANGLE_UNIT ( ) SI_UNIT ( $, .RADIAN. ) );
#89 =( GEOMETRIC_REPRESENTATION_CONTEXT ( 3 ) GLOBAL_UNCERTAINTY_ASSIGNED_CONTEXT ( ( #159 ) ) GLOBAL_UNIT_ASSIGNED_CONTEXT ( ( #169, #112, #314 ) ) REPRESENTATION_CONTEXT ( 'NONE', 'WORKASPACE' ) );
#90 = APPLICATION_PROTOCOL_DEFINITION ( 'draft international standard', 'automotive_design', 1998, #87 ) ;
#91 = CARTESIAN_POINT ( 'NONE',  ( 0.0000000000000000000, 0.0000000000000000000, 0.0000000000000000000 ) ) ;
#92 = PRESENTATION_STYLE_ASSIGNMENT (( #20 ) ) ;
#93 = EDGE_CURVE ( 'NONE', #145, #101, #116, .T. ) ;
#94 = AXIS2_PLACEMENT_3D ( 'NONE', #233, #312, #123 ) ;
#95 = CARTESIAN_POINT ( 'NONE',  ( -0.02949797249999999357, 0.0000000000000000000, 0.02949797250000000398 ) ) ;
#96 = EDGE_CURVE ( 'NONE', #163, #191, #104, .T. ) ;
#97 = CARTESIAN_POINT ( 'NONE',  ( 1.108929923095919883E-17, 0.0000000000000000000, 0.09055100000000000648 ) ) ;
#98 = ORIENTED_EDGE ( 'NONE', *, *, #189, .F. ) ;
#99 = CARTESIAN_POINT ( 'NONE',  ( 0.0000000000000000000, 0.0000000000000000000, 1.496062999999999921 ) ) ;
#100 = VERTEX_POINT ( 'NONE', #47 ) ;
#101 = VERTEX_POINT ( 'NONE', #146 ) ;
#102 = DIRECTION ( 'NONE',  ( -1.224646799147353207E-16, -0.0000000000000000000, -1.000000000000000000 ) ) ;
#103 = AXIS2_PLACEMENT_3D ( 'NONE', #15, #286, #144 ) ;
#104 = CIRCLE ( 'NONE', #135, 0.02949797249999999704 ) ;
#105 = DIRECTION ( 'NONE',  ( 0.0000000000000000000, 1.000000000000000000, 0.0000000000000000000 ) ) ;
#106 = DIRECTION ( 'NONE',  ( 0.0000000000000000000, 0.0000000000000000000, -1.000000000000000000 ) ) ;
#107 = LINE ( 'NONE', #133, #273 ) ;
#108 = AXIS2_PLACEMENT_3D ( 'NONE', #91, #315, #290 ) ;
#109 =( GEOMETRIC_REPRESENTATION_CONTEXT ( 3 ) GLOBAL_UNCERTAINTY_ASSIGNED_CONTEXT ( ( #306 ) ) GLOBAL_UNIT_ASSIGNED_CONTEXT ( ( #285, #88, #9 ) ) REPRESENTATION_CONTEXT ( 'NONE', 'WORKASPACE' ) );
#110 = DIRECTION ( 'NONE',  ( 1.000000000000000000, 0.0000000000000000000, -0.0000000000000000000 ) ) ;
#111 = EDGE_CURVE ( 'NONE', #163, #179, #125, .T. ) ;
#112 =( NAMED_UNIT ( * ) PLANE_ANGLE_UNIT ( ) SI_UNIT ( $, .RADIAN. ) );
#113 = DIRECTION ( 'NONE',  ( 1.000000000000000000, 0.0000000000000000000, 0.0000000000000000000 ) ) ;
#114 = ORIENTED_EDGE ( 'NONE', *, *, #269, .T. ) ;
#115 = CARTESIAN_POINT ( 'NONE',  ( 0.0000000000000000000, 0.0000000000000000000, 0.0000000000000000000 ) ) ;
#116 = CIRCLE ( 'NONE', #200, 0.05905500000000000332 ) ;
#117 = CARTESIAN_POINT ( 'NONE',  ( 1.108929923095919883E-17, 0.0000000000000000000, 0.09055100000000000648 ) ) ;
#118 = CARTESIAN_POINT ( 'NONE',  ( 0.05905500000000000332, 7.232151672364695422E-18, 1.481062999999999574 ) ) ;
#119 = EDGE_CURVE ( 'NONE', #196, #145, #167, .T. ) ;
#120 = DIRECTION ( 'NONE',  ( -1.000000000000000000, 0.0000000000000000000, 0.0000000000000000000 ) ) ;
#121 = VECTOR ( 'NONE', #305, 39.37007874015748143 ) ;
#122 =( LENGTH_UNIT ( ) NAMED_UNIT ( * ) SI_UNIT ( $, .METRE. ) );
#123 = DIRECTION ( 'NONE',  ( -1.000000000000000000, 0.0000000000000000000, 1.447052840699614652E-16 ) ) ;
#124 = VERTEX_POINT ( 'NONE', #95 ) ;
#125 = LINE ( 'NONE', #281, #1 ) ;
#126 = EDGE_LOOP ( 'NONE', ( #318, #128, #186, #98 ) ) ;
#127 = CIRCLE ( 'NONE', #185, 0.05905500000000000332 ) ;
#128 = ORIENTED_EDGE ( 'NONE', *, *, #119, .T. ) ;
#129 = EDGE_LOOP ( 'NONE', ( #19, #114, #180, #287 ) ) ;
#130 = VERTEX_POINT ( 'NONE', #73 ) ;
#131 = LINE ( 'NONE', #226, #262 ) ;
#132 = EDGE_CURVE ( 'NONE', #101, #145, #127, .T. ) ;
#133 = CARTESIAN_POINT ( 'NONE',  ( -0.04405499999999973326, 0.0000000000000000000, 1.496062999999999921 ) ) ;
#134 = PLANE ( 'NONE',  #304 ) ;
#135 = AXIS2_PLACEMENT_3D ( 'NONE', #97, #283, #190 ) ;
#136 = LENGTH_MEASURE_WITH_UNIT ( LENGTH_MEASURE( 0.02539999999999999897 ), #70 );
#137 = AXIS2_PLACEMENT_3D ( 'NONE', #160, #83, #272 ) ;
#138 = PRODUCT_RELATED_PRODUCT_CATEGORY ( 'part', '', ( #212 ) ) ;
#139 = CARTESIAN_POINT ( 'NONE',  ( 5.418689640519246881E-18, 0.0000000000000000000, 0.0000000000000000000 ) ) ;
#140 = PRODUCT_CONTEXT ( 'NONE', #36, 'mechanical' ) ;
#141 = VERTEX_POINT ( 'NONE', #139 ) ;
#142 = DIRECTION ( 'NONE',  ( 1.000000000000000000, 0.0000000000000000000, 0.0000000000000000000 ) ) ;
#143 = VECTOR ( 'NONE', #12, 39.37007874015748143 ) ;
#144 = DIRECTION ( 'NONE',  ( 1.000000000000000000, 0.0000000000000000000, 0.0000000000000000000 ) ) ;
#145 = VERTEX_POINT ( 'NONE', #118 ) ;
#146 = CARTESIAN_POINT ( 'NONE',  ( -0.05905500000000000332, 0.0000000000000000000, 1.481062999999999574 ) ) ;
#147 = CARTESIAN_POINT ( 'NONE',  ( 3.161759216420703775E-17, 0.0000000000000000000, 0.2581772327026897740 ) ) ;
#148 = DIRECTION ( 'NONE',  ( -1.000000000000000000, 1.224646799147353454E-16, 0.0000000000000000000 ) ) ;
#149 = ORIENTED_EDGE ( 'NONE', *, *, #189, .T. ) ;
#150 = AXIS2_PLACEMENT_3D ( 'NONE', #71, #164, #41 ) ;
#151 = CONICAL_SURFACE ( 'NONE', #231, 0.04405499999999973326, 0.7853981633974491672 ) ;
#152 = DIRECTION ( 'NONE',  ( 1.000000000000000000, 0.0000000000000000000, 0.0000000000000000000 ) ) ;
#153 = ORIENTED_EDGE ( 'NONE', *, *, #93, .F. ) ;
#154 = EDGE_CURVE ( 'NONE', #101, #130, #82, .T. ) ;
#155 = FACE_OUTER_BOUND ( 'NONE', #51, .T. ) ;
#156 =( GEOMETRIC_REPRESENTATION_CONTEXT ( 3 ) GLOBAL_UNCERTAINTY_ASSIGNED_CONTEXT ( ( #85 ) ) GLOBAL_UNIT_ASSIGNED_CONTEXT ( ( #211, #216, #171 ) ) REPRESENTATION_CONTEXT ( 'NONE', 'WORKASPACE' ) );
#157 = CARTESIAN_POINT ( 'NONE',  ( -0.04405499999999973326, 0.0000000000000000000, 1.496062999999999921 ) ) ;
#158 = DIRECTION ( 'NONE',  ( 1.000000000000000000, 0.0000000000000000000, 0.0000000000000000000 ) ) ;
#159 = UNCERTAINTY_MEASURE_WITH_UNIT (LENGTH_MEASURE( 1.000000000000000082E-05 ), #169, 'distance_accuracy_value', 'NONE');
#160 = CARTESIAN_POINT ( 'NONE',  ( 0.0000000000000000000, 0.0000000000000000000, 1.496062999999999921 ) ) ;
#161 = PRODUCT_DEFINITION_FORMATION_WITH_SPECIFIED_SOURCE ( 'ANY', '', #212, .NOT_KNOWN. ) ;
#162 = FILL_AREA_STYLE_COLOUR ( '', #206 ) ;
#163 = VERTEX_POINT ( 'NONE', #207 ) ;
#164 = DIRECTION ( 'NONE',  ( -1.224646799147353207E-16, -0.0000000000000000000, -1.000000000000000000 ) ) ;
#165 = DIRECTION ( 'NONE',  ( 0.0000000000000000000, 0.0000000000000000000, 1.000000000000000000 ) ) ;
#166 = AXIS2_PLACEMENT_3D ( 'NONE', #247, #320, #194 ) ;
#167 = LINE ( 'NONE', #16, #35 ) ;
#168 = EDGE_LOOP ( 'NONE', ( #223, #69, #264, #237 ) ) ;
#169 =( CONVERSION_BASED_UNIT ( 'INCH', #136 ) LENGTH_UNIT ( ) NAMED_UNIT ( #296 ) );
#170 = ADVANCED_FACE ( 'NONE', ( #29 ), #86, .T. ) ;
#171 =( NAMED_UNIT ( * ) SI_UNIT ( $, .STERADIAN. ) SOLID_ANGLE_UNIT ( ) );
#172 = DIRECTION ( 'NONE',  ( 0.0000000000000000000, 0.0000000000000000000, -1.000000000000000000 ) ) ;
#173 = AXIS2_PLACEMENT_3D ( 'NONE', #99, #5, #176 ) ;
#174 = CARTESIAN_POINT ( 'NONE',  ( 0.0000000000000000000, 0.0000000000000000000, 1.496062999999999921 ) ) ;
#175 = CARTESIAN_POINT ( 'NONE',  ( 0.0000000000000000000, 0.0000000000000000000, 0.0000000000000000000 ) ) ;
#176 = DIRECTION ( 'NONE',  ( -1.000000000000000000, 0.0000000000000000000, 0.0000000000000000000 ) ) ;
#177 = ORIENTED_EDGE ( 'NONE', *, *, #62, .F. ) ;
#178 = ADVANCED_FACE ( 'NONE', ( #219 ), #44, .T. ) ;
#179 = VERTEX_POINT ( 'NONE', #30 ) ;
#180 = ORIENTED_EDGE ( 'NONE', *, *, #10, .F. ) ;
#181 = LINE ( 'NONE', #249, #225 ) ;
#182 = DIRECTION ( 'NONE',  ( -1.224646799147353207E-16, -0.0000000000000000000, -1.000000000000000000 ) ) ;
#183 = FACE_OUTER_BOUND ( 'NONE', #241, .T. ) ;
#184 = DIRECTION ( 'NONE',  ( -1.000000000000000000, 0.0000000000000000000, 0.0000000000000000000 ) ) ;
#185 = AXIS2_PLACEMENT_3D ( 'NONE', #65, #172, #39 ) ;
#186 = ORIENTED_EDGE ( 'NONE', *, *, #132, .F. ) ;
#187 = CARTESIAN_POINT ( 'NONE',  ( 0.0000000000000000000, 0.0000000000000000000, 1.481062999999999574 ) ) ;
#188 = AXIS2_PLACEMENT_3D ( 'NONE', #293, #275, #148 ) ;
#189 = EDGE_CURVE ( 'NONE', #220, #101, #107, .T. ) ;
#190 = DIRECTION ( 'NONE',  ( -1.000000000000000000, 0.0000000000000000000, 0.0000000000000000000 ) ) ;
#191 = VERTEX_POINT ( 'NONE', #58 ) ;
#192 = DIRECTION ( 'NONE',  ( -0.0000000000000000000, -0.0000000000000000000, -1.000000000000000000 ) ) ;
#193 = FACE_OUTER_BOUND ( 'NONE', #168, .T. ) ;
#194 = DIRECTION ( 'NONE',  ( -1.000000000000000000, 0.0000000000000000000, 1.447052840699614652E-16 ) ) ;
#195 = ADVANCED_FACE ( 'NONE', ( #155 ), #134, .T. ) ;
#196 = VERTEX_POINT ( 'NONE', #61 ) ;
#197 = CARTESIAN_POINT ( 'NONE',  ( 1.108929923095919883E-17, 0.0000000000000000000, 0.09055100000000000648 ) ) ;
#198 = ORIENTED_EDGE ( 'NONE', *, *, #84, .T. ) ;
#199 = CIRCLE ( 'NONE', #103, 0.04405499999999973326 ) ;
#200 = AXIS2_PLACEMENT_3D ( 'NONE', #187, #263, #142 ) ;
#201 = ADVANCED_BREP_SHAPE_REPRESENTATION ( 'Micro_BMSM-015-2X', ( #81, #284 ), #89 ) ;
#202 = DIRECTION ( 'NONE',  ( 1.000000000000000000, 0.0000000000000000000, 0.0000000000000000000 ) ) ;
#203 = DIRECTION ( 'NONE',  ( 0.0000000000000000000, -1.000000000000000000, 0.0000000000000000000 ) ) ;
#204 = CARTESIAN_POINT ( 'NONE',  ( 0.0000000000000000000, 0.0000000000000000000, 1.496062999999999921 ) ) ;
#205 = CIRCLE ( 'NONE', #298, 0.05905500000000000332 ) ;
#206 = COLOUR_RGB ( '',0.7921568627450980005, 0.8196078431372548767, 0.9333333333333333481 ) ;
#207 = CARTESIAN_POINT ( 'NONE',  ( 0.02949797250000001092, 0.0000000000000000000, 0.09055100000000000648 ) ) ;
#208 = SHAPE_DEFINITION_REPRESENTATION ( #274, #201 ) ;
#209 = ADVANCED_FACE ( 'NONE', ( #221 ), #151, .T. ) ;
#210 = ORIENTED_EDGE ( 'NONE', *, *, #269, .F. ) ;
#211 =( CONVERSION_BASED_UNIT ( 'INCH', #43 ) LENGTH_UNIT ( ) NAMED_UNIT ( #46 ) );
#212 = PRODUCT ( 'Micro_BMSM-015-2X', 'Micro_BMSM-015-2X', '', ( #140 ) ) ;
#213 = EDGE_LOOP ( 'NONE', ( #63, #37, #45, #319 ) ) ;
#214 = DIRECTION ( 'NONE',  ( 1.224646799147353207E-16, 0.0000000000000000000, 1.000000000000000000 ) ) ;
#215 = CIRCLE ( 'NONE', #188, 0.02949797249999999704 ) ;
#216 =( NAMED_UNIT ( * ) PLANE_ANGLE_UNIT ( ) SI_UNIT ( $, .RADIAN. ) );
#217 = ORIENTED_EDGE ( 'NONE', *, *, #62, .T. ) ;
#218 = EDGE_CURVE ( 'NONE', #141, #124, #215, .T. ) ;
#219 = FACE_OUTER_BOUND ( 'NONE', #126, .T. ) ;
#220 = VERTEX_POINT ( 'NONE', #157 ) ;
#221 = FACE_OUTER_BOUND ( 'NONE', #270, .T. ) ;
#222 = ORIENTED_EDGE ( 'NONE', *, *, #154, .T. ) ;
#223 = ORIENTED_EDGE ( 'NONE', *, *, #84, .F. ) ;
#224 = ADVANCED_FACE ( 'NONE', ( #265 ), #303, .T. ) ;
#225 = VECTOR ( 'NONE', #56, 39.37007874015748143 ) ;
#226 = CARTESIAN_POINT ( 'NONE',  ( 0.05905500000000000332, 7.232151672364695422E-18, 1.496062999999999921 ) ) ;
#227 = DIRECTION ( 'NONE',  ( -1.000000000000000000, 0.0000000000000000000, 0.0000000000000000000 ) ) ;
#228 = EDGE_CURVE ( 'NONE', #141, #100, #57, .T. ) ;
#229 = DIRECTION ( 'NONE',  ( 0.0000000000000000000, 0.0000000000000000000, -1.000000000000000000 ) ) ;
#230 = AXIS2_PLACEMENT_3D ( 'NONE', #174, #192, #120 ) ;
#231 = AXIS2_PLACEMENT_3D ( 'NONE', #204, #229, #227 ) ;
#232 = CIRCLE ( 'NONE', #137, 0.04405499999999973326 ) ;
#233 = CARTESIAN_POINT ( 'NONE',  ( 3.612459760346164844E-18, 0.0000000000000000000, 0.02949797249999999704 ) ) ;
#234 = LINE ( 'NONE', #18, #143 ) ;
#235 = FILL_AREA_STYLE ('',( #257 ) ) ;
#236 = SURFACE_STYLE_FILL_AREA ( #235 ) ;
#237 = ORIENTED_EDGE ( 'NONE', *, *, #54, .T. ) ;
#238 = SURFACE_SIDE_STYLE ('',( #236 ) ) ;
#239 = ORIENTED_EDGE ( 'NONE', *, *, #323, .F. ) ;
#240 = DIRECTION ( 'NONE',  ( 0.0000000000000000000, 1.000000000000000000, 0.0000000000000000000 ) ) ;
#241 = EDGE_LOOP ( 'NONE', ( #239, #198, #324, #52 ) ) ;
#242 = CIRCLE ( 'NONE', #150, 0.05905500000000000332 ) ;
#243 = PRESENTATION_LAYER_ASSIGNMENT (  '', '', ( #67 ) ) ;
#244 = ORIENTED_EDGE ( 'NONE', *, *, #96, .T. ) ;
#245 = ORIENTED_EDGE ( 'NONE', *, *, #218, .T. ) ;
#246 = CARTESIAN_POINT ( 'NONE',  ( 0.0000000000000000000, 0.0000000000000000000, 1.496062999999999921 ) ) ;
#247 = CARTESIAN_POINT ( 'NONE',  ( 3.612459760346164844E-18, 0.0000000000000000000, 0.02949797249999999704 ) ) ;
#248 = EDGE_CURVE ( 'NONE', #196, #220, #232, .T. ) ;
#249 = CARTESIAN_POINT ( 'NONE',  ( 0.02949797249999999704, 3.612459760346164844E-18, -3.612459760346164844E-18 ) ) ;
#250 = DIRECTION ( 'NONE',  ( -0.0000000000000000000, -0.0000000000000000000, -1.000000000000000000 ) ) ;
#251 = AXIS2_PLACEMENT_3D ( 'NONE', #246, #106, #184 ) ;
#252 = SURFACE_STYLE_FILL_AREA ( #277 ) ;
#253 = DIRECTION ( 'NONE',  ( -1.000000000000000000, 0.0000000000000000000, 0.0000000000000000000 ) ) ;
#254 = AXIS2_PLACEMENT_3D ( 'NONE', #197, #295, #291 ) ;
#255 = LENGTH_MEASURE_WITH_UNIT ( LENGTH_MEASURE( 0.02539999999999999897 ), #64 );
#256 = ADVANCED_FACE ( 'NONE', ( #302 ), #271, .T. ) ;
#257 = FILL_AREA_STYLE_COLOUR ( '', #292 ) ;
#258 = EDGE_LOOP ( 'NONE', ( #310, #244, #21, #13 ) ) ;
#259 = CYLINDRICAL_SURFACE ( 'NONE', #108, 0.02949797249999999704 ) ;
#260 = FACE_OUTER_BOUND ( 'NONE', #72, .T. ) ;
#261 = EDGE_CURVE ( 'NONE', #163, #100, #181, .T. ) ;
#262 = VECTOR ( 'NONE', #250, 39.37007874015748143 ) ;
#263 = DIRECTION ( 'NONE',  ( 0.0000000000000000000, 0.0000000000000000000, -1.000000000000000000 ) ) ;
#264 = ORIENTED_EDGE ( 'NONE', *, *, #111, .T. ) ;
#265 = FACE_OUTER_BOUND ( 'NONE', #297, .T. ) ;
#266 = ORIENTED_EDGE ( 'NONE', *, *, #119, .F. ) ;
#267 = DIRECTION ( 'NONE',  ( -1.000000000000000000, 0.0000000000000000000, 1.224646799147353454E-16 ) ) ;
#268 = CIRCLE ( 'NONE', #166, 0.02949797249999999704 ) ;
#269 = EDGE_CURVE ( 'NONE', #145, #179, #131, .T. ) ;
#270 = EDGE_LOOP ( 'NONE', ( #266, #177, #149, #153 ) ) ;
#271 = SPHERICAL_SURFACE ( 'NONE', #322, 0.02949797249999999704 ) ;
#272 = DIRECTION ( 'NONE',  ( 1.000000000000000000, 0.0000000000000000000, 0.0000000000000000000 ) ) ;
#273 = VECTOR ( 'NONE', #301, 39.37007874015748143 ) ;
#274 = PRODUCT_DEFINITION_SHAPE ( 'NONE', 'NONE',  #32 ) ;
#275 = DIRECTION ( 'NONE',  ( 1.224646799147353207E-16, 1.000000000000000000, -0.0000000000000000000 ) ) ;
#276 = DIRECTION ( 'NONE',  ( 0.0000000000000000000, 0.0000000000000000000, 1.000000000000000000 ) ) ;
#277 = FILL_AREA_STYLE ('',( #162 ) ) ;
#278 = CIRCLE ( 'NONE', #94, 0.02949797249999999704 ) ;
#279 = PRESENTATION_LAYER_ASSIGNMENT (  '', '', ( #11 ) ) ;
#280 = PRODUCT_DEFINITION_CONTEXT ( 'detailed design', #87, 'design' ) ;
#281 = CARTESIAN_POINT ( 'NONE',  ( 0.02949797250000001092, 0.0000000000000000000, 0.09055100000000000648 ) ) ;
#282 = SURFACE_STYLE_USAGE ( .BOTH. , #309 ) ;
#283 = DIRECTION ( 'NONE',  ( -1.224646799147353207E-16, -0.0000000000000000000, -1.000000000000000000 ) ) ;
#284 = AXIS2_PLACEMENT_3D ( 'NONE', #115, #165, #113 ) ;
#285 =( CONVERSION_BASED_UNIT ( 'INCH', #255 ) LENGTH_UNIT ( ) NAMED_UNIT ( #22 ) );
#286 = DIRECTION ( 'NONE',  ( 0.0000000000000000000, 0.0000000000000000000, 1.000000000000000000 ) ) ;
#287 = ORIENTED_EDGE ( 'NONE', *, *, #154, .F. ) ;
#288 = EDGE_CURVE ( 'NONE', #191, #124, #33, .T. ) ;
#289 = CYLINDRICAL_SURFACE ( 'NONE', #230, 0.05905500000000000332 ) ;
#290 = DIRECTION ( 'NONE',  ( -1.000000000000000000, 0.0000000000000000000, 1.224646799147353454E-16 ) ) ;
#291 = DIRECTION ( 'NONE',  ( 1.000000000000000000, 0.0000000000000000000, 0.0000000000000000000 ) ) ;
#292 = COLOUR_RGB ( '',0.7921568627450980005, 0.8196078431372548767, 0.9333333333333333481 ) ;
#293 = CARTESIAN_POINT ( 'NONE',  ( 3.612459760346164844E-18, 0.0000000000000000000, 0.02949797249999999704 ) ) ;
#294 = ORIENTED_EDGE ( 'NONE', *, *, #93, .T. ) ;
#295 = DIRECTION ( 'NONE',  ( 1.224646799147353207E-16, 0.0000000000000000000, 1.000000000000000000 ) ) ;
#296 = DIMENSIONAL_EXPONENTS ( 1.000000000000000000, 0.0000000000000000000, 0.0000000000000000000, 0.0000000000000000000, 0.0000000000000000000, 0.0000000000000000000, 0.0000000000000000000 ) ;
#297 = EDGE_LOOP ( 'NONE', ( #42, #245, #78 ) ) ;
#298 = AXIS2_PLACEMENT_3D ( 'NONE', #147, #102, #152 ) ;
#299 = AXIS2_PLACEMENT_3D ( 'NONE', #6, #240, #202 ) ;
#300 = AXIS2_PLACEMENT_3D ( 'NONE', #117, #40, #253 ) ;
#301 = DIRECTION ( 'NONE',  ( -0.7071067811865482389, 0.0000000000000000000, -0.7071067811865469066 ) ) ;
#302 = FACE_OUTER_BOUND ( 'NONE', #24, .T. ) ;
#303 = SPHERICAL_SURFACE ( 'NONE', #299, 0.02949797249999999704 ) ;
#304 = AXIS2_PLACEMENT_3D ( 'NONE', #50, #276, #110 ) ;
#305 = DIRECTION ( 'NONE',  ( -0.0000000000000000000, -0.0000000000000000000, -1.000000000000000000 ) ) ;
#306 = UNCERTAINTY_MEASURE_WITH_UNIT (LENGTH_MEASURE( 1.000000000000000082E-05 ), #285, 'distance_accuracy_value', 'NONE');
#307 = PRESENTATION_STYLE_ASSIGNMENT (( #282 ) ) ;
#308 = EDGE_CURVE ( 'NONE', #124, #100, #268, .T. ) ;
#309 = SURFACE_SIDE_STYLE ('',( #252 ) ) ;
#310 = ORIENTED_EDGE ( 'NONE', *, *, #261, .F. ) ;
#311 = APPLICATION_PROTOCOL_DEFINITION ( 'draft international standard', 'automotive_design', 1998, #36 ) ;
#312 = DIRECTION ( 'NONE',  ( 1.224646799147353207E-16, 0.0000000000000000000, 1.000000000000000000 ) ) ;
#313 = ADVANCED_FACE ( 'NONE', ( #183 ), #38, .T. ) ;
#314 =( NAMED_UNIT ( * ) SI_UNIT ( $, .STERADIAN. ) SOLID_ANGLE_UNIT ( ) );
#315 = DIRECTION ( 'NONE',  ( -1.224646799147353207E-16, -0.0000000000000000000, -1.000000000000000000 ) ) ;
#316 = CIRCLE ( 'NONE', #300, 0.02949797249999999704 ) ;
#317 = DIRECTION ( 'NONE',  ( 0.7071067811865482389, 8.659560562354941486E-17, -0.7071067811865469066 ) ) ;
#318 = ORIENTED_EDGE ( 'NONE', *, *, #248, .F. ) ;
#319 = ORIENTED_EDGE ( 'NONE', *, *, #288, .F. ) ;
#320 = DIRECTION ( 'NONE',  ( 1.224646799147353207E-16, 0.0000000000000000000, 1.000000000000000000 ) ) ;
#321 = ORIENTED_EDGE ( 'NONE', *, *, #54, .F. ) ;
#322 = AXIS2_PLACEMENT_3D ( 'NONE', #2, #105, #158 ) ;
#323 = EDGE_CURVE ( 'NONE', #191, #163, #316, .T. ) ;
#324 = ORIENTED_EDGE ( 'NONE', *, *, #10, .T. ) ;
#325 = FACE_OUTER_BOUND ( 'NONE', #213, .T. ) ;
ENDSEC;
END-ISO-10303-21;
