ISO-10303-21;
HEADER;
FILE_DESCRIPTION (( 'STEP AP214' ),
    '1' );
FILE_NAME ('Micro_GLRM-160-2X.STEP',
    '2021-09-03T16:21:15',
    ( '' ),
    ( '' ),
    'SwSTEP 2.0',
    'SolidWorks 2020',
    '' );
FILE_SCHEMA (( 'AUTOMOTIVE_DESIGN' ));
ENDSEC;

DATA;
#1 = DIRECTION ( 'NONE',  ( -0.0000000000000000000, -0.0000000000000000000, -1.000000000000000000 ) ) ;
#2 = ADVANCED_FACE ( 'NONE', ( #48 ), #240, .T. ) ;
#3 = DIRECTION ( 'NONE',  ( 0.1736481776669302479, 2.126576849575770682E-17, -0.9848077530122080203 ) ) ;
#4 = CARTESIAN_POINT ( 'NONE',  ( 0.0000000000000000000, 0.0000000000000000000, 0.0000000000000000000 ) ) ;
#5 = FACE_OUTER_BOUND ( 'NONE', #78, .T. ) ;
#6 = CARTESIAN_POINT ( 'NONE',  ( 0.0000000000000000000, 0.0000000000000000000, 1.181102000000000096 ) ) ;
#7 = DIRECTION ( 'NONE',  ( -0.0000000000000000000, -0.0000000000000000000, -1.000000000000000000 ) ) ;
#8 = AXIS2_PLACEMENT_3D ( 'NONE', #358, #91, #265 ) ;
#9 = CARTESIAN_POINT ( 'NONE',  ( 0.0000000000000000000, 0.0000000000000000000, 5.890512000000002857 ) ) ;
#10 = DIRECTION ( 'NONE',  ( 0.7071067811865877628, 8.659560562355427129E-17, -0.7071067811865072716 ) ) ;
#11 = ORIENTED_EDGE ( 'NONE', *, *, #351, .F. ) ;
#12 = ADVANCED_FACE ( 'NONE', ( #230 ), #219, .T. ) ;
#13 =( LENGTH_UNIT ( ) NAMED_UNIT ( * ) SI_UNIT ( $, .METRE. ) );
#14 = EDGE_CURVE ( 'NONE', #155, #371, #353, .T. ) ;
#15 = ORIENTED_EDGE ( 'NONE', *, *, #164, .T. ) ;
#16 = ORIENTED_EDGE ( 'NONE', *, *, #346, .T. ) ;
#17 = AXIS2_PLACEMENT_3D ( 'NONE', #111, #89, #177 ) ;
#18 =( NAMED_UNIT ( * ) PLANE_ANGLE_UNIT ( ) SI_UNIT ( $, .RADIAN. ) );
#19 = EDGE_LOOP ( 'NONE', ( #11, #299, #220, #200 ) ) ;
#20 = ORIENTED_EDGE ( 'NONE', *, *, #71, .T. ) ;
#21 = CIRCLE ( 'NONE', #336, 0.3051180000000001669 ) ;
#22 = FACE_OUTER_BOUND ( 'NONE', #297, .T. ) ;
#23 = CARTESIAN_POINT ( 'NONE',  ( 0.0000000000000000000, 0.0000000000000000000, 5.905511999999999873 ) ) ;
#24 = DIRECTION ( 'NONE',  ( -0.0000000000000000000, -0.0000000000000000000, -1.000000000000000000 ) ) ;
#25 = CARTESIAN_POINT ( 'NONE',  ( 0.0000000000000000000, 0.0000000000000000000, 3.937007999999999619 ) ) ;
#26 = MECHANICAL_DESIGN_GEOMETRIC_PRESENTATION_REPRESENTATION (  '', ( #64 ), #288 ) ;
#27 = VECTOR ( 'NONE', #116, 39.37007874015748143 ) ;
#28 = PRODUCT_CONTEXT ( 'NONE', #279, 'mechanical' ) ;
#29 = CARTESIAN_POINT ( 'NONE',  ( 0.3149290039500001193, 3.856767966460317268E-17, 1.181102000000000096 ) ) ;
#30 = ADVANCED_FACE ( 'NONE', ( #22 ), #377, .T. ) ;
#31 = CYLINDRICAL_SURFACE ( 'NONE', #51, 0.3149604999999999766 ) ;
#32 = CARTESIAN_POINT ( 'NONE',  ( 0.2999605000000007404, 3.765305171892452141E-17, 5.905511999999999873 ) ) ;
#33 = COLOUR_RGB ( '',0.7921568627450980005, 0.8196078431372548767, 0.9333333333333333481 ) ;
#34 = DIRECTION ( 'NONE',  ( -0.0000000000000000000, -0.0000000000000000000, -1.000000000000000000 ) ) ;
#35 = ORIENTED_EDGE ( 'NONE', *, *, #175, .T. ) ;
#36 = CARTESIAN_POINT ( 'NONE',  ( 0.0000000000000000000, 0.0000000000000000000, 1.236742968333832460 ) ) ;
#37 = DIRECTION ( 'NONE',  ( -1.000000000000000000, 0.0000000000000000000, 0.0000000000000000000 ) ) ;
#38 = ORIENTED_EDGE ( 'NONE', *, *, #41, .F. ) ;
#39 = CIRCLE ( 'NONE', #179, 0.2999605000000007404 ) ;
#40 = PRESENTATION_STYLE_ASSIGNMENT (( #301 ) ) ;
#41 = EDGE_CURVE ( 'NONE', #67, #155, #311, .T. ) ;
#42 = ORIENTED_EDGE ( 'NONE', *, *, #140, .T. ) ;
#43 = DIRECTION ( 'NONE',  ( -1.000000000000000000, 0.0000000000000000000, 0.0000000000000000000 ) ) ;
#44 = ORIENTED_EDGE ( 'NONE', *, *, #276, .T. ) ;
#45 = CONICAL_SURFACE ( 'NONE', #153, 0.2999605000000007404, 0.7853981633975052334 ) ;
#46 = CARTESIAN_POINT ( 'NONE',  ( 0.0000000000000000000, 0.0000000000000000000, 5.905511999999999873 ) ) ;
#47 = CIRCLE ( 'NONE', #231, 0.2999605000000007404 ) ;
#48 = FACE_OUTER_BOUND ( 'NONE', #193, .T. ) ;
#49 = VERTEX_POINT ( 'NONE', #174 ) ;
#50 = VERTEX_POINT ( 'NONE', #376 ) ;
#51 = AXIS2_PLACEMENT_3D ( 'NONE', #156, #361, #68 ) ;
#52 = CARTESIAN_POINT ( 'NONE',  ( 0.0000000000000000000, 0.0000000000000000000, 3.937007999999999619 ) ) ;
#53 = ADVANCED_FACE ( 'NONE', ( #286 ), #319, .T. ) ;
#54 = EDGE_CURVE ( 'NONE', #69, #167, #261, .T. ) ;
#55 = LINE ( 'NONE', #347, #27 ) ;
#56 = LINE ( 'NONE', #117, #134 ) ;
#57 = ADVANCED_FACE ( 'NONE', ( #285 ), #100, .T. ) ;
#58 = FACE_OUTER_BOUND ( 'NONE', #102, .T. ) ;
#59 = AXIS2_PLACEMENT_3D ( 'NONE', #4, #338, #43 ) ;
#60 = DIRECTION ( 'NONE',  ( -1.000000000000000000, 0.0000000000000000000, 0.0000000000000000000 ) ) ;
#61 = CARTESIAN_POINT ( 'NONE',  ( 0.0000000000000000000, 0.0000000000000000000, 5.905511999999999873 ) ) ;
#62 = UNCERTAINTY_MEASURE_WITH_UNIT (LENGTH_MEASURE( 1.000000000000000082E-05 ), #163, 'distance_accuracy_value', 'NONE');
#63 = CARTESIAN_POINT ( 'NONE',  ( -0.3149290039500001193, 0.0000000000000000000, 1.181102000000000096 ) ) ;
#64 = STYLED_ITEM ( 'NONE', ( #40 ), #372 ) ;
#65 = AXIS2_PLACEMENT_3D ( 'NONE', #378, #114, #228 ) ;
#66 = DIRECTION ( 'NONE',  ( 0.0000000000000000000, 0.0000000000000000000, 1.000000000000000000 ) ) ;
#67 = VERTEX_POINT ( 'NONE', #283 ) ;
#68 = DIRECTION ( 'NONE',  ( -1.000000000000000000, 0.0000000000000000000, 0.0000000000000000000 ) ) ;
#69 = VERTEX_POINT ( 'NONE', #204 ) ;
#70 = SURFACE_STYLE_FILL_AREA ( #223 ) ;
#71 = EDGE_CURVE ( 'NONE', #199, #50, #344, .T. ) ;
#72 = DIRECTION ( 'NONE',  ( -1.000000000000000000, 0.0000000000000000000, 0.0000000000000000000 ) ) ;
#73 = EDGE_CURVE ( 'NONE', #371, #199, #55, .T. ) ;
#74 = ORIENTED_EDGE ( 'NONE', *, *, #326, .F. ) ;
#75 = ORIENTED_EDGE ( 'NONE', *, *, #152, .T. ) ;
#76 = SURFACE_SIDE_STYLE ('',( #70 ) ) ;
#77 =( GEOMETRIC_REPRESENTATION_CONTEXT ( 3 ) GLOBAL_UNCERTAINTY_ASSIGNED_CONTEXT ( ( #243 ) ) GLOBAL_UNIT_ASSIGNED_CONTEXT ( ( #161, #18, #101 ) ) REPRESENTATION_CONTEXT ( 'NONE', 'WORKASPACE' ) );
#78 = EDGE_LOOP ( 'NONE', ( #132, #195 ) ) ;
#79 = AXIS2_PLACEMENT_3D ( 'NONE', #226, #1, #225 ) ;
#80 = DIMENSIONAL_EXPONENTS ( 1.000000000000000000, 0.0000000000000000000, 0.0000000000000000000, 0.0000000000000000000, 0.0000000000000000000, 0.0000000000000000000, 0.0000000000000000000 ) ;
#81 = VERTEX_POINT ( 'NONE', #257 ) ;
#82 = FACE_OUTER_BOUND ( 'NONE', #130, .T. ) ;
#83 = EDGE_CURVE ( 'NONE', #340, #167, #322, .T. ) ;
#84 = DIRECTION ( 'NONE',  ( -1.000000000000000000, 0.0000000000000000000, 0.0000000000000000000 ) ) ;
#85 = CIRCLE ( 'NONE', #8, 0.3149604999999999766 ) ;
#86 = SHAPE_DEFINITION_REPRESENTATION ( #172, #372 ) ;
#87 = CARTESIAN_POINT ( 'NONE',  ( 0.0000000000000000000, 0.0000000000000000000, 5.905511999999999873 ) ) ;
#88 = DIRECTION ( 'NONE',  ( -1.000000000000000000, 0.0000000000000000000, 0.0000000000000000000 ) ) ;
#89 = DIRECTION ( 'NONE',  ( -0.0000000000000000000, -0.0000000000000000000, -1.000000000000000000 ) ) ;
#90 = VECTOR ( 'NONE', #10, 39.37007874015748143 ) ;
#91 = DIRECTION ( 'NONE',  ( 0.0000000000000000000, 0.0000000000000000000, -1.000000000000000000 ) ) ;
#92 = DIRECTION ( 'NONE',  ( -1.000000000000000000, 0.0000000000000000000, 0.0000000000000000000 ) ) ;
#93 = DIRECTION ( 'NONE',  ( 1.000000000000000000, 0.0000000000000000000, 0.0000000000000000000 ) ) ;
#94 = PLANE ( 'NONE',  #146 ) ;
#95 = DIRECTION ( 'NONE',  ( -1.000000000000000000, 0.0000000000000000000, 0.0000000000000000000 ) ) ;
#96 = ORIENTED_EDGE ( 'NONE', *, *, #334, .F. ) ;
#97 = DIRECTION ( 'NONE',  ( -0.0000000000000000000, -0.0000000000000000000, -1.000000000000000000 ) ) ;
#98 = ORIENTED_EDGE ( 'NONE', *, *, #73, .T. ) ;
#99 =( GEOMETRIC_REPRESENTATION_CONTEXT ( 3 ) GLOBAL_UNCERTAINTY_ASSIGNED_CONTEXT ( ( #62 ) ) GLOBAL_UNIT_ASSIGNED_CONTEXT ( ( #163, #368, #241 ) ) REPRESENTATION_CONTEXT ( 'NONE', 'WORKASPACE' ) );
#100 = CONICAL_SURFACE ( 'NONE', #227, 0.3149290039500001193, 0.1745329251994328645 ) ;
#101 =( NAMED_UNIT ( * ) SI_UNIT ( $, .STERADIAN. ) SOLID_ANGLE_UNIT ( ) );
#102 = EDGE_LOOP ( 'NONE', ( #75, #42, #38, #188 ) ) ;
#103 = LENGTH_MEASURE_WITH_UNIT ( LENGTH_MEASURE( 0.02539999999999999897 ), #13 );
#104 = EDGE_LOOP ( 'NONE', ( #224, #136, #16, #271 ) ) ;
#105 = ORIENTED_EDGE ( 'NONE', *, *, #54, .F. ) ;
#106 = PRESENTATION_LAYER_ASSIGNMENT (  '', '', ( #317 ) ) ;
#107 = ORIENTED_EDGE ( 'NONE', *, *, #315, .T. ) ;
#108 = DIRECTION ( 'NONE',  ( 1.000000000000000000, 0.0000000000000000000, 0.0000000000000000000 ) ) ;
#109 = CARTESIAN_POINT ( 'NONE',  ( 0.0000000000000000000, 0.0000000000000000000, 1.236742968333832460 ) ) ;
#110 = ADVANCED_FACE ( 'NONE', ( #58 ), #253, .T. ) ;
#111 = CARTESIAN_POINT ( 'NONE',  ( 0.0000000000000000000, 0.0000000000000000000, 0.0000000000000000000 ) ) ;
#112 =( NAMED_UNIT ( * ) SI_UNIT ( $, .STERADIAN. ) SOLID_ANGLE_UNIT ( ) );
#113 = AXIS2_PLACEMENT_3D ( 'NONE', #9, #260, #209 ) ;
#114 = DIRECTION ( 'NONE',  ( -0.0000000000000000000, -0.0000000000000000000, -1.000000000000000000 ) ) ;
#115 = CARTESIAN_POINT ( 'NONE',  ( 0.0000000000000000000, 0.0000000000000000000, 0.0000000000000000000 ) ) ;
#116 = DIRECTION ( 'NONE',  ( -0.0000000000000000000, -0.0000000000000000000, -1.000000000000000000 ) ) ;
#117 = CARTESIAN_POINT ( 'NONE',  ( 0.3051180000000003334, 3.736617820622425119E-17, 0.0000000000000000000 ) ) ;
#118 = DIRECTION ( 'NONE',  ( -1.000000000000000000, 0.0000000000000000000, 0.0000000000000000000 ) ) ;
#119 = CIRCLE ( 'NONE', #133, 0.3149290039500001193 ) ;
#120 = DIRECTION ( 'NONE',  ( -1.000000000000000000, 0.0000000000000000000, 0.0000000000000000000 ) ) ;
#121 = EDGE_LOOP ( 'NONE', ( #342, #247 ) ) ;
#122 = CARTESIAN_POINT ( 'NONE',  ( 0.0000000000000000000, 0.0000000000000000000, 1.181102000000000096 ) ) ;
#123 = DIRECTION ( 'NONE',  ( -0.0000000000000000000, -0.0000000000000000000, -1.000000000000000000 ) ) ;
#124 = CIRCLE ( 'NONE', #203, 0.3149290039500001193 ) ;
#125 = PRODUCT_DEFINITION_FORMATION_WITH_SPECIFIED_SOURCE ( 'ANY', '', #176, .NOT_KNOWN. ) ;
#126 = ADVANCED_FACE ( 'NONE', ( #352 ), #45, .T. ) ;
#127 = ADVANCED_FACE ( 'NONE', ( #180, #82 ), #290, .T. ) ;
#128 = CARTESIAN_POINT ( 'NONE',  ( -0.2999605000000007404, 0.0000000000000000000, 5.905511999999999873 ) ) ;
#129 = EDGE_LOOP ( 'NONE', ( #305, #20 ) ) ;
#130 = EDGE_LOOP ( 'NONE', ( #107, #246 ) ) ;
#131 = PRODUCT_DEFINITION_CONTEXT ( 'detailed design', #300, 'design' ) ;
#132 = ORIENTED_EDGE ( 'NONE', *, *, #252, .T. ) ;
#133 = AXIS2_PLACEMENT_3D ( 'NONE', #233, #7, #118 ) ;
#134 = VECTOR ( 'NONE', #208, 39.37007874015748143 ) ;
#135 = FACE_OUTER_BOUND ( 'NONE', #162, .T. ) ;
#136 = ORIENTED_EDGE ( 'NONE', *, *, #236, .T. ) ;
#137 = ORIENTED_EDGE ( 'NONE', *, *, #351, .T. ) ;
#138 = CARTESIAN_POINT ( 'NONE',  ( -0.3149290039500001193, 0.0000000000000000000, 1.181102000000000096 ) ) ;
#139 = ORIENTED_EDGE ( 'NONE', *, *, #141, .T. ) ;
#140 = EDGE_CURVE ( 'NONE', #49, #155, #56, .T. ) ;
#141 = EDGE_CURVE ( 'NONE', #272, #50, #324, .T. ) ;
#142 = DIRECTION ( 'NONE',  ( -1.000000000000000000, 0.0000000000000000000, 0.0000000000000000000 ) ) ;
#143 = DIRECTION ( 'NONE',  ( 0.0000000000000000000, 0.0000000000000000000, -1.000000000000000000 ) ) ;
#144 = DIRECTION ( 'NONE',  ( -0.0000000000000000000, -0.0000000000000000000, -1.000000000000000000 ) ) ;
#145 = VECTOR ( 'NONE', #316, 39.37007874015748143 ) ;
#146 = AXIS2_PLACEMENT_3D ( 'NONE', #157, #66, #291 ) ;
#147 = CARTESIAN_POINT ( 'NONE',  ( 0.0000000000000000000, 0.0000000000000000000, 1.181102000000000096 ) ) ;
#148 = AXIS2_PLACEMENT_3D ( 'NONE', #25, #251, #84 ) ;
#149 = DIRECTION ( 'NONE',  ( -0.0000000000000000000, -0.0000000000000000000, -1.000000000000000000 ) ) ;
#150 = DIRECTION ( 'NONE',  ( -0.7071067811865877628, 0.0000000000000000000, -0.7071067811865072716 ) ) ;
#151 = PLANE ( 'NONE',  #349 ) ;
#152 = EDGE_CURVE ( 'NONE', #190, #49, #359, .T. ) ;
#153 = AXIS2_PLACEMENT_3D ( 'NONE', #87, #202, #88 ) ;
#154 = DIRECTION ( 'NONE',  ( -0.0000000000000000000, -0.0000000000000000000, -1.000000000000000000 ) ) ;
#155 = VERTEX_POINT ( 'NONE', #234 ) ;
#156 = CARTESIAN_POINT ( 'NONE',  ( 0.0000000000000000000, 0.0000000000000000000, 5.905511999999999873 ) ) ;
#157 = CARTESIAN_POINT ( 'NONE',  ( 0.0000000000000000000, 0.0000000000000000000, 0.0000000000000000000 ) ) ;
#158 = CLOSED_SHELL ( 'NONE', ( #53, #110, #250, #12, #293, #356, #263, #126, #127, #57, #2, #30, #282 ) ) ;
#159 = AXIS2_PLACEMENT_3D ( 'NONE', #115, #375, #108 ) ;
#160 = AXIS2_PLACEMENT_3D ( 'NONE', #207, #24, #249 ) ;
#161 =( CONVERSION_BASED_UNIT ( 'INCH', #103 ) LENGTH_UNIT ( ) NAMED_UNIT ( #171 ) );
#162 = EDGE_LOOP ( 'NONE', ( #221, #35, #314, #105 ) ) ;
#163 =( CONVERSION_BASED_UNIT ( 'INCH', #168 ) LENGTH_UNIT ( ) NAMED_UNIT ( #80 ) );
#164 = EDGE_CURVE ( 'NONE', #371, #272, #124, .T. ) ;
#165 = EDGE_LOOP ( 'NONE', ( #363, #44, #309, #185 ) ) ;
#166 = CARTESIAN_POINT ( 'NONE',  ( 0.3149290039500001193, 3.856767966460317268E-17, 1.181102000000000096 ) ) ;
#167 = VERTEX_POINT ( 'NONE', #333 ) ;
#168 = LENGTH_MEASURE_WITH_UNIT ( LENGTH_MEASURE( 0.02539999999999999897 ), #370 );
#169 = ORIENTED_EDGE ( 'NONE', *, *, #73, .F. ) ;
#170 = ORIENTED_EDGE ( 'NONE', *, *, #14, .T. ) ;
#171 = DIMENSIONAL_EXPONENTS ( 1.000000000000000000, 0.0000000000000000000, 0.0000000000000000000, 0.0000000000000000000, 0.0000000000000000000, 0.0000000000000000000, 0.0000000000000000000 ) ;
#172 = PRODUCT_DEFINITION_SHAPE ( 'NONE', 'NONE',  #258 ) ;
#173 = DIRECTION ( 'NONE',  ( -0.0000000000000000000, -0.0000000000000000000, -1.000000000000000000 ) ) ;
#174 = CARTESIAN_POINT ( 'NONE',  ( 0.3051180000000004999, 3.736617820622427585E-17, 3.937007999999999619 ) ) ;
#175 = EDGE_CURVE ( 'NONE', #244, #340, #85, .T. ) ;
#176 = PRODUCT ( 'Micro_GLRM-160-2X', 'Micro_GLRM-160-2X', '', ( #28 ) ) ;
#177 = DIRECTION ( 'NONE',  ( -1.000000000000000000, 0.0000000000000000000, 0.0000000000000000000 ) ) ;
#178 = LENGTH_MEASURE_WITH_UNIT ( LENGTH_MEASURE( 0.02539999999999999897 ), #280 );
#179 = AXIS2_PLACEMENT_3D ( 'NONE', #61, #237, #93 ) ;
#180 = FACE_BOUND ( 'NONE', #121, .T. ) ;
#181 = CARTESIAN_POINT ( 'NONE',  ( 0.3149604999999999766, 3.857153681828499730E-17, 5.890512000000002857 ) ) ;
#182 = FACE_OUTER_BOUND ( 'NONE', #165, .T. ) ;
#183 = CARTESIAN_POINT ( 'NONE',  ( -0.3051180000000004999, 0.0000000000000000000, 3.937007999999999619 ) ) ;
#184 = DIRECTION ( 'NONE',  ( -0.0000000000000000000, -0.0000000000000000000, -1.000000000000000000 ) ) ;
#185 = ORIENTED_EDGE ( 'NONE', *, *, #83, .F. ) ;
#186 = CARTESIAN_POINT ( 'NONE',  ( 0.0000000000000000000, 0.0000000000000000000, 3.937007999999999619 ) ) ;
#187 = PRODUCT_RELATED_PRODUCT_CATEGORY ( 'part', '', ( #176 ) ) ;
#188 = ORIENTED_EDGE ( 'NONE', *, *, #268, .F. ) ;
#189 = CIRCLE ( 'NONE', #354, 0.3051180000000004999 ) ;
#190 = VERTEX_POINT ( 'NONE', #183 ) ;
#191 = EDGE_CURVE ( 'NONE', #272, #371, #119, .T. ) ;
#192 = LINE ( 'NONE', #194, #90 ) ;
#193 = EDGE_LOOP ( 'NONE', ( #295, #303, #264, #374 ) ) ;
#194 = CARTESIAN_POINT ( 'NONE',  ( 0.2999605000000007404, 3.673456661956405784E-17, 5.905511999999999873 ) ) ;
#195 = ORIENTED_EDGE ( 'NONE', *, *, #327, .T. ) ;
#196 = COLOUR_RGB ( '',0.7921568627450980005, 0.8196078431372548767, 0.9333333333333333481 ) ;
#197 = AXIS2_PLACEMENT_3D ( 'NONE', #364, #337, #72 ) ;
#198 = PRESENTATION_STYLE_ASSIGNMENT (( #335 ) ) ;
#199 = VERTEX_POINT ( 'NONE', #296 ) ;
#200 = ORIENTED_EDGE ( 'NONE', *, *, #175, .F. ) ;
#201 = APPLICATION_PROTOCOL_DEFINITION ( 'draft international standard', 'automotive_design', 1998, #300 ) ;
#202 = DIRECTION ( 'NONE',  ( 0.0000000000000000000, 0.0000000000000000000, -1.000000000000000000 ) ) ;
#203 = AXIS2_PLACEMENT_3D ( 'NONE', #122, #184, #95 ) ;
#204 = CARTESIAN_POINT ( 'NONE',  ( 0.3149604999999999766, 3.857153681828499730E-17, 3.937007999999999619 ) ) ;
#205 = EDGE_CURVE ( 'NONE', #340, #244, #310, .T. ) ;
#206 = DIRECTION ( 'NONE',  ( -0.0000000000000000000, 0.0000000000000000000, -1.000000000000000000 ) ) ;
#207 = CARTESIAN_POINT ( 'NONE',  ( 0.0000000000000000000, 0.0000000000000000000, 0.0000000000000000000 ) ) ;
#208 = DIRECTION ( 'NONE',  ( -0.0000000000000000000, -0.0000000000000000000, -1.000000000000000000 ) ) ;
#209 = DIRECTION ( 'NONE',  ( 1.000000000000000000, 0.0000000000000000000, 0.0000000000000000000 ) ) ;
#210 = CARTESIAN_POINT ( 'NONE',  ( -0.3051180000000003334, 0.0000000000000000000, 0.0000000000000000000 ) ) ;
#211 = LINE ( 'NONE', #294, #212 ) ;
#212 = VECTOR ( 'NONE', #292, 39.37007874015748143 ) ;
#213 = DIRECTION ( 'NONE',  ( 1.000000000000000000, 0.0000000000000000000, -0.0000000000000000000 ) ) ;
#214 = DIRECTION ( 'NONE',  ( -1.000000000000000000, 0.0000000000000000000, 0.0000000000000000000 ) ) ;
#215 = EDGE_LOOP ( 'NONE', ( #313, #170, #222, #366 ) ) ;
#216 = CARTESIAN_POINT ( 'NONE',  ( -0.3149604999999999766, 0.0000000000000000000, 5.890512000000002857 ) ) ;
#217 = ORIENTED_EDGE ( 'NONE', *, *, #205, .F. ) ;
#218 = AXIS2_PLACEMENT_3D ( 'NONE', #46, #97, #304 ) ;
#219 = CONICAL_SURFACE ( 'NONE', #318, 0.2999605000000007404, 0.7853981633975052334 ) ;
#220 = ORIENTED_EDGE ( 'NONE', *, *, #326, .T. ) ;
#221 = ORIENTED_EDGE ( 'NONE', *, *, #276, .F. ) ;
#222 = ORIENTED_EDGE ( 'NONE', *, *, #191, .F. ) ;
#223 = FILL_AREA_STYLE ('',( #341 ) ) ;
#224 = ORIENTED_EDGE ( 'NONE', *, *, #14, .F. ) ;
#225 = DIRECTION ( 'NONE',  ( -1.000000000000000000, 0.0000000000000000000, 0.0000000000000000000 ) ) ;
#226 = CARTESIAN_POINT ( 'NONE',  ( 0.0000000000000000000, 0.0000000000000000000, 0.0000000000000000000 ) ) ;
#227 = AXIS2_PLACEMENT_3D ( 'NONE', #147, #256, #60 ) ;
#228 = DIRECTION ( 'NONE',  ( -1.000000000000000000, 0.0000000000000000000, 0.0000000000000000000 ) ) ;
#229 = CARTESIAN_POINT ( 'NONE',  ( -0.3149604999999999766, 0.0000000000000000000, 5.905511999999999873 ) ) ;
#230 = FACE_OUTER_BOUND ( 'NONE', #278, .T. ) ;
#231 = AXIS2_PLACEMENT_3D ( 'NONE', #355, #239, #362 ) ;
#232 = DIRECTION ( 'NONE',  ( 0.0000000000000000000, 0.0000000000000000000, 1.000000000000000000 ) ) ;
#233 = CARTESIAN_POINT ( 'NONE',  ( 0.0000000000000000000, 0.0000000000000000000, 1.181102000000000096 ) ) ;
#234 = CARTESIAN_POINT ( 'NONE',  ( 0.3051180000000001669, 3.796692893541370270E-17, 1.236742968333832460 ) ) ;
#235 = ORIENTED_EDGE ( 'NONE', *, *, #71, .F. ) ;
#236 = EDGE_CURVE ( 'NONE', #155, #67, #21, .T. ) ;
#237 = DIRECTION ( 'NONE',  ( 0.0000000000000000000, 0.0000000000000000000, 1.000000000000000000 ) ) ;
#238 = VECTOR ( 'NONE', #270, 39.37007874015748854 ) ;
#239 = DIRECTION ( 'NONE',  ( 0.0000000000000000000, 0.0000000000000000000, 1.000000000000000000 ) ) ;
#240 = CYLINDRICAL_SURFACE ( 'NONE', #197, 0.3051180000000003334 ) ;
#241 =( NAMED_UNIT ( * ) SI_UNIT ( $, .STERADIAN. ) SOLID_ANGLE_UNIT ( ) );
#242 = VERTEX_POINT ( 'NONE', #32 ) ;
#243 = UNCERTAINTY_MEASURE_WITH_UNIT (LENGTH_MEASURE( 1.000000000000000082E-05 ), #161, 'distance_accuracy_value', 'NONE');
#244 = VERTEX_POINT ( 'NONE', #181 ) ;
#245 = APPLICATION_PROTOCOL_DEFINITION ( 'draft international standard', 'automotive_design', 1998, #279 ) ;
#246 = ORIENTED_EDGE ( 'NONE', *, *, #54, .T. ) ;
#247 = ORIENTED_EDGE ( 'NONE', *, *, #266, .F. ) ;
#248 = CIRCLE ( 'NONE', #59, 0.3149290039500001193 ) ;
#249 = DIRECTION ( 'NONE',  ( -1.000000000000000000, 0.0000000000000000000, 0.0000000000000000000 ) ) ;
#250 = ADVANCED_FACE ( 'NONE', ( #329 ), #330, .T. ) ;
#251 = DIRECTION ( 'NONE',  ( -0.0000000000000000000, -0.0000000000000000000, -1.000000000000000000 ) ) ;
#252 = EDGE_CURVE ( 'NONE', #81, #242, #39, .T. ) ;
#253 = CYLINDRICAL_SURFACE ( 'NONE', #65, 0.3051180000000003334 ) ;
#254 = CIRCLE ( 'NONE', #273, 0.3149604999999999766 ) ;
#255 = VECTOR ( 'NONE', #3, 39.37007874015748854 ) ;
#256 = DIRECTION ( 'NONE',  ( -0.0000000000000000000, -0.0000000000000000000, -1.000000000000000000 ) ) ;
#257 = CARTESIAN_POINT ( 'NONE',  ( -0.2999605000000007404, 0.0000000000000000000, 5.905511999999999873 ) ) ;
#258 = PRODUCT_DEFINITION ( 'UNKNOWN', '', #125, #131 ) ;
#259 = LINE ( 'NONE', #210, #379 ) ;
#260 = DIRECTION ( 'NONE',  ( 0.0000000000000000000, 0.0000000000000000000, -1.000000000000000000 ) ) ;
#261 = CIRCLE ( 'NONE', #148, 0.3149604999999999766 ) ;
#262 = DIRECTION ( 'NONE',  ( -0.0000000000000000000, -0.0000000000000000000, -1.000000000000000000 ) ) ;
#263 = ADVANCED_FACE ( 'NONE', ( #5 ), #151, .T. ) ;
#264 = ORIENTED_EDGE ( 'NONE', *, *, #268, .T. ) ;
#265 = DIRECTION ( 'NONE',  ( 1.000000000000000000, 0.0000000000000000000, 0.0000000000000000000 ) ) ;
#266 = EDGE_CURVE ( 'NONE', #49, #190, #189, .T. ) ;
#267 = LINE ( 'NONE', #128, #360 ) ;
#268 = EDGE_CURVE ( 'NONE', #190, #67, #259, .T. ) ;
#269 = SURFACE_SIDE_STYLE ('',( #312 ) ) ;
#270 = DIRECTION ( 'NONE',  ( -0.1736481776669302479, 0.0000000000000000000, -0.9848077530122080203 ) ) ;
#271 = ORIENTED_EDGE ( 'NONE', *, *, #164, .F. ) ;
#272 = VERTEX_POINT ( 'NONE', #63 ) ;
#273 = AXIS2_PLACEMENT_3D ( 'NONE', #186, #298, #37 ) ;
#274 = UNCERTAINTY_MEASURE_WITH_UNIT (LENGTH_MEASURE( 1.000000000000000082E-05 ), #284, 'distance_accuracy_value', 'NONE');
#275 = ORIENTED_EDGE ( 'NONE', *, *, #191, .T. ) ;
#276 = EDGE_CURVE ( 'NONE', #244, #69, #211, .T. ) ;
#277 = FILL_AREA_STYLE_COLOUR ( '', #33 ) ;
#278 = EDGE_LOOP ( 'NONE', ( #345, #137, #217, #74 ) ) ;
#279 = APPLICATION_CONTEXT ( 'automotive_design' ) ;
#280 =( LENGTH_UNIT ( ) NAMED_UNIT ( * ) SI_UNIT ( $, .METRE. ) );
#281 = CARTESIAN_POINT ( 'NONE',  ( -0.3149290039500001193, 0.0000000000000000000, 0.0000000000000000000 ) ) ;
#282 = ADVANCED_FACE ( 'NONE', ( #325 ), #94, .F. ) ;
#283 = CARTESIAN_POINT ( 'NONE',  ( -0.3051180000000001669, 0.0000000000000000000, 1.236742968333832460 ) ) ;
#284 =( CONVERSION_BASED_UNIT ( 'INCH', #178 ) LENGTH_UNIT ( ) NAMED_UNIT ( #306 ) );
#285 = FACE_OUTER_BOUND ( 'NONE', #104, .T. ) ;
#286 = FACE_OUTER_BOUND ( 'NONE', #339, .T. ) ;
#287 = AXIS2_PLACEMENT_3D ( 'NONE', #109, #149, #142 ) ;
#288 =( GEOMETRIC_REPRESENTATION_CONTEXT ( 3 ) GLOBAL_UNCERTAINTY_ASSIGNED_CONTEXT ( ( #274 ) ) GLOBAL_UNIT_ASSIGNED_CONTEXT ( ( #284, #320, #112 ) ) REPRESENTATION_CONTEXT ( 'NONE', 'WORKASPACE' ) );
#289 = VECTOR ( 'NONE', #144, 39.37007874015748143 ) ;
#290 = PLANE ( 'NONE',  #308 ) ;
#291 = DIRECTION ( 'NONE',  ( 1.000000000000000000, 0.0000000000000000000, -0.0000000000000000000 ) ) ;
#292 = DIRECTION ( 'NONE',  ( -0.0000000000000000000, -0.0000000000000000000, -1.000000000000000000 ) ) ;
#293 = ADVANCED_FACE ( 'NONE', ( #182 ), #31, .T. ) ;
#294 = CARTESIAN_POINT ( 'NONE',  ( 0.3149604999999999766, 3.857153681828499730E-17, 5.905511999999999873 ) ) ;
#295 = ORIENTED_EDGE ( 'NONE', *, *, #140, .F. ) ;
#296 = CARTESIAN_POINT ( 'NONE',  ( 0.3149290039500001193, 3.856767966460317268E-17, 0.0000000000000000000 ) ) ;
#297 = EDGE_LOOP ( 'NONE', ( #169, #15, #139, #235 ) ) ;
#298 = DIRECTION ( 'NONE',  ( -0.0000000000000000000, -0.0000000000000000000, -1.000000000000000000 ) ) ;
#299 = ORIENTED_EDGE ( 'NONE', *, *, #252, .F. ) ;
#300 = APPLICATION_CONTEXT ( 'automotive_design' ) ;
#301 = SURFACE_STYLE_USAGE ( .BOTH. , #76 ) ;
#302 = LINE ( 'NONE', #138, #238 ) ;
#303 = ORIENTED_EDGE ( 'NONE', *, *, #266, .T. ) ;
#304 = DIRECTION ( 'NONE',  ( -1.000000000000000000, 0.0000000000000000000, 0.0000000000000000000 ) ) ;
#305 = ORIENTED_EDGE ( 'NONE', *, *, #334, .T. ) ;
#306 = DIMENSIONAL_EXPONENTS ( 1.000000000000000000, 0.0000000000000000000, 0.0000000000000000000, 0.0000000000000000000, 0.0000000000000000000, 0.0000000000000000000, 0.0000000000000000000 ) ;
#307 = CYLINDRICAL_SURFACE ( 'NONE', #218, 0.3149604999999999766 ) ;
#308 = AXIS2_PLACEMENT_3D ( 'NONE', #350, #206, #321 ) ;
#309 = ORIENTED_EDGE ( 'NONE', *, *, #315, .F. ) ;
#310 = CIRCLE ( 'NONE', #113, 0.3149604999999999766 ) ;
#311 = CIRCLE ( 'NONE', #287, 0.3051180000000001669 ) ;
#312 = SURFACE_STYLE_FILL_AREA ( #365 ) ;
#313 = ORIENTED_EDGE ( 'NONE', *, *, #41, .T. ) ;
#314 = ORIENTED_EDGE ( 'NONE', *, *, #83, .T. ) ;
#315 = EDGE_CURVE ( 'NONE', #167, #69, #254, .T. ) ;
#316 = DIRECTION ( 'NONE',  ( -0.0000000000000000000, -0.0000000000000000000, -1.000000000000000000 ) ) ;
#317 = STYLED_ITEM ( 'NONE', ( #198 ), #328 ) ;
#318 = AXIS2_PLACEMENT_3D ( 'NONE', #23, #143, #348 ) ;
#319 = CYLINDRICAL_SURFACE ( 'NONE', #17, 0.3149290039500001193 ) ;
#320 =( NAMED_UNIT ( * ) PLANE_ANGLE_UNIT ( ) SI_UNIT ( $, .RADIAN. ) );
#321 = DIRECTION ( 'NONE',  ( -1.000000000000000000, 0.0000000000000000000, 0.0000000000000000000 ) ) ;
#322 = LINE ( 'NONE', #229, #289 ) ;
#323 = PRESENTATION_LAYER_ASSIGNMENT (  '', '', ( #64 ) ) ;
#324 = LINE ( 'NONE', #281, #145 ) ;
#325 = FACE_OUTER_BOUND ( 'NONE', #129, .T. ) ;
#326 = EDGE_CURVE ( 'NONE', #81, #340, #267, .T. ) ;
#327 = EDGE_CURVE ( 'NONE', #242, #81, #47, .T. ) ;
#328 = MANIFOLD_SOLID_BREP ( 'Cut-Revolve1', #158 ) ;
#329 = FACE_OUTER_BOUND ( 'NONE', #215, .T. ) ;
#330 = CONICAL_SURFACE ( 'NONE', #343, 0.3149290039500001193, 0.1745329251994328645 ) ;
#331 = DIRECTION ( 'NONE',  ( -1.000000000000000000, 0.0000000000000000000, 0.0000000000000000000 ) ) ;
#332 = CARTESIAN_POINT ( 'NONE',  ( 0.0000000000000000000, 0.0000000000000000000, 3.937007999999999619 ) ) ;
#333 = CARTESIAN_POINT ( 'NONE',  ( -0.3149604999999999766, 0.0000000000000000000, 3.937007999999999619 ) ) ;
#334 = EDGE_CURVE ( 'NONE', #50, #199, #248, .T. ) ;
#335 = SURFACE_STYLE_USAGE ( .BOTH. , #269 ) ;
#336 = AXIS2_PLACEMENT_3D ( 'NONE', #36, #262, #214 ) ;
#337 = DIRECTION ( 'NONE',  ( -0.0000000000000000000, -0.0000000000000000000, -1.000000000000000000 ) ) ;
#338 = DIRECTION ( 'NONE',  ( -0.0000000000000000000, -0.0000000000000000000, -1.000000000000000000 ) ) ;
#339 = EDGE_LOOP ( 'NONE', ( #275, #98, #96, #369 ) ) ;
#340 = VERTEX_POINT ( 'NONE', #216 ) ;
#341 = FILL_AREA_STYLE_COLOUR ( '', #196 ) ;
#342 = ORIENTED_EDGE ( 'NONE', *, *, #152, .F. ) ;
#343 = AXIS2_PLACEMENT_3D ( 'NONE', #6, #123, #331 ) ;
#344 = CIRCLE ( 'NONE', #160, 0.3149290039500001193 ) ;
#345 = ORIENTED_EDGE ( 'NONE', *, *, #327, .F. ) ;
#346 = EDGE_CURVE ( 'NONE', #67, #272, #302, .T. ) ;
#347 = CARTESIAN_POINT ( 'NONE',  ( 0.3149290039500001193, 3.856767966460317268E-17, 0.0000000000000000000 ) ) ;
#348 = DIRECTION ( 'NONE',  ( -1.000000000000000000, 0.0000000000000000000, 0.0000000000000000000 ) ) ;
#349 = AXIS2_PLACEMENT_3D ( 'NONE', #357, #232, #213 ) ;
#350 = CARTESIAN_POINT ( 'NONE',  ( 0.3051180000000004999, 0.0000000000000000000, 3.937007999999999619 ) ) ;
#351 = EDGE_CURVE ( 'NONE', #242, #244, #192, .T. ) ;
#352 = FACE_OUTER_BOUND ( 'NONE', #19, .T. ) ;
#353 = LINE ( 'NONE', #29, #255 ) ;
#354 = AXIS2_PLACEMENT_3D ( 'NONE', #332, #34, #92 ) ;
#355 = CARTESIAN_POINT ( 'NONE',  ( 0.0000000000000000000, 0.0000000000000000000, 5.905511999999999873 ) ) ;
#356 = ADVANCED_FACE ( 'NONE', ( #135 ), #307, .T. ) ;
#357 = CARTESIAN_POINT ( 'NONE',  ( 0.0000000000000000000, 0.0000000000000000000, 5.905511999999999873 ) ) ;
#358 = CARTESIAN_POINT ( 'NONE',  ( 0.0000000000000000000, 0.0000000000000000000, 5.890512000000002857 ) ) ;
#359 = CIRCLE ( 'NONE', #367, 0.3051180000000004999 ) ;
#360 = VECTOR ( 'NONE', #150, 39.37007874015748143 ) ;
#361 = DIRECTION ( 'NONE',  ( -0.0000000000000000000, -0.0000000000000000000, -1.000000000000000000 ) ) ;
#362 = DIRECTION ( 'NONE',  ( 1.000000000000000000, 0.0000000000000000000, 0.0000000000000000000 ) ) ;
#363 = ORIENTED_EDGE ( 'NONE', *, *, #205, .T. ) ;
#364 = CARTESIAN_POINT ( 'NONE',  ( 0.0000000000000000000, 0.0000000000000000000, 0.0000000000000000000 ) ) ;
#365 = FILL_AREA_STYLE ('',( #277 ) ) ;
#366 = ORIENTED_EDGE ( 'NONE', *, *, #346, .F. ) ;
#367 = AXIS2_PLACEMENT_3D ( 'NONE', #52, #173, #120 ) ;
#368 =( NAMED_UNIT ( * ) PLANE_ANGLE_UNIT ( ) SI_UNIT ( $, .RADIAN. ) );
#369 = ORIENTED_EDGE ( 'NONE', *, *, #141, .F. ) ;
#370 =( LENGTH_UNIT ( ) NAMED_UNIT ( * ) SI_UNIT ( $, .METRE. ) );
#371 = VERTEX_POINT ( 'NONE', #166 ) ;
#372 = ADVANCED_BREP_SHAPE_REPRESENTATION ( 'Micro_GLRM-160-2X', ( #328, #159 ), #77 ) ;
#373 = MECHANICAL_DESIGN_GEOMETRIC_PRESENTATION_REPRESENTATION (  '', ( #317 ), #99 ) ;
#374 = ORIENTED_EDGE ( 'NONE', *, *, #236, .F. ) ;
#375 = DIRECTION ( 'NONE',  ( 0.0000000000000000000, 0.0000000000000000000, 1.000000000000000000 ) ) ;
#376 = CARTESIAN_POINT ( 'NONE',  ( -0.3149290039500001193, 0.0000000000000000000, 0.0000000000000000000 ) ) ;
#377 = CYLINDRICAL_SURFACE ( 'NONE', #79, 0.3149290039500001193 ) ;
#378 = CARTESIAN_POINT ( 'NONE',  ( 0.0000000000000000000, 0.0000000000000000000, 0.0000000000000000000 ) ) ;
#379 = VECTOR ( 'NONE', #154, 39.37007874015748143 ) ;
ENDSEC;
END-ISO-10303-21;
