ISO-10303-21;
HEADER;
FILE_DESCRIPTION (( 'STEP AP214' ),
    '1' );
FILE_NAME ('84084.STEP',
    '2023-06-23T11:32:30',
    ( '' ),
    ( '' ),
    'SwSTEP 2.0',
    'SolidWorks 2023',
    '' );
FILE_SCHEMA (( 'AUTOMOTIVE_DESIGN' ));
ENDSEC;

DATA;
#1 = EDGE_CURVE ( 'NONE', #36, #65, #68, .T. ) ;
#2 = CARTESIAN_POINT ( 'NONE',  ( 0.000000000000000000, 0.000000000000000000, 0.000000000000000000 ) ) ;
#3 =( NAMED_UNIT ( * ) PLANE_ANGLE_UNIT ( ) SI_UNIT ( $, .RADIAN. ) );
#4 = CARTESIAN_POINT ( 'NONE',  ( -1.031904706879204720E-17, 0.6291763620489969622, 0.000000000000000000 ) ) ;
#5 = DIRECTION ( 'NONE',  ( -1.000000000000000000, 0.000000000000000000, 0.000000000000000000 ) ) ;
#6 = ADVANCED_FACE ( 'NONE', ( #243 ), #295, .F. ) ;
#7 = FACE_OUTER_BOUND ( 'NONE', #354, .T. ) ;
#8 = CONICAL_SURFACE ( 'NONE', #32, 0.02340000000000000413, 0.2617993877991501850 ) ;
#9 = UNCERTAINTY_MEASURE_WITH_UNIT (LENGTH_MEASURE( 1.000000000000000082E-05 ), #181, 'distance_accuracy_value', 'NONE');
#10 = CARTESIAN_POINT ( 'NONE',  ( 2.865673510004806939E-18, 0.000000000000000000, 0.02340000000000000413 ) ) ;
#11 = FACE_OUTER_BOUND ( 'NONE', #33, .T. ) ;
#12 = LENGTH_MEASURE_WITH_UNIT ( LENGTH_MEASURE( 0.02539999999999999897 ), #130 );
#13 = UNCERTAINTY_MEASURE_WITH_UNIT (LENGTH_MEASURE( 1.000000000000000082E-05 ), #315, 'distance_accuracy_value', 'NONE');
#14 = ORIENTED_EDGE ( 'NONE', *, *, #163, .T. ) ;
#15 =( NAMED_UNIT ( * ) PLANE_ANGLE_UNIT ( ) SI_UNIT ( $, .RADIAN. ) );
#16 = CARTESIAN_POINT ( 'NONE',  ( -0.02340000000000000413, 0.2500000000000000555, 0.000000000000000000 ) ) ;
#17 = STYLED_ITEM ( 'NONE', ( #224 ), #251 ) ;
#18 = LINE ( 'NONE', #258, #124 ) ;
#19 = CIRCLE ( 'NONE', #319, 0.02340000000000000413 ) ;
#20 = DIRECTION ( 'NONE',  ( 0.000000000000000000, 0.000000000000000000, -1.000000000000000000 ) ) ;
#21 = ADVANCED_FACE ( 'NONE', ( #314 ), #29, .F. ) ;
#22 = LENGTH_MEASURE_WITH_UNIT ( LENGTH_MEASURE( 0.02539999999999999897 ), #359 );
#23 = ORIENTED_EDGE ( 'NONE', *, *, #225, .T. ) ;
#24 = AXIS2_PLACEMENT_3D ( 'NONE', #320, #37, #349 ) ;
#25 = AXIS2_PLACEMENT_3D ( 'NONE', #66, #322, #135 ) ;
#26 = LINE ( 'NONE', #83, #172 ) ;
#27 = DIRECTION ( 'NONE',  ( 0.2588190451025214611, 0.9659258262890679791, 3.169619151431773569E-17 ) ) ;
#28 = DIRECTION ( 'NONE',  ( -1.000000000000000000, 0.000000000000000000, 0.000000000000000000 ) ) ;
#29 = PLANE ( 'NONE',  #72 ) ;
#30 = ADVANCED_FACE ( 'NONE', ( #7 ), #155, .T. ) ;
#31 = MECHANICAL_DESIGN_GEOMETRIC_PRESENTATION_REPRESENTATION (  '', ( #192 ), #269 ) ;
#32 = AXIS2_PLACEMENT_3D ( 'NONE', #104, #75, #43 ) ;
#33 = EDGE_LOOP ( 'NONE', ( #200, #262, #332, #265 ) ) ;
#34 = FILL_AREA_STYLE ('',( #323 ) ) ;
#35 = CARTESIAN_POINT ( 'NONE',  ( 2.865673510004806939E-18, 0.2500000000000000000, 0.02340000000000000413 ) ) ;
#36 = VERTEX_POINT ( 'NONE', #205 ) ;
#37 = DIRECTION ( 'NONE',  ( -2.721437331438562546E-17, 1.000000000000000000, -0.000000000000000000 ) ) ;
#38 = COLOUR_RGB ( '',0.7921568627450980005, 0.8196078431372548767, 0.9333333333333333481 ) ;
#39 = VERTEX_POINT ( 'NONE', #333 ) ;
#40 = CARTESIAN_POINT ( 'NONE',  ( -6.123233995736766036E-17, 2.500000000000000000, 0.000000000000000000 ) ) ;
#41 = PRESENTATION_STYLE_ASSIGNMENT (( #77 ) ) ;
#42 = CARTESIAN_POINT ( 'NONE',  ( 0.02340000000000000413, 0.2500000000000000555, 2.865673510004806939E-18 ) ) ;
#43 = DIRECTION ( 'NONE',  ( -1.000000000000000000, 0.000000000000000000, 0.000000000000000000 ) ) ;
#44 = ORIENTED_EDGE ( 'NONE', *, *, #213, .F. ) ;
#45 = FILL_AREA_STYLE ('',( #267 ) ) ;
#46 =( LENGTH_UNIT ( ) NAMED_UNIT ( * ) SI_UNIT ( $, .METRE. ) );
#47 = ORIENTED_EDGE ( 'NONE', *, *, #145, .F. ) ;
#48 = LENGTH_MEASURE_WITH_UNIT ( LENGTH_MEASURE( 0.02539999999999999897 ), #50 );
#49 = CIRCLE ( 'NONE', #234, 0.02340000000000000413 ) ;
#50 =( LENGTH_UNIT ( ) NAMED_UNIT ( * ) SI_UNIT ( $, .METRE. ) );
#51 =( NAMED_UNIT ( * ) SI_UNIT ( $, .STERADIAN. ) SOLID_ANGLE_UNIT ( ) );
#52 =( NAMED_UNIT ( * ) SI_UNIT ( $, .STERADIAN. ) SOLID_ANGLE_UNIT ( ) );
#53 = DIRECTION ( 'NONE',  ( -2.721437331438562546E-17, 1.000000000000000000, -0.000000000000000000 ) ) ;
#54 = STYLED_ITEM ( 'NONE', ( #290 ), #302 ) ;
#55 = ADVANCED_FACE ( 'NONE', ( #67 ), #344, .T. ) ;
#56 = CIRCLE ( 'NONE', #144, 0.1250000000000000555 ) ;
#57 = UNCERTAINTY_MEASURE_WITH_UNIT (LENGTH_MEASURE( 1.000000000000000082E-05 ), #112, 'distance_accuracy_value', 'NONE');
#58 = FILL_AREA_STYLE ('',( #316 ) ) ;
#59 = ORIENTED_EDGE ( 'NONE', *, *, #218, .F. ) ;
#60 = DIMENSIONAL_EXPONENTS ( 1.000000000000000000, 0.000000000000000000, 0.000000000000000000, 0.000000000000000000, 0.000000000000000000, 0.000000000000000000, 0.000000000000000000 ) ;
#61 = DIRECTION ( 'NONE',  ( 0.000000000000000000, 1.000000000000000000, 0.000000000000000000 ) ) ;
#62 = EDGE_CURVE ( 'NONE', #117, #36, #19, .T. ) ;
#63 =( NAMED_UNIT ( * ) PLANE_ANGLE_UNIT ( ) SI_UNIT ( $, .RADIAN. ) );
#64 = ORIENTED_EDGE ( 'NONE', *, *, #276, .F. ) ;
#65 = VERTEX_POINT ( 'NONE', #237 ) ;
#66 = CARTESIAN_POINT ( 'NONE',  ( 0.000000000000000000, 0.2500000000000000000, 0.000000000000000000 ) ) ;
#67 = FACE_OUTER_BOUND ( 'NONE', #235, .T. ) ;
#68 = LINE ( 'NONE', #42, #277 ) ;
#69 = ORIENTED_EDGE ( 'NONE', *, *, #300, .T. ) ;
#70 = DIRECTION ( 'NONE',  ( -0.2588190451025214611, 0.9659258262890679791, 0.000000000000000000 ) ) ;
#71 = CARTESIAN_POINT ( 'NONE',  ( 0.000000000000000000, 0.2500000000000000555, 0.000000000000000000 ) ) ;
#72 = AXIS2_PLACEMENT_3D ( 'NONE', #149, #255, #125 ) ;
#73 = EDGE_LOOP ( 'NONE', ( #105, #14 ) ) ;
#74 = PRESENTATION_LAYER_ASSIGNMENT (  '', '', ( #132 ) ) ;
#75 = DIRECTION ( 'NONE',  ( -2.721437331438562546E-17, 1.000000000000000000, -0.000000000000000000 ) ) ;
#76 = DIRECTION ( 'NONE',  ( -2.721437331438562546E-17, 1.000000000000000000, -0.000000000000000000 ) ) ;
#77 = SURFACE_STYLE_USAGE ( .BOTH. , #291 ) ;
#78 = ORIENTED_EDGE ( 'NONE', *, *, #225, .F. ) ;
#79 = CARTESIAN_POINT ( 'NONE',  ( 0.000000000000000000, 0.000000000000000000, 0.000000000000000000 ) ) ;
#80 = DIRECTION ( 'NONE',  ( 2.721437331438562546E-17, -1.000000000000000000, 0.000000000000000000 ) ) ;
#81 = FACE_OUTER_BOUND ( 'NONE', #283, .T. ) ;
#82 = SHAPE_DEFINITION_REPRESENTATION ( #86, #146 ) ;
#83 = CARTESIAN_POINT ( 'NONE',  ( 2.865673510004806939E-18, 0.000000000000000000, 0.02340000000000000413 ) ) ;
#84 = PRESENTATION_LAYER_ASSIGNMENT (  '', '', ( #175 ) ) ;
#85 = DIRECTION ( 'NONE',  ( 0.000000000000000000, 0.000000000000000000, -1.000000000000000000 ) ) ;
#86 = PRODUCT_DEFINITION_SHAPE ( 'NONE', 'NONE',  #169 ) ;
#87 = VECTOR ( 'NONE', #336, 39.37007874015748143 ) ;
#88 = CARTESIAN_POINT ( 'NONE',  ( 0.000000000000000000, 0.000000000000000000, 0.000000000000000000 ) ) ;
#89 = EDGE_CURVE ( 'NONE', #357, #39, #202, .T. ) ;
#90 = SURFACE_SIDE_STYLE ('',( #253 ) ) ;
#91 = DIMENSIONAL_EXPONENTS ( 1.000000000000000000, 0.000000000000000000, 0.000000000000000000, 0.000000000000000000, 0.000000000000000000, 0.000000000000000000, 0.000000000000000000 ) ;
#92 = EDGE_LOOP ( 'NONE', ( #271, #328 ) ) ;
#93 = AXIS2_PLACEMENT_3D ( 'NONE', #88, #195, #227 ) ;
#94 = ADVANCED_FACE ( 'NONE', ( #81 ), #121, .T. ) ;
#95 = CYLINDRICAL_SURFACE ( 'NONE', #183, 0.1250000000000000278 ) ;
#96 = DIRECTION ( 'NONE',  ( -2.721437331438562546E-17, 1.000000000000000000, -0.000000000000000000 ) ) ;
#97 = DIRECTION ( 'NONE',  ( -1.000000000000000000, 0.000000000000000000, 0.000000000000000000 ) ) ;
#98 = CIRCLE ( 'NONE', #299, 0.02340000000000000413 ) ;
#99 = DIRECTION ( 'NONE',  ( -2.721437331438562546E-17, 1.000000000000000000, -0.000000000000000000 ) ) ;
#100 = SURFACE_STYLE_USAGE ( .BOTH. , #178 ) ;
#101 = DIRECTION ( 'NONE',  ( 0.000000000000000000, -1.000000000000000000, -0.000000000000000000 ) ) ;
#102 = ORIENTED_EDGE ( 'NONE', *, *, #356, .F. ) ;
#103 = FACE_OUTER_BOUND ( 'NONE', #156, .T. ) ;
#104 = CARTESIAN_POINT ( 'NONE',  ( 0.000000000000000000, 0.2500000000000000555, 0.000000000000000000 ) ) ;
#105 = ORIENTED_EDGE ( 'NONE', *, *, #145, .T. ) ;
#106 = DIRECTION ( 'NONE',  ( 0.000000000000000000, 0.000000000000000000, -1.000000000000000000 ) ) ;
#107 = ADVANCED_FACE ( 'NONE', ( #103 ), #147, .T. ) ;
#108 =( GEOMETRIC_REPRESENTATION_CONTEXT ( 3 ) GLOBAL_UNCERTAINTY_ASSIGNED_CONTEXT ( ( #13 ) ) GLOBAL_UNIT_ASSIGNED_CONTEXT ( ( #315, #278, #248 ) ) REPRESENTATION_CONTEXT ( 'NONE', 'WORKASPACE' ) );
#109 = AXIS2_PLACEMENT_3D ( 'NONE', #223, #298, #5 ) ;
#110 = AXIS2_PLACEMENT_3D ( 'NONE', #40, #96, #189 ) ;
#111 = VERTEX_POINT ( 'NONE', #35 ) ;
#112 =( CONVERSION_BASED_UNIT ( 'INCH', #22 ) LENGTH_UNIT ( ) NAMED_UNIT ( #168 ) );
#113 = EDGE_LOOP ( 'NONE', ( #238, #69, #47, #64 ) ) ;
#114 = ORIENTED_EDGE ( 'NONE', *, *, #163, .F. ) ;
#115 = PRESENTATION_LAYER_ASSIGNMENT (  '', '', ( #192 ) ) ;
#116 = MECHANICAL_DESIGN_GEOMETRIC_PRESENTATION_REPRESENTATION (  '', ( #132 ), #199 ) ;
#117 = VERTEX_POINT ( 'NONE', #16 ) ;
#118 = PRESENTATION_STYLE_ASSIGNMENT (( #273 ) ) ;
#119 = CARTESIAN_POINT ( 'NONE',  ( -0.1250000000000001110, 2.500000000000000000, 0.000000000000000000 ) ) ;
#120 = DIRECTION ( 'NONE',  ( -0.000000000000000000, -1.000000000000000000, -0.000000000000000000 ) ) ;
#121 = CONICAL_SURFACE ( 'NONE', #24, 0.02340000000000000413, 0.2617993877991501850 ) ;
#122 = SURFACE_STYLE_USAGE ( .BOTH. , #90 ) ;
#123 = FACE_OUTER_BOUND ( 'NONE', #289, .T. ) ;
#124 = VECTOR ( 'NONE', #70, 39.37007874015748143 ) ;
#125 = DIRECTION ( 'NONE',  ( -1.000000000000000000, -2.721437331438562546E-17, 0.000000000000000000 ) ) ;
#126 = ADVANCED_FACE ( 'NONE', ( #123 ), #95, .T. ) ;
#127 = DIMENSIONAL_EXPONENTS ( 1.000000000000000000, 0.000000000000000000, 0.000000000000000000, 0.000000000000000000, 0.000000000000000000, 0.000000000000000000, 0.000000000000000000 ) ;
#128 = ORIENTED_EDGE ( 'NONE', *, *, #300, .F. ) ;
#129 = CARTESIAN_POINT ( 'NONE',  ( 0.000000000000000000, 0.2500000000000000000, -0.02340000000000000413 ) ) ;
#130 =( LENGTH_UNIT ( ) NAMED_UNIT ( * ) SI_UNIT ( $, .METRE. ) );
#131 = EDGE_LOOP ( 'NONE', ( #59, #244, #325, #78 ) ) ;
#132 = STYLED_ITEM ( 'NONE', ( #41 ), #107 ) ;
#133 = SURFACE_SIDE_STYLE ('',( #152 ) ) ;
#134 = ORIENTED_EDGE ( 'NONE', *, *, #356, .T. ) ;
#135 = DIRECTION ( 'NONE',  ( 0.000000000000000000, 0.000000000000000000, -1.000000000000000000 ) ) ;
#136 = DIRECTION ( 'NONE',  ( -1.000000000000000000, 0.000000000000000000, 0.000000000000000000 ) ) ;
#137 = CARTESIAN_POINT ( 'NONE',  ( 0.000000000000000000, 0.000000000000000000, 0.000000000000000000 ) ) ;
#138 = AXIS2_PLACEMENT_3D ( 'NONE', #346, #101, #326 ) ;
#139 = PRESENTATION_STYLE_ASSIGNMENT (( #173 ) ) ;
#140 = DIRECTION ( 'NONE',  ( -2.721437331438562546E-17, 1.000000000000000000, -0.000000000000000000 ) ) ;
#141 =( NAMED_UNIT ( * ) PLANE_ANGLE_UNIT ( ) SI_UNIT ( $, .RADIAN. ) );
#142 = CIRCLE ( 'NONE', #242, 0.02340000000000000413 ) ;
#143 = SURFACE_SIDE_STYLE ('',( #159 ) ) ;
#144 = AXIS2_PLACEMENT_3D ( 'NONE', #341, #317, #28 ) ;
#145 = EDGE_CURVE ( 'NONE', #214, #321, #56, .T. ) ;
#146 = ADVANCED_BREP_SHAPE_REPRESENTATION ( '84084', ( #302, #187, #308 ), #301 ) ;
#147 = PLANE ( 'NONE',  #339 ) ;
#148 = PRODUCT_DEFINITION_CONTEXT ( 'detailed design', #180, 'design' ) ;
#149 = CARTESIAN_POINT ( 'NONE',  ( 8.665278744268509932E-36, 0.2500000000000000000, 0.000000000000000000 ) ) ;
#150 = AXIS2_PLACEMENT_3D ( 'NONE', #2, #120, #85 ) ;
#151 = LENGTH_MEASURE_WITH_UNIT ( LENGTH_MEASURE( 0.02539999999999999897 ), #275 );
#152 = SURFACE_STYLE_FILL_AREA ( #34 ) ;
#153 = UNCERTAINTY_MEASURE_WITH_UNIT (LENGTH_MEASURE( 1.000000000000000082E-05 ), #355, 'distance_accuracy_value', 'NONE');
#154 = CYLINDRICAL_SURFACE ( 'NONE', #110, 0.1250000000000000278 ) ;
#155 = CYLINDRICAL_SURFACE ( 'NONE', #170, 0.02340000000000000413 ) ;
#156 = EDGE_LOOP ( 'NONE', ( #102, #177 ) ) ;
#157 = MECHANICAL_DESIGN_GEOMETRIC_PRESENTATION_REPRESENTATION (  '', ( #17 ), #197 ) ;
#158 = PRODUCT_RELATED_PRODUCT_CATEGORY ( 'part', '', ( #305 ) ) ;
#159 = SURFACE_STYLE_FILL_AREA ( #58 ) ;
#160 = DIRECTION ( 'NONE',  ( -1.000000000000000000, 0.000000000000000000, 0.000000000000000000 ) ) ;
#161 = CARTESIAN_POINT ( 'NONE',  ( 0.1249999999999999584, 2.500000000000000000, 1.530808498934191817E-17 ) ) ;
#162 = DIRECTION ( 'NONE',  ( -2.721437331438562546E-17, 1.000000000000000000, -0.000000000000000000 ) ) ;
#163 = EDGE_CURVE ( 'NONE', #321, #214, #247, .T. ) ;
#164 = COLOUR_RGB ( '',1.000000000000000000, 0.000000000000000000, 0.000000000000000000 ) ;
#165 = DIRECTION ( 'NONE',  ( -0.000000000000000000, -1.000000000000000000, -0.000000000000000000 ) ) ;
#166 = APPLICATION_PROTOCOL_DEFINITION ( 'draft international standard', 'automotive_design', 1998, #272 ) ;
#167 = COLOUR_RGB ( '',1.000000000000000000, 0.000000000000000000, 0.000000000000000000 ) ;
#168 = DIMENSIONAL_EXPONENTS ( 1.000000000000000000, 0.000000000000000000, 0.000000000000000000, 0.000000000000000000, 0.000000000000000000, 0.000000000000000000, 0.000000000000000000 ) ;
#169 = PRODUCT_DEFINITION ( 'UNKNOWN', '', #331, #148 ) ;
#170 = AXIS2_PLACEMENT_3D ( 'NONE', #137, #229, #297 ) ;
#171 = FILL_AREA_STYLE_COLOUR ( '', #327 ) ;
#172 = VECTOR ( 'NONE', #246, 39.37007874015748143 ) ;
#173 = SURFACE_STYLE_USAGE ( .BOTH. , #240 ) ;
#174 = EDGE_CURVE ( 'NONE', #39, #264, #98, .T. ) ;
#175 = STYLED_ITEM ( 'NONE', ( #139 ), #30 ) ;
#176 = VECTOR ( 'NONE', #287, 39.37007874015748143 ) ;
#177 = ORIENTED_EDGE ( 'NONE', *, *, #310, .F. ) ;
#178 = SURFACE_SIDE_STYLE ('',( #266 ) ) ;
#179 = CARTESIAN_POINT ( 'NONE',  ( 0.000000000000000000, 0.000000000000000000, -0.02340000000000000413 ) ) ;
#180 = APPLICATION_CONTEXT ( 'automotive_design' ) ;
#181 =( CONVERSION_BASED_UNIT ( 'INCH', #263 ) LENGTH_UNIT ( ) NAMED_UNIT ( #60 ) );
#182 = AXIS2_PLACEMENT_3D ( 'NONE', #186, #80, #281 ) ;
#183 = AXIS2_PLACEMENT_3D ( 'NONE', #206, #311, #97 ) ;
#184 = SURFACE_STYLE_FILL_AREA ( #45 ) ;
#185 = CIRCLE ( 'NONE', #25, 0.02340000000000000413 ) ;
#186 = CARTESIAN_POINT ( 'NONE',  ( 0.1250000000000000000, 2.500000000000000000, 0.000000000000000000 ) ) ;
#187 = MANIFOLD_SOLID_BREP ( 'Revolve - Tool Body (Reduced Cut Diameter)', #230 ) ;
#188 = ORIENTED_EDGE ( 'NONE', *, *, #89, .F. ) ;
#189 = DIRECTION ( 'NONE',  ( -1.000000000000000000, 0.000000000000000000, 0.000000000000000000 ) ) ;
#190 = LENGTH_MEASURE_WITH_UNIT ( LENGTH_MEASURE( 0.02539999999999999897 ), #239 );
#191 = CARTESIAN_POINT ( 'NONE',  ( 0.000000000000000000, 0.000000000000000000, 0.000000000000000000 ) ) ;
#192 = STYLED_ITEM ( 'NONE', ( #233 ), #55 ) ;
#193 = CARTESIAN_POINT ( 'NONE',  ( -0.1250000000000001388, 2.500000000000000000, 0.000000000000000000 ) ) ;
#194 = ORIENTED_EDGE ( 'NONE', *, *, #276, .T. ) ;
#195 = DIRECTION ( 'NONE',  ( -0.000000000000000000, -1.000000000000000000, -0.000000000000000000 ) ) ;
#196 = CYLINDRICAL_SURFACE ( 'NONE', #93, 0.02340000000000000413 ) ;
#197 =( GEOMETRIC_REPRESENTATION_CONTEXT ( 3 ) GLOBAL_UNCERTAINTY_ASSIGNED_CONTEXT ( ( #347 ) ) GLOBAL_UNIT_ASSIGNED_CONTEXT ( ( #216, #141, #52 ) ) REPRESENTATION_CONTEXT ( 'NONE', 'WORKASPACE' ) );
#198 = CARTESIAN_POINT ( 'NONE',  ( 0.000000000000000000, 0.2500000000000000000, 0.000000000000000000 ) ) ;
#199 =( GEOMETRIC_REPRESENTATION_CONTEXT ( 3 ) GLOBAL_UNCERTAINTY_ASSIGNED_CONTEXT ( ( #340 ) ) GLOBAL_UNIT_ASSIGNED_CONTEXT ( ( #330, #212, #350 ) ) REPRESENTATION_CONTEXT ( 'NONE', 'WORKASPACE' ) );
#200 = ORIENTED_EDGE ( 'NONE', *, *, #1, .F. ) ;
#201 = CARTESIAN_POINT ( 'NONE',  ( 0.000000000000000000, 0.2500000000000000000, 0.000000000000000000 ) ) ;
#202 = LINE ( 'NONE', #179, #176 ) ;
#203 = DIMENSIONAL_EXPONENTS ( 1.000000000000000000, 0.000000000000000000, 0.000000000000000000, 0.000000000000000000, 0.000000000000000000, 0.000000000000000000, 0.000000000000000000 ) ;
#204 = EDGE_CURVE ( 'NONE', #65, #294, #241, .T. ) ;
#205 = CARTESIAN_POINT ( 'NONE',  ( 0.02340000000000000413, 0.2500000000000000555, 9.086879249673361014E-18 ) ) ;
#206 = CARTESIAN_POINT ( 'NONE',  ( -6.123233995736766036E-17, 2.500000000000000000, 0.000000000000000000 ) ) ;
#207 = SURFACE_STYLE_FILL_AREA ( #337 ) ;
#208 = ORIENTED_EDGE ( 'NONE', *, *, #218, .T. ) ;
#209 = CARTESIAN_POINT ( 'NONE',  ( 0.1250000000000000278, 2.500000000000000000, 1.530808498934192125E-17 ) ) ;
#210 = VECTOR ( 'NONE', #76, 39.37007874015748143 ) ;
#211 =( CONVERSION_BASED_UNIT ( 'INCH', #12 ) LENGTH_UNIT ( ) NAMED_UNIT ( #203 ) );
#212 =( NAMED_UNIT ( * ) PLANE_ANGLE_UNIT ( ) SI_UNIT ( $, .RADIAN. ) );
#213 = EDGE_CURVE ( 'NONE', #294, #65, #261, .T. ) ;
#214 = VERTEX_POINT ( 'NONE', #193 ) ;
#215 = ORIENTED_EDGE ( 'NONE', *, *, #62, .T. ) ;
#216 =( CONVERSION_BASED_UNIT ( 'INCH', #48 ) LENGTH_UNIT ( ) NAMED_UNIT ( #91 ) );
#217 = DIRECTION ( 'NONE',  ( -1.000000000000000000, 0.000000000000000000, 0.000000000000000000 ) ) ;
#218 = EDGE_CURVE ( 'NONE', #111, #264, #26, .T. ) ;
#219 =( NAMED_UNIT ( * ) SI_UNIT ( $, .STERADIAN. ) SOLID_ANGLE_UNIT ( ) );
#220 = PRODUCT_CONTEXT ( 'NONE', #272, 'mechanical' ) ;
#221 = PRESENTATION_LAYER_ASSIGNMENT (  '', '', ( #17 ) ) ;
#222 = FACE_OUTER_BOUND ( 'NONE', #131, .T. ) ;
#223 = CARTESIAN_POINT ( 'NONE',  ( -6.123233995736766036E-17, 2.500000000000000000, 0.000000000000000000 ) ) ;
#224 = PRESENTATION_STYLE_ASSIGNMENT (( #122 ) ) ;
#225 = EDGE_CURVE ( 'NONE', #264, #39, #306, .T. ) ;
#226 = ORIENTED_EDGE ( 'NONE', *, *, #174, .F. ) ;
#227 = DIRECTION ( 'NONE',  ( 0.000000000000000000, 0.000000000000000000, -1.000000000000000000 ) ) ;
#228 =( NAMED_UNIT ( * ) PLANE_ANGLE_UNIT ( ) SI_UNIT ( $, .RADIAN. ) );
#229 = DIRECTION ( 'NONE',  ( -0.000000000000000000, -1.000000000000000000, -0.000000000000000000 ) ) ;
#230 = CLOSED_SHELL ( 'NONE', ( #307, #94, #21, #280, #126, #6 ) ) ;
#231 =( GEOMETRIC_REPRESENTATION_CONTEXT ( 3 ) GLOBAL_UNCERTAINTY_ASSIGNED_CONTEXT ( ( #57 ) ) GLOBAL_UNIT_ASSIGNED_CONTEXT ( ( #112, #3, #219 ) ) REPRESENTATION_CONTEXT ( 'NONE', 'WORKASPACE' ) );
#232 = LENGTH_MEASURE_WITH_UNIT ( LENGTH_MEASURE( 0.02539999999999999897 ), #236 );
#233 = PRESENTATION_STYLE_ASSIGNMENT (( #259 ) ) ;
#234 = AXIS2_PLACEMENT_3D ( 'NONE', #201, #286, #106 ) ;
#235 = EDGE_LOOP ( 'NONE', ( #256, #23 ) ) ;
#236 =( LENGTH_UNIT ( ) NAMED_UNIT ( * ) SI_UNIT ( $, .METRE. ) );
#237 = CARTESIAN_POINT ( 'NONE',  ( 0.1250000000000000000, 0.6291763620489969622, 1.530808498934191509E-17 ) ) ;
#238 = ORIENTED_EDGE ( 'NONE', *, *, #213, .T. ) ;
#239 =( LENGTH_UNIT ( ) NAMED_UNIT ( * ) SI_UNIT ( $, .METRE. ) );
#240 = SURFACE_SIDE_STYLE ('',( #207 ) ) ;
#241 = CIRCLE ( 'NONE', #279, 0.1250000000000000278 ) ;
#242 = AXIS2_PLACEMENT_3D ( 'NONE', #324, #162, #160 ) ;
#243 = FACE_OUTER_BOUND ( 'NONE', #73, .T. ) ;
#244 = ORIENTED_EDGE ( 'NONE', *, *, #310, .T. ) ;
#245 = DIRECTION ( 'NONE',  ( 1.000000000000000000, 0.000000000000000000, 0.000000000000000000 ) ) ;
#246 = DIRECTION ( 'NONE',  ( -0.000000000000000000, -1.000000000000000000, -0.000000000000000000 ) ) ;
#247 = CIRCLE ( 'NONE', #109, 0.1250000000000000555 ) ;
#248 =( NAMED_UNIT ( * ) SI_UNIT ( $, .STERADIAN. ) SOLID_ANGLE_UNIT ( ) );
#249 = FILL_AREA_STYLE ('',( #309 ) ) ;
#250 = DIMENSIONAL_EXPONENTS ( 1.000000000000000000, 0.000000000000000000, 0.000000000000000000, 0.000000000000000000, 0.000000000000000000, 0.000000000000000000, 0.000000000000000000 ) ;
#251 = ADVANCED_FACE ( 'NONE', ( #222 ), #196, .T. ) ;
#252 = DIRECTION ( 'NONE',  ( 0.000000000000000000, -0.000000000000000000, 1.000000000000000000 ) ) ;
#253 = SURFACE_STYLE_FILL_AREA ( #249 ) ;
#254 = PRESENTATION_LAYER_ASSIGNMENT (  '', '', ( #54 ) ) ;
#255 = DIRECTION ( 'NONE',  ( -2.721437331438562546E-17, 1.000000000000000000, 0.000000000000000000 ) ) ;
#256 = ORIENTED_EDGE ( 'NONE', *, *, #174, .T. ) ;
#257 = ORIENTED_EDGE ( 'NONE', *, *, #342, .F. ) ;
#258 = CARTESIAN_POINT ( 'NONE',  ( -0.02340000000000000413, 0.2500000000000000555, 0.000000000000000000 ) ) ;
#259 = SURFACE_STYLE_USAGE ( .BOTH. , #133 ) ;
#260 = COLOUR_RGB ( '',1.000000000000000000, 0.000000000000000000, 0.000000000000000000 ) ;
#261 = CIRCLE ( 'NONE', #334, 0.1250000000000000278 ) ;
#262 = ORIENTED_EDGE ( 'NONE', *, *, #293, .T. ) ;
#263 = LENGTH_MEASURE_WITH_UNIT ( LENGTH_MEASURE( 0.02539999999999999897 ), #46 );
#264 = VERTEX_POINT ( 'NONE', #10 ) ;
#265 = ORIENTED_EDGE ( 'NONE', *, *, #204, .F. ) ;
#266 = SURFACE_STYLE_FILL_AREA ( #343 ) ;
#267 = FILL_AREA_STYLE_COLOUR ( '', #164 ) ;
#268 = LINE ( 'NONE', #161, #210 ) ;
#269 =( GEOMETRIC_REPRESENTATION_CONTEXT ( 3 ) GLOBAL_UNCERTAINTY_ASSIGNED_CONTEXT ( ( #313 ) ) GLOBAL_UNIT_ASSIGNED_CONTEXT ( ( #211, #15, #285 ) ) REPRESENTATION_CONTEXT ( 'NONE', 'WORKASPACE' ) );
#270 = LINE ( 'NONE', #119, #87 ) ;
#271 = ORIENTED_EDGE ( 'NONE', *, *, #62, .F. ) ;
#272 = APPLICATION_CONTEXT ( 'automotive_design' ) ;
#273 = SURFACE_STYLE_USAGE ( .BOTH. , #143 ) ;
#274 = DIRECTION ( 'NONE',  ( -1.000000000000000000, 0.000000000000000000, 0.000000000000000000 ) ) ;
#275 =( LENGTH_UNIT ( ) NAMED_UNIT ( * ) SI_UNIT ( $, .METRE. ) );
#276 = EDGE_CURVE ( 'NONE', #294, #214, #270, .T. ) ;
#277 = VECTOR ( 'NONE', #27, 39.37007874015748143 ) ;
#278 =( NAMED_UNIT ( * ) PLANE_ANGLE_UNIT ( ) SI_UNIT ( $, .RADIAN. ) );
#279 = AXIS2_PLACEMENT_3D ( 'NONE', #4, #53, #274 ) ;
#280 = ADVANCED_FACE ( 'NONE', ( #11 ), #8, .T. ) ;
#281 = DIRECTION ( 'NONE',  ( 1.000000000000000000, 2.721437331438562546E-17, 0.000000000000000000 ) ) ;
#282 = MECHANICAL_DESIGN_GEOMETRIC_PRESENTATION_REPRESENTATION (  '', ( #54 ), #292 ) ;
#283 = EDGE_LOOP ( 'NONE', ( #215, #348, #44, #257 ) ) ;
#284 = FILL_AREA_STYLE_COLOUR ( '', #288 ) ;
#285 =( NAMED_UNIT ( * ) SI_UNIT ( $, .STERADIAN. ) SOLID_ANGLE_UNIT ( ) );
#286 = DIRECTION ( 'NONE',  ( -0.000000000000000000, -1.000000000000000000, -0.000000000000000000 ) ) ;
#287 = DIRECTION ( 'NONE',  ( -0.000000000000000000, -1.000000000000000000, -0.000000000000000000 ) ) ;
#288 = COLOUR_RGB ( '',0.7921568627450980005, 0.8196078431372548767, 0.9333333333333333481 ) ;
#289 = EDGE_LOOP ( 'NONE', ( #128, #303, #194, #114 ) ) ;
#290 = PRESENTATION_STYLE_ASSIGNMENT (( #100 ) ) ;
#291 = SURFACE_SIDE_STYLE ('',( #184 ) ) ;
#292 =( GEOMETRIC_REPRESENTATION_CONTEXT ( 3 ) GLOBAL_UNCERTAINTY_ASSIGNED_CONTEXT ( ( #153 ) ) GLOBAL_UNIT_ASSIGNED_CONTEXT ( ( #355, #228, #329 ) ) REPRESENTATION_CONTEXT ( 'NONE', 'WORKASPACE' ) );
#293 = EDGE_CURVE ( 'NONE', #36, #117, #142, .T. ) ;
#294 = VERTEX_POINT ( 'NONE', #353 ) ;
#295 = PLANE ( 'NONE',  #182 ) ;
#296 = FACE_OUTER_BOUND ( 'NONE', #113, .T. ) ;
#297 = DIRECTION ( 'NONE',  ( 0.000000000000000000, 0.000000000000000000, -1.000000000000000000 ) ) ;
#298 = DIRECTION ( 'NONE',  ( -2.721437331438562546E-17, 1.000000000000000000, -0.000000000000000000 ) ) ;
#299 = AXIS2_PLACEMENT_3D ( 'NONE', #79, #165, #20 ) ;
#300 = EDGE_CURVE ( 'NONE', #65, #321, #268, .T. ) ;
#301 =( GEOMETRIC_REPRESENTATION_CONTEXT ( 3 ) GLOBAL_UNCERTAINTY_ASSIGNED_CONTEXT ( ( #9 ) ) GLOBAL_UNIT_ASSIGNED_CONTEXT ( ( #181, #63, #51 ) ) REPRESENTATION_CONTEXT ( 'NONE', 'WORKASPACE' ) );
#302 = MANIFOLD_SOLID_BREP ( 'Revolve - Cutting Edge', #318 ) ;
#303 = ORIENTED_EDGE ( 'NONE', *, *, #204, .T. ) ;
#304 = DIRECTION ( 'NONE',  ( 0.000000000000000000, 0.000000000000000000, 1.000000000000000000 ) ) ;
#305 = PRODUCT ( '84084', '84084', '', ( #220 ) ) ;
#306 = CIRCLE ( 'NONE', #150, 0.02340000000000000413 ) ;
#307 = ADVANCED_FACE ( 'NONE', ( #296 ), #154, .T. ) ;
#308 = AXIS2_PLACEMENT_3D ( 'NONE', #191, #304, #245 ) ;
#309 = FILL_AREA_STYLE_COLOUR ( '', #167 ) ;
#310 = EDGE_CURVE ( 'NONE', #111, #357, #49, .T. ) ;
#311 = DIRECTION ( 'NONE',  ( -2.721437331438562546E-17, 1.000000000000000000, -0.000000000000000000 ) ) ;
#312 = MECHANICAL_DESIGN_GEOMETRIC_PRESENTATION_REPRESENTATION (  '', ( #352 ), #231 ) ;
#313 = UNCERTAINTY_MEASURE_WITH_UNIT (LENGTH_MEASURE( 1.000000000000000082E-05 ), #211, 'distance_accuracy_value', 'NONE');
#314 = FACE_OUTER_BOUND ( 'NONE', #92, .T. ) ;
#315 =( CONVERSION_BASED_UNIT ( 'INCH', #151 ) LENGTH_UNIT ( ) NAMED_UNIT ( #250 ) );
#316 = FILL_AREA_STYLE_COLOUR ( '', #38 ) ;
#317 = DIRECTION ( 'NONE',  ( -2.721437331438562546E-17, 1.000000000000000000, -0.000000000000000000 ) ) ;
#318 = CLOSED_SHELL ( 'NONE', ( #30, #107, #251, #55 ) ) ;
#319 = AXIS2_PLACEMENT_3D ( 'NONE', #71, #99, #136 ) ;
#320 = CARTESIAN_POINT ( 'NONE',  ( 0.000000000000000000, 0.2500000000000000555, 0.000000000000000000 ) ) ;
#321 = VERTEX_POINT ( 'NONE', #209 ) ;
#322 = DIRECTION ( 'NONE',  ( -0.000000000000000000, -1.000000000000000000, -0.000000000000000000 ) ) ;
#323 = FILL_AREA_STYLE_COLOUR ( '', #260 ) ;
#324 = CARTESIAN_POINT ( 'NONE',  ( 0.000000000000000000, 0.2500000000000000555, 0.000000000000000000 ) ) ;
#325 = ORIENTED_EDGE ( 'NONE', *, *, #89, .T. ) ;
#326 = DIRECTION ( 'NONE',  ( 0.000000000000000000, 0.000000000000000000, -1.000000000000000000 ) ) ;
#327 = COLOUR_RGB ( '',1.000000000000000000, 0.000000000000000000, 0.000000000000000000 ) ;
#328 = ORIENTED_EDGE ( 'NONE', *, *, #293, .F. ) ;
#329 =( NAMED_UNIT ( * ) SI_UNIT ( $, .STERADIAN. ) SOLID_ANGLE_UNIT ( ) );
#330 =( CONVERSION_BASED_UNIT ( 'INCH', #190 ) LENGTH_UNIT ( ) NAMED_UNIT ( #127 ) );
#331 = PRODUCT_DEFINITION_FORMATION_WITH_SPECIFIED_SOURCE ( 'ANY', '', #305, .NOT_KNOWN. ) ;
#332 = ORIENTED_EDGE ( 'NONE', *, *, #342, .T. ) ;
#333 = CARTESIAN_POINT ( 'NONE',  ( 0.000000000000000000, 0.000000000000000000, -0.02340000000000000413 ) ) ;
#334 = AXIS2_PLACEMENT_3D ( 'NONE', #358, #140, #217 ) ;
#335 = APPLICATION_PROTOCOL_DEFINITION ( 'draft international standard', 'automotive_design', 1998, #180 ) ;
#336 = DIRECTION ( 'NONE',  ( -2.721437331438562546E-17, 1.000000000000000000, -0.000000000000000000 ) ) ;
#337 = FILL_AREA_STYLE ('',( #171 ) ) ;
#338 = DIMENSIONAL_EXPONENTS ( 1.000000000000000000, 0.000000000000000000, 0.000000000000000000, 0.000000000000000000, 0.000000000000000000, 0.000000000000000000, 0.000000000000000000 ) ;
#339 = AXIS2_PLACEMENT_3D ( 'NONE', #198, #61, #252 ) ;
#340 = UNCERTAINTY_MEASURE_WITH_UNIT (LENGTH_MEASURE( 1.000000000000000082E-05 ), #330, 'distance_accuracy_value', 'NONE');
#341 = CARTESIAN_POINT ( 'NONE',  ( -6.123233995736766036E-17, 2.500000000000000000, 0.000000000000000000 ) ) ;
#342 = EDGE_CURVE ( 'NONE', #117, #294, #18, .T. ) ;
#343 = FILL_AREA_STYLE ('',( #284 ) ) ;
#344 = PLANE ( 'NONE',  #138 ) ;
#345 = PRESENTATION_LAYER_ASSIGNMENT (  '', '', ( #352 ) ) ;
#346 = CARTESIAN_POINT ( 'NONE',  ( 0.000000000000000000, 0.000000000000000000, 0.000000000000000000 ) ) ;
#347 = UNCERTAINTY_MEASURE_WITH_UNIT (LENGTH_MEASURE( 1.000000000000000082E-05 ), #216, 'distance_accuracy_value', 'NONE');
#348 = ORIENTED_EDGE ( 'NONE', *, *, #1, .T. ) ;
#349 = DIRECTION ( 'NONE',  ( -1.000000000000000000, 0.000000000000000000, 0.000000000000000000 ) ) ;
#350 =( NAMED_UNIT ( * ) SI_UNIT ( $, .STERADIAN. ) SOLID_ANGLE_UNIT ( ) );
#351 = MECHANICAL_DESIGN_GEOMETRIC_PRESENTATION_REPRESENTATION (  '', ( #175 ), #108 ) ;
#352 = STYLED_ITEM ( 'NONE', ( #118 ), #187 ) ;
#353 = CARTESIAN_POINT ( 'NONE',  ( -0.1250000000000000278, 0.6291763620489969622, 0.000000000000000000 ) ) ;
#354 = EDGE_LOOP ( 'NONE', ( #134, #208, #226, #188 ) ) ;
#355 =( CONVERSION_BASED_UNIT ( 'INCH', #232 ) LENGTH_UNIT ( ) NAMED_UNIT ( #338 ) );
#356 = EDGE_CURVE ( 'NONE', #357, #111, #185, .T. ) ;
#357 = VERTEX_POINT ( 'NONE', #129 ) ;
#358 = CARTESIAN_POINT ( 'NONE',  ( -1.031904706879204720E-17, 0.6291763620489969622, 0.000000000000000000 ) ) ;
#359 =( LENGTH_UNIT ( ) NAMED_UNIT ( * ) SI_UNIT ( $, .METRE. ) );
ENDSEC;
END-ISO-10303-21;
