ISO-10303-21;
HEADER;
FILE_DESCRIPTION (( 'STEP AP214' ),
    '1' );
FILE_NAME ('Micro_EMSM-120-3.STEP',
    '2022-03-15T14:39:47',
    ( '' ),
    ( '' ),
    'SwSTEP 2.0',
    'SolidWorks 2022',
    '' );
FILE_SCHEMA (( 'AUTOMOTIVE_DESIGN' ));
ENDSEC;

DATA;
#1 = PRODUCT_CONTEXT ( 'NONE', #160, 'mechanical' ) ;
#2 = ORIENTED_EDGE ( 'NONE', *, *, #41, .T. ) ;
#3 = VERTEX_POINT ( 'NONE', #77 ) ;
#4 = AXIS2_PLACEMENT_3D ( 'NONE', #285, #240, #178 ) ;
#5 = PRODUCT_RELATED_PRODUCT_CATEGORY ( 'part', '', ( #243 ) ) ;
#6 =( LENGTH_UNIT ( ) NAMED_UNIT ( * ) SI_UNIT ( $, .METRE. ) );
#7 = DIRECTION ( 'NONE',  ( -1.224646799147353454E-16, -0.000000000000000000, -1.000000000000000000 ) ) ;
#8 = DIRECTION ( 'NONE',  ( -1.000000000000000000, 0.000000000000000000, 0.000000000000000000 ) ) ;
#9 = VECTOR ( 'NONE', #154, 39.37007874015748854 ) ;
#10 = CARTESIAN_POINT ( 'NONE',  ( 0.2362204999999999999, 2.892866792179872647E-17, 3.267717000000000649 ) ) ;
#11 = CIRCLE ( 'NONE', #269, 0.2362204999999999999 ) ;
#12 = DIRECTION ( 'NONE',  ( -1.224646799147353454E-16, -0.000000000000000000, -1.000000000000000000 ) ) ;
#13 = EDGE_CURVE ( 'NONE', #47, #140, #63, .T. ) ;
#14 = ADVANCED_FACE ( 'NONE', ( #179 ), #176, .T. ) ;
#15 =( GEOMETRIC_REPRESENTATION_CONTEXT ( 3 ) GLOBAL_UNCERTAINTY_ASSIGNED_CONTEXT ( ( #260 ) ) GLOBAL_UNIT_ASSIGNED_CONTEXT ( ( #107, #224, #101 ) ) REPRESENTATION_CONTEXT ( 'NONE', 'WORKASPACE' ) );
#16 = DIRECTION ( 'NONE',  ( -0.000000000000000000, -0.000000000000000000, -1.000000000000000000 ) ) ;
#17 = ORIENTED_EDGE ( 'NONE', *, *, #127, .F. ) ;
#18 = CYLINDRICAL_SURFACE ( 'NONE', #223, 0.2362204999999999999 ) ;
#19 = ADVANCED_FACE ( 'NONE', ( #222 ), #80, .T. ) ;
#20 = ORIENTED_EDGE ( 'NONE', *, *, #46, .F. ) ;
#21 = CARTESIAN_POINT ( 'NONE',  ( 0.2362204999999999999, 2.892866792179872647E-17, 3.252717000000002301 ) ) ;
#22 = ORIENTED_EDGE ( 'NONE', *, *, #289, .T. ) ;
#23 = STYLED_ITEM ( 'NONE', ( #128 ), #100 ) ;
#24 = SURFACE_STYLE_FILL_AREA ( #96 ) ;
#25 = ORIENTED_EDGE ( 'NONE', *, *, #82, .F. ) ;
#26 = UNCERTAINTY_MEASURE_WITH_UNIT (LENGTH_MEASURE( 1.000000000000000082E-05 ), #28, 'distance_accuracy_value', 'NONE');
#27 = ADVANCED_FACE ( 'NONE', ( #109 ), #79, .T. ) ;
#28 =( CONVERSION_BASED_UNIT ( 'INCH', #149 ) LENGTH_UNIT ( ) NAMED_UNIT ( #72 ) );
#29 = APPLICATION_PROTOCOL_DEFINITION ( 'draft international standard', 'automotive_design', 1998, #160 ) ;
#30 = CARTESIAN_POINT ( 'NONE',  ( -0.2359842795000000049, 0.000000000000000000, 5.779947850775388659E-17 ) ) ;
#31 = AXIS2_PLACEMENT_3D ( 'NONE', #202, #59, #231 ) ;
#32 = DIRECTION ( 'NONE',  ( 0.000000000000000000, 0.000000000000000000, 1.000000000000000000 ) ) ;
#33 = LINE ( 'NONE', #81, #9 ) ;
#34 = AXIS2_PLACEMENT_3D ( 'NONE', #263, #191, #125 ) ;
#35 = DIRECTION ( 'NONE',  ( -1.000000000000000000, 0.000000000000000000, 1.224646799147353454E-16 ) ) ;
#36 = CARTESIAN_POINT ( 'NONE',  ( 1.446432783766537492E-16, 0.000000000000000000, 1.181102000000000096 ) ) ;
#37 = CARTESIAN_POINT ( 'NONE',  ( 0.000000000000000000, 0.000000000000000000, 0.000000000000000000 ) ) ;
#38 = DIRECTION ( 'NONE',  ( -1.000000000000000000, 0.000000000000000000, 0.000000000000000000 ) ) ;
#39 = ORIENTED_EDGE ( 'NONE', *, *, #289, .F. ) ;
#40 = CIRCLE ( 'NONE', #210, 0.2359842794999999771 ) ;
#41 = EDGE_CURVE ( 'NONE', #288, #192, #141, .T. ) ;
#42 = DIRECTION ( 'NONE',  ( 1.224646799147353454E-16, 0.000000000000000000, 1.000000000000000000 ) ) ;
#43 = EDGE_LOOP ( 'NONE', ( #20, #296, #45, #115 ) ) ;
#44 = DIRECTION ( 'NONE',  ( -1.000000000000000000, 0.000000000000000000, 0.000000000000000000 ) ) ;
#45 = ORIENTED_EDGE ( 'NONE', *, *, #127, .T. ) ;
#46 = EDGE_CURVE ( 'NONE', #3, #193, #33, .T. ) ;
#47 = VERTEX_POINT ( 'NONE', #30 ) ;
#48 =( NAMED_UNIT ( * ) PLANE_ANGLE_UNIT ( ) SI_UNIT ( $, .RADIAN. ) );
#49 = DIRECTION ( 'NONE',  ( -1.000000000000000000, 0.000000000000000000, 1.224646799147353454E-16 ) ) ;
#50 = CARTESIAN_POINT ( 'NONE',  ( 0.000000000000000000, 0.000000000000000000, 0.000000000000000000 ) ) ;
#51 = DIRECTION ( 'NONE',  ( -1.224646799147353454E-16, -0.000000000000000000, -1.000000000000000000 ) ) ;
#52 = CARTESIAN_POINT ( 'NONE',  ( -0.2362204999999999999, 0.000000000000000000, 3.252717000000002301 ) ) ;
#53 = DIMENSIONAL_EXPONENTS ( 1.000000000000000000, 0.000000000000000000, 0.000000000000000000, 0.000000000000000000, 0.000000000000000000, 0.000000000000000000, 0.000000000000000000 ) ;
#54 = ORIENTED_EDGE ( 'NONE', *, *, #161, .T. ) ;
#55 = CLOSED_SHELL ( 'NONE', ( #139, #183, #277, #14, #174, #27, #19, #105, #58, #245 ) ) ;
#56 = CIRCLE ( 'NONE', #274, 0.2362204999999999999 ) ;
#57 = CARTESIAN_POINT ( 'NONE',  ( 0.000000000000000000, 0.000000000000000000, 3.267717000000000649 ) ) ;
#58 = ADVANCED_FACE ( 'NONE', ( #103 ), #195, .T. ) ;
#59 = DIRECTION ( 'NONE',  ( 0.000000000000000000, 0.000000000000000000, -1.000000000000000000 ) ) ;
#60 = FACE_OUTER_BOUND ( 'NONE', #259, .T. ) ;
#61 = ORIENTED_EDGE ( 'NONE', *, *, #225, .F. ) ;
#62 = DIRECTION ( 'NONE',  ( -1.000000000000000000, 0.000000000000000000, 0.000000000000000000 ) ) ;
#63 = CIRCLE ( 'NONE', #186, 0.2359842795000000049 ) ;
#64 = ORIENTED_EDGE ( 'NONE', *, *, #251, .T. ) ;
#65 = CARTESIAN_POINT ( 'NONE',  ( 0.2359842795000001159, 0.000000000000000000, 1.181102000000000096 ) ) ;
#66 = EDGE_LOOP ( 'NONE', ( #256, #64 ) ) ;
#67 = EDGE_CURVE ( 'NONE', #281, #3, #74, .T. ) ;
#68 = ORIENTED_EDGE ( 'NONE', *, *, #265, .T. ) ;
#69 = DIRECTION ( 'NONE',  ( 0.000000000000000000, 0.000000000000000000, -1.000000000000000000 ) ) ;
#70 = PRODUCT_DEFINITION ( 'UNKNOWN', '', #248, #213 ) ;
#71 = ORIENTED_EDGE ( 'NONE', *, *, #293, .T. ) ;
#72 = DIMENSIONAL_EXPONENTS ( 1.000000000000000000, 0.000000000000000000, 0.000000000000000000, 0.000000000000000000, 0.000000000000000000, 0.000000000000000000, 0.000000000000000000 ) ;
#73 = EDGE_CURVE ( 'NONE', #282, #192, #153, .T. ) ;
#74 = CIRCLE ( 'NONE', #4, 0.2212205000000019295 ) ;
#75 = LINE ( 'NONE', #244, #155 ) ;
#76 = PRESENTATION_STYLE_ASSIGNMENT (( #118 ) ) ;
#77 = CARTESIAN_POINT ( 'NONE',  ( 0.2212205000000019295, 2.801018282243833685E-17, 3.267717000000000649 ) ) ;
#78 = SURFACE_SIDE_STYLE ('',( #24 ) ) ;
#79 = PLANE ( 'NONE',  #209 ) ;
#80 = CONICAL_SURFACE ( 'NONE', #119, 0.2212205000000019295, 0.7853981633974482790 ) ;
#81 = CARTESIAN_POINT ( 'NONE',  ( 0.2212205000000019295, 2.709169772307794108E-17, 3.267717000000000649 ) ) ;
#82 = EDGE_CURVE ( 'NONE', #282, #140, #75, .T. ) ;
#83 = CARTESIAN_POINT ( 'NONE',  ( 1.448073410051044337E-16, 0.000000000000000000, 1.182441673027071261 ) ) ;
#84 = CARTESIAN_POINT ( 'NONE',  ( -0.2362204999999999999, 0.000000000000000000, 3.267717000000000649 ) ) ;
#85 = CIRCLE ( 'NONE', #279, 0.2212205000000019295 ) ;
#86 = LINE ( 'NONE', #138, #217 ) ;
#87 = DIRECTION ( 'NONE',  ( -1.224646799147353454E-16, -0.000000000000000000, -1.000000000000000000 ) ) ;
#88 = AXIS2_PLACEMENT_3D ( 'NONE', #221, #42, #291 ) ;
#89 = CARTESIAN_POINT ( 'NONE',  ( 1.446432783766537492E-16, 0.000000000000000000, 1.181102000000000096 ) ) ;
#90 = ORIENTED_EDGE ( 'NONE', *, *, #234, .T. ) ;
#91 = LINE ( 'NONE', #84, #111 ) ;
#92 = AXIS2_PLACEMENT_3D ( 'NONE', #57, #295, #62 ) ;
#93 = ORIENTED_EDGE ( 'NONE', *, *, #161, .F. ) ;
#94 =( CONVERSION_BASED_UNIT ( 'INCH', #266 ) LENGTH_UNIT ( ) NAMED_UNIT ( #220 ) );
#95 = VERTEX_POINT ( 'NONE', #52 ) ;
#96 = FILL_AREA_STYLE ('',( #236 ) ) ;
#97 = ORIENTED_EDGE ( 'NONE', *, *, #293, .F. ) ;
#98 = VECTOR ( 'NONE', #270, 39.37007874015748143 ) ;
#99 =( LENGTH_UNIT ( ) NAMED_UNIT ( * ) SI_UNIT ( $, .METRE. ) );
#100 = MANIFOLD_SOLID_BREP ( 'Cut-Revolve1', #55 ) ;
#101 =( NAMED_UNIT ( * ) SI_UNIT ( $, .STERADIAN. ) SOLID_ANGLE_UNIT ( ) );
#102 = CARTESIAN_POINT ( 'NONE',  ( 0.000000000000000000, 0.000000000000000000, 3.252717000000002301 ) ) ;
#103 = FACE_OUTER_BOUND ( 'NONE', #121, .T. ) ;
#104 = SURFACE_SIDE_STYLE ('',( #264 ) ) ;
#105 = ADVANCED_FACE ( 'NONE', ( #273 ), #120, .T. ) ;
#106 =( GEOMETRIC_REPRESENTATION_CONTEXT ( 3 ) GLOBAL_UNCERTAINTY_ASSIGNED_CONTEXT ( ( #26 ) ) GLOBAL_UNIT_ASSIGNED_CONTEXT ( ( #28, #145, #214 ) ) REPRESENTATION_CONTEXT ( 'NONE', 'WORKASPACE' ) );
#107 =( CONVERSION_BASED_UNIT ( 'INCH', #271 ) LENGTH_UNIT ( ) NAMED_UNIT ( #53 ) );
#108 = EDGE_CURVE ( 'NONE', #95, #288, #91, .T. ) ;
#109 = FACE_OUTER_BOUND ( 'NONE', #299, .T. ) ;
#110 = CARTESIAN_POINT ( 'NONE',  ( -0.2212205000000019295, 0.000000000000000000, 3.267717000000000649 ) ) ;
#111 = VECTOR ( 'NONE', #116, 39.37007874015748143 ) ;
#112 = DIRECTION ( 'NONE',  ( 0.000000000000000000, 0.000000000000000000, 1.000000000000000000 ) ) ;
#113 = STYLED_ITEM ( 'NONE', ( #76 ), #200 ) ;
#114 = DIRECTION ( 'NONE',  ( -1.000000000000000000, 0.000000000000000000, 1.224646799147353454E-16 ) ) ;
#115 = ORIENTED_EDGE ( 'NONE', *, *, #234, .F. ) ;
#116 = DIRECTION ( 'NONE',  ( -0.000000000000000000, -0.000000000000000000, -1.000000000000000000 ) ) ;
#117 = ORIENTED_EDGE ( 'NONE', *, *, #205, .T. ) ;
#118 = SURFACE_STYLE_USAGE ( .BOTH. , #78 ) ;
#119 = AXIS2_PLACEMENT_3D ( 'NONE', #219, #242, #199 ) ;
#120 = CONICAL_SURFACE ( 'NONE', #88, 0.2359842794999999771, 0.1745329251994338915 ) ;
#121 = EDGE_LOOP ( 'NONE', ( #25, #262, #68, #207 ) ) ;
#122 = COLOUR_RGB ( '',0.7921568627450980005, 0.8196078431372548767, 0.9333333333333333481 ) ;
#123 = PRODUCT_DEFINITION_SHAPE ( 'NONE', 'NONE',  #70 ) ;
#124 = EDGE_LOOP ( 'NONE', ( #71, #164, #230, #170 ) ) ;
#125 = DIRECTION ( 'NONE',  ( 1.000000000000000000, 0.000000000000000000, 0.000000000000000000 ) ) ;
#126 = DIRECTION ( 'NONE',  ( -1.224646799147353454E-16, -0.000000000000000000, -1.000000000000000000 ) ) ;
#127 = EDGE_CURVE ( 'NONE', #281, #95, #233, .T. ) ;
#128 = PRESENTATION_STYLE_ASSIGNMENT (( #267 ) ) ;
#129 = DIRECTION ( 'NONE',  ( -1.224646799147353454E-16, -0.000000000000000000, -1.000000000000000000 ) ) ;
#130 = CARTESIAN_POINT ( 'NONE',  ( 0.000000000000000000, 0.000000000000000000, 0.000000000000000000 ) ) ;
#131 = LINE ( 'NONE', #255, #261 ) ;
#132 = AXIS2_PLACEMENT_3D ( 'NONE', #290, #152, #8 ) ;
#133 = CIRCLE ( 'NONE', #298, 0.2359842794999999771 ) ;
#134 = DIRECTION ( 'NONE',  ( 1.000000000000000000, 0.000000000000000000, 0.000000000000000000 ) ) ;
#135 = ORIENTED_EDGE ( 'NONE', *, *, #212, .T. ) ;
#136 = CARTESIAN_POINT ( 'NONE',  ( 0.2359842795000000326, 2.889973925387694330E-17, 0.000000000000000000 ) ) ;
#137 = ORIENTED_EDGE ( 'NONE', *, *, #162, .F. ) ;
#138 = CARTESIAN_POINT ( 'NONE',  ( -0.2359842794999998383, 2.889973925387693713E-17, 1.181102000000000096 ) ) ;
#139 = ADVANCED_FACE ( 'NONE', ( #184 ), #157, .T. ) ;
#140 = VERTEX_POINT ( 'NONE', #136 ) ;
#141 = CIRCLE ( 'NONE', #166, 0.2362204999999999999 ) ;
#142 = VECTOR ( 'NONE', #275, 39.37007874015748854 ) ;
#143 = ORIENTED_EDGE ( 'NONE', *, *, #46, .T. ) ;
#144 = UNCERTAINTY_MEASURE_WITH_UNIT (LENGTH_MEASURE( 1.000000000000000082E-05 ), #94, 'distance_accuracy_value', 'NONE');
#145 =( NAMED_UNIT ( * ) PLANE_ANGLE_UNIT ( ) SI_UNIT ( $, .RADIAN. ) );
#146 = EDGE_LOOP ( 'NONE', ( #22, #232, #185, #235 ) ) ;
#147 =( NAMED_UNIT ( * ) SI_UNIT ( $, .STERADIAN. ) SOLID_ANGLE_UNIT ( ) );
#148 = FILL_AREA_STYLE_COLOUR ( '', #284 ) ;
#149 = LENGTH_MEASURE_WITH_UNIT ( LENGTH_MEASURE( 0.02539999999999999897 ), #99 );
#150 = AXIS2_PLACEMENT_3D ( 'NONE', #130, #180, #249 ) ;
#151 = MECHANICAL_DESIGN_GEOMETRIC_PRESENTATION_REPRESENTATION (  '', ( #113 ), #106 ) ;
#152 = DIRECTION ( 'NONE',  ( -0.000000000000000000, -0.000000000000000000, -1.000000000000000000 ) ) ;
#153 = LINE ( 'NONE', #218, #98 ) ;
#154 = DIRECTION ( 'NONE',  ( 0.7071067811865474617, 8.659560562354932858E-17, -0.7071067811865474617 ) ) ;
#155 = VECTOR ( 'NONE', #129, 39.37007874015748143 ) ;
#156 =( GEOMETRIC_REPRESENTATION_CONTEXT ( 3 ) GLOBAL_UNCERTAINTY_ASSIGNED_CONTEXT ( ( #144 ) ) GLOBAL_UNIT_ASSIGNED_CONTEXT ( ( #94, #48, #147 ) ) REPRESENTATION_CONTEXT ( 'NONE', 'WORKASPACE' ) );
#157 = CYLINDRICAL_SURFACE ( 'NONE', #150, 0.2359842794999999771 ) ;
#158 = PLANE ( 'NONE',  #247 ) ;
#159 = VECTOR ( 'NONE', #16, 39.37007874015748143 ) ;
#160 = APPLICATION_CONTEXT ( 'automotive_design' ) ;
#161 = EDGE_CURVE ( 'NONE', #192, #288, #56, .T. ) ;
#162 = EDGE_CURVE ( 'NONE', #282, #167, #40, .T. ) ;
#163 = DIRECTION ( 'NONE',  ( 1.224646799147353454E-16, 0.000000000000000000, 1.000000000000000000 ) ) ;
#164 = ORIENTED_EDGE ( 'NONE', *, *, #82, .T. ) ;
#165 = CARTESIAN_POINT ( 'NONE',  ( 0.2362205000000001665, 2.892866792179874496E-17, 1.182441673027071261 ) ) ;
#166 = AXIS2_PLACEMENT_3D ( 'NONE', #83, #7, #272 ) ;
#167 = VERTEX_POINT ( 'NONE', #250 ) ;
#168 = DIRECTION ( 'NONE',  ( -1.224646799147353454E-16, -0.000000000000000000, -1.000000000000000000 ) ) ;
#169 = EDGE_LOOP ( 'NONE', ( #258, #137, #211, #54 ) ) ;
#170 = ORIENTED_EDGE ( 'NONE', *, *, #265, .F. ) ;
#171 = CONICAL_SURFACE ( 'NONE', #287, 0.2359842794999999771, 0.1745329251994338915 ) ;
#172 = ORIENTED_EDGE ( 'NONE', *, *, #108, .T. ) ;
#173 = DIRECTION ( 'NONE',  ( 1.000000000000000000, 0.000000000000000000, -0.000000000000000000 ) ) ;
#174 = ADVANCED_FACE ( 'NONE', ( #276 ), #18, .T. ) ;
#175 = DIRECTION ( 'NONE',  ( -1.000000000000000000, 0.000000000000000000, 0.000000000000000000 ) ) ;
#176 = CYLINDRICAL_SURFACE ( 'NONE', #132, 0.2362204999999999999 ) ;
#177 = APPLICATION_PROTOCOL_DEFINITION ( 'draft international standard', 'automotive_design', 1998, #252 ) ;
#178 = DIRECTION ( 'NONE',  ( 1.000000000000000000, 0.000000000000000000, 0.000000000000000000 ) ) ;
#179 = FACE_OUTER_BOUND ( 'NONE', #146, .T. ) ;
#180 = DIRECTION ( 'NONE',  ( -1.224646799147353454E-16, -0.000000000000000000, -1.000000000000000000 ) ) ;
#181 = CARTESIAN_POINT ( 'NONE',  ( 0.000000000000000000, 0.000000000000000000, 3.267717000000000649 ) ) ;
#182 = CARTESIAN_POINT ( 'NONE',  ( -0.2212205000000019295, 0.000000000000000000, 3.267717000000000649 ) ) ;
#183 = ADVANCED_FACE ( 'NONE', ( #60 ), #171, .T. ) ;
#184 = FACE_OUTER_BOUND ( 'NONE', #124, .T. ) ;
#185 = ORIENTED_EDGE ( 'NONE', *, *, #41, .F. ) ;
#186 = AXIS2_PLACEMENT_3D ( 'NONE', #238, #126, #49 ) ;
#187 = DIRECTION ( 'NONE',  ( 1.000000000000000000, 0.000000000000000000, -0.000000000000000000 ) ) ;
#188 = PRESENTATION_LAYER_ASSIGNMENT (  '', '', ( #23 ) ) ;
#189 = ORIENTED_EDGE ( 'NONE', *, *, #73, .F. ) ;
#190 = EDGE_LOOP ( 'NONE', ( #283, #143, #39, #17 ) ) ;
#191 = DIRECTION ( 'NONE',  ( 0.000000000000000000, 0.000000000000000000, 1.000000000000000000 ) ) ;
#192 = VERTEX_POINT ( 'NONE', #165 ) ;
#193 = VERTEX_POINT ( 'NONE', #21 ) ;
#194 =( LENGTH_UNIT ( ) NAMED_UNIT ( * ) SI_UNIT ( $, .METRE. ) );
#195 = CYLINDRICAL_SURFACE ( 'NONE', #294, 0.2359842794999999771 ) ;
#196 = CARTESIAN_POINT ( 'NONE',  ( 0.000000000000000000, 0.000000000000000000, 3.267717000000000649 ) ) ;
#197 = CIRCLE ( 'NONE', #203, 0.2359842795000000049 ) ;
#198 = PRESENTATION_LAYER_ASSIGNMENT (  '', '', ( #113 ) ) ;
#199 = DIRECTION ( 'NONE',  ( -1.000000000000000000, 0.000000000000000000, 0.000000000000000000 ) ) ;
#200 = ADVANCED_BREP_SHAPE_REPRESENTATION ( 'Micro_EMSM-120-3', ( #100, #34 ), #156 ) ;
#201 = LINE ( 'NONE', #10, #159 ) ;
#202 = CARTESIAN_POINT ( 'NONE',  ( 0.000000000000000000, 0.000000000000000000, 3.252717000000002301 ) ) ;
#203 = AXIS2_PLACEMENT_3D ( 'NONE', #280, #87, #114 ) ;
#204 = FACE_OUTER_BOUND ( 'NONE', #190, .T. ) ;
#205 = EDGE_CURVE ( 'NONE', #167, #288, #86, .T. ) ;
#206 = DIRECTION ( 'NONE',  ( 1.000000000000000000, 0.000000000000000000, 0.000000000000000000 ) ) ;
#207 = ORIENTED_EDGE ( 'NONE', *, *, #251, .F. ) ;
#208 = DIRECTION ( 'NONE',  ( -0.1736481776669311916, 2.126576849575783316E-17, 0.9848077530122080203 ) ) ;
#209 = AXIS2_PLACEMENT_3D ( 'NONE', #196, #32, #173 ) ;
#210 = AXIS2_PLACEMENT_3D ( 'NONE', #89, #229, #38 ) ;
#211 = ORIENTED_EDGE ( 'NONE', *, *, #73, .T. ) ;
#212 = EDGE_CURVE ( 'NONE', #3, #281, #85, .T. ) ;
#213 = PRODUCT_DEFINITION_CONTEXT ( 'detailed design', #252, 'design' ) ;
#214 =( NAMED_UNIT ( * ) SI_UNIT ( $, .STERADIAN. ) SOLID_ANGLE_UNIT ( ) );
#215 = EDGE_LOOP ( 'NONE', ( #61, #90, #172, #93 ) ) ;
#216 = CARTESIAN_POINT ( 'NONE',  ( 1.446432783766537492E-16, 0.000000000000000000, 1.181102000000000096 ) ) ;
#217 = VECTOR ( 'NONE', #208, 39.37007874015747433 ) ;
#218 = CARTESIAN_POINT ( 'NONE',  ( 0.2359842795000001159, 0.000000000000000000, 1.181102000000000096 ) ) ;
#219 = CARTESIAN_POINT ( 'NONE',  ( 0.000000000000000000, 0.000000000000000000, 3.267717000000000649 ) ) ;
#220 = DIMENSIONAL_EXPONENTS ( 1.000000000000000000, 0.000000000000000000, 0.000000000000000000, 0.000000000000000000, 0.000000000000000000, 0.000000000000000000, 0.000000000000000000 ) ;
#221 = CARTESIAN_POINT ( 'NONE',  ( 1.446432783766537492E-16, 0.000000000000000000, 1.181102000000000096 ) ) ;
#222 = FACE_OUTER_BOUND ( 'NONE', #43, .T. ) ;
#223 = AXIS2_PLACEMENT_3D ( 'NONE', #292, #227, #44 ) ;
#224 =( NAMED_UNIT ( * ) PLANE_ANGLE_UNIT ( ) SI_UNIT ( $, .RADIAN. ) );
#225 = EDGE_CURVE ( 'NONE', #193, #192, #201, .T. ) ;
#226 = DIRECTION ( 'NONE',  ( 1.000000000000000000, 0.000000000000000000, 0.000000000000000000 ) ) ;
#227 = DIRECTION ( 'NONE',  ( -0.000000000000000000, -0.000000000000000000, -1.000000000000000000 ) ) ;
#228 = CONICAL_SURFACE ( 'NONE', #92, 0.2212205000000019295, 0.7853981633974482790 ) ;
#229 = DIRECTION ( 'NONE',  ( -1.224646799147353454E-16, -0.000000000000000000, -1.000000000000000000 ) ) ;
#230 = ORIENTED_EDGE ( 'NONE', *, *, #13, .F. ) ;
#231 = DIRECTION ( 'NONE',  ( 1.000000000000000000, 0.000000000000000000, 0.000000000000000000 ) ) ;
#232 = ORIENTED_EDGE ( 'NONE', *, *, #225, .T. ) ;
#233 = LINE ( 'NONE', #110, #142 ) ;
#234 = EDGE_CURVE ( 'NONE', #193, #95, #254, .T. ) ;
#235 = ORIENTED_EDGE ( 'NONE', *, *, #108, .F. ) ;
#236 = FILL_AREA_STYLE_COLOUR ( '', #122 ) ;
#237 = ORIENTED_EDGE ( 'NONE', *, *, #67, .T. ) ;
#238 = CARTESIAN_POINT ( 'NONE',  ( 3.539197317345352573E-33, 0.000000000000000000, 2.889973925387694330E-17 ) ) ;
#239 = MECHANICAL_DESIGN_GEOMETRIC_PRESENTATION_REPRESENTATION (  '', ( #23 ), #15 ) ;
#240 = DIRECTION ( 'NONE',  ( 0.000000000000000000, 0.000000000000000000, 1.000000000000000000 ) ) ;
#241 = DIRECTION ( 'NONE',  ( 1.000000000000000000, 0.000000000000000000, 0.000000000000000000 ) ) ;
#242 = DIRECTION ( 'NONE',  ( 0.000000000000000000, 0.000000000000000000, -1.000000000000000000 ) ) ;
#243 = PRODUCT ( 'Micro_EMSM-120-3', 'Micro_EMSM-120-3', '', ( #1 ) ) ;
#244 = CARTESIAN_POINT ( 'NONE',  ( 0.2359842794999999771, 2.889973925387693713E-17, -2.889973925387693713E-17 ) ) ;
#245 = ADVANCED_FACE ( 'NONE', ( #297 ), #158, .F. ) ;
#246 = FILL_AREA_STYLE ('',( #148 ) ) ;
#247 = AXIS2_PLACEMENT_3D ( 'NONE', #37, #253, #187 ) ;
#248 = PRODUCT_DEFINITION_FORMATION_WITH_SPECIFIED_SOURCE ( 'ANY', '', #243, .NOT_KNOWN. ) ;
#249 = DIRECTION ( 'NONE',  ( -1.000000000000000000, 0.000000000000000000, 1.224646799147353454E-16 ) ) ;
#250 = CARTESIAN_POINT ( 'NONE',  ( -0.2359842794999998383, 2.891420358783783796E-17, 1.181102000000000096 ) ) ;
#251 = EDGE_CURVE ( 'NONE', #140, #47, #197, .T. ) ;
#252 = APPLICATION_CONTEXT ( 'automotive_design' ) ;
#253 = DIRECTION ( 'NONE',  ( 0.000000000000000000, 0.000000000000000000, 1.000000000000000000 ) ) ;
#254 = CIRCLE ( 'NONE', #31, 0.2362204999999999999 ) ;
#255 = CARTESIAN_POINT ( 'NONE',  ( -0.2359842794999999771, 0.000000000000000000, 2.889973925387693713E-17 ) ) ;
#256 = ORIENTED_EDGE ( 'NONE', *, *, #13, .T. ) ;
#257 = CARTESIAN_POINT ( 'NONE',  ( -0.2362204999999998611, 0.000000000000000000, 1.182441673027071261 ) ) ;
#258 = ORIENTED_EDGE ( 'NONE', *, *, #205, .F. ) ;
#259 = EDGE_LOOP ( 'NONE', ( #97, #117, #2, #189 ) ) ;
#260 = UNCERTAINTY_MEASURE_WITH_UNIT (LENGTH_MEASURE( 1.000000000000000082E-05 ), #107, 'distance_accuracy_value', 'NONE');
#261 = VECTOR ( 'NONE', #12, 39.37007874015748143 ) ;
#262 = ORIENTED_EDGE ( 'NONE', *, *, #162, .T. ) ;
#263 = CARTESIAN_POINT ( 'NONE',  ( 0.000000000000000000, 0.000000000000000000, 0.000000000000000000 ) ) ;
#264 = SURFACE_STYLE_FILL_AREA ( #246 ) ;
#265 = EDGE_CURVE ( 'NONE', #167, #47, #131, .T. ) ;
#266 = LENGTH_MEASURE_WITH_UNIT ( LENGTH_MEASURE( 0.02539999999999999897 ), #194 );
#267 = SURFACE_STYLE_USAGE ( .BOTH. , #104 ) ;
#268 = SHAPE_DEFINITION_REPRESENTATION ( #123, #200 ) ;
#269 = AXIS2_PLACEMENT_3D ( 'NONE', #102, #69, #241 ) ;
#270 = DIRECTION ( 'NONE',  ( 0.1736481776669313859, 0.000000000000000000, 0.9848077530122077983 ) ) ;
#271 = LENGTH_MEASURE_WITH_UNIT ( LENGTH_MEASURE( 0.02539999999999999897 ), #6 );
#272 = DIRECTION ( 'NONE',  ( 1.000000000000000000, 0.000000000000000000, 0.000000000000000000 ) ) ;
#273 = FACE_OUTER_BOUND ( 'NONE', #169, .T. ) ;
#274 = AXIS2_PLACEMENT_3D ( 'NONE', #278, #168, #134 ) ;
#275 = DIRECTION ( 'NONE',  ( -0.7071067811865474617, 0.000000000000000000, -0.7071067811865474617 ) ) ;
#276 = FACE_OUTER_BOUND ( 'NONE', #215, .T. ) ;
#277 = ADVANCED_FACE ( 'NONE', ( #204 ), #228, .T. ) ;
#278 = CARTESIAN_POINT ( 'NONE',  ( 1.448073410051044337E-16, 0.000000000000000000, 1.182441673027071261 ) ) ;
#279 = AXIS2_PLACEMENT_3D ( 'NONE', #181, #112, #206 ) ;
#280 = CARTESIAN_POINT ( 'NONE',  ( 3.539197317345352573E-33, 0.000000000000000000, 2.889973925387694330E-17 ) ) ;
#281 = VERTEX_POINT ( 'NONE', #182 ) ;
#282 = VERTEX_POINT ( 'NONE', #65 ) ;
#283 = ORIENTED_EDGE ( 'NONE', *, *, #212, .F. ) ;
#284 = COLOUR_RGB ( '',0.7921568627450980005, 0.8196078431372548767, 0.9333333333333333481 ) ;
#285 = CARTESIAN_POINT ( 'NONE',  ( 0.000000000000000000, 0.000000000000000000, 3.267717000000000649 ) ) ;
#286 = DIRECTION ( 'NONE',  ( -1.224646799147353454E-16, -0.000000000000000000, -1.000000000000000000 ) ) ;
#287 = AXIS2_PLACEMENT_3D ( 'NONE', #36, #163, #226 ) ;
#288 = VERTEX_POINT ( 'NONE', #257 ) ;
#289 = EDGE_CURVE ( 'NONE', #95, #193, #11, .T. ) ;
#290 = CARTESIAN_POINT ( 'NONE',  ( 0.000000000000000000, 0.000000000000000000, 3.267717000000000649 ) ) ;
#291 = DIRECTION ( 'NONE',  ( 1.000000000000000000, 0.000000000000000000, 0.000000000000000000 ) ) ;
#292 = CARTESIAN_POINT ( 'NONE',  ( 0.000000000000000000, 0.000000000000000000, 3.267717000000000649 ) ) ;
#293 = EDGE_CURVE ( 'NONE', #167, #282, #133, .T. ) ;
#294 = AXIS2_PLACEMENT_3D ( 'NONE', #50, #286, #35 ) ;
#295 = DIRECTION ( 'NONE',  ( 0.000000000000000000, 0.000000000000000000, -1.000000000000000000 ) ) ;
#296 = ORIENTED_EDGE ( 'NONE', *, *, #67, .F. ) ;
#297 = FACE_OUTER_BOUND ( 'NONE', #66, .T. ) ;
#298 = AXIS2_PLACEMENT_3D ( 'NONE', #216, #51, #175 ) ;
#299 = EDGE_LOOP ( 'NONE', ( #237, #135 ) ) ;
ENDSEC;
END-ISO-10303-21;
