ISO-10303-21;
HEADER;
FILE_DESCRIPTION (( 'STEP AP214' ),
    '1' );
FILE_NAME ('59556.STEP',
    '2023-07-24T15:10:51',
    ( '' ),
    ( '' ),
    'SwSTEP 2.0',
    'SolidWorks 2023',
    '' );
FILE_SCHEMA (( 'AUTOMOTIVE_DESIGN' ));
ENDSEC;

DATA;
#1 =( LENGTH_UNIT ( ) NAMED_UNIT ( * ) SI_UNIT ( .MILLI., .METRE. ) );
#2 = AXIS2_PLACEMENT_3D ( 'NONE', #3, #14, #125 ) ;
#3 = CARTESIAN_POINT ( 'NONE',  ( 0.000000000000000000, 0.000000000000000000, 0.000000000000000000 ) ) ;
#4 = CARTESIAN_POINT ( 'NONE',  ( 0.000000000000000000, 0.000000000000000000, -4.000000000000000000 ) ) ;
#5 = DIRECTION ( 'NONE',  ( -1.000000000000000000, 0.000000000000000000, 0.000000000000000000 ) ) ;
#6 = EDGE_CURVE ( 'NONE', #361, #220, #134, .T. ) ;
#7 = SURFACE_STYLE_FILL_AREA ( #202 ) ;
#8 = FACE_OUTER_BOUND ( 'NONE', #84, .T. ) ;
#9 = VECTOR ( 'NONE', #346, 1000.000000000000000 ) ;
#10 =( NAMED_UNIT ( * ) SI_UNIT ( $, .STERADIAN. ) SOLID_ANGLE_UNIT ( ) );
#11 = STYLED_ITEM ( 'NONE', ( #235 ), #286 ) ;
#12 = COLOUR_RGB ( '',1.000000000000000000, 0.000000000000000000, 0.000000000000000000 ) ;
#13 =( LENGTH_UNIT ( ) NAMED_UNIT ( * ) SI_UNIT ( .MILLI., .METRE. ) );
#14 = DIRECTION ( 'NONE',  ( -0.000000000000000000, -1.000000000000000000, -0.000000000000000000 ) ) ;
#15 = EDGE_CURVE ( 'NONE', #194, #56, #276, .T. ) ;
#16 = FACE_OUTER_BOUND ( 'NONE', #29, .T. ) ;
#17 = CARTESIAN_POINT ( 'NONE',  ( 6.123233995736766282E-16, 25.00000000000000000, 5.000000000000000000 ) ) ;
#18 = AXIS2_PLACEMENT_3D ( 'NONE', #264, #69, #126 ) ;
#19 = AXIS2_PLACEMENT_3D ( 'NONE', #147, #313, #173 ) ;
#20 = FILL_AREA_STYLE_COLOUR ( '', #203 ) ;
#21 = FILL_AREA_STYLE ('',( #358 ) ) ;
#22 = EDGE_CURVE ( 'NONE', #220, #361, #26, .T. ) ;
#23 =( NAMED_UNIT ( * ) PLANE_ANGLE_UNIT ( ) SI_UNIT ( $, .RADIAN. ) );
#24 = DIRECTION ( 'NONE',  ( -1.000000000000000000, -1.203966067220177465E-16, 0.000000000000000000 ) ) ;
#25 = ORIENTED_EDGE ( 'NONE', *, *, #80, .F. ) ;
#26 = CIRCLE ( 'NONE', #18, 5.000000000000000000 ) ;
#27 = STYLED_ITEM ( 'NONE', ( #74 ), #210 ) ;
#28 = APPLICATION_CONTEXT ( 'automotive_design' ) ;
#29 = EDGE_LOOP ( 'NONE', ( #142, #55, #59, #33 ) ) ;
#30 = VERTEX_POINT ( 'NONE', #290 ) ;
#31 = EDGE_LOOP ( 'NONE', ( #193, #307, #228, #110 ) ) ;
#32 = AXIS2_PLACEMENT_3D ( 'NONE', #92, #288, #5 ) ;
#33 = ORIENTED_EDGE ( 'NONE', *, *, #330, .F. ) ;
#34 = EDGE_LOOP ( 'NONE', ( #364, #190, #297, #226 ) ) ;
#35 = DIRECTION ( 'NONE',  ( -1.000000000000000000, 0.000000000000000000, 0.000000000000000000 ) ) ;
#36 = STYLED_ITEM ( 'NONE', ( #212 ), #191 ) ;
#37 = PRESENTATION_LAYER_ASSIGNMENT (  '', '', ( #272 ) ) ;
#38 = CARTESIAN_POINT ( 'NONE',  ( -4.999999999999984901, 75.00000000000000000, 0.000000000000000000 ) ) ;
#39 = EDGE_CURVE ( 'NONE', #113, #30, #112, .T. ) ;
#40 = CARTESIAN_POINT ( 'NONE',  ( 1.214306433183764966E-14, 25.00000000000000000, 0.000000000000000000 ) ) ;
#41 = DIRECTION ( 'NONE',  ( 0.000000000000000000, -0.000000000000000000, 1.000000000000000000 ) ) ;
#42 = DIRECTION ( 'NONE',  ( -1.000000000000000000, 0.000000000000000000, 0.000000000000000000 ) ) ;
#43 = DIRECTION ( 'NONE',  ( 1.000000000000000000, 1.203966067220177465E-16, 0.000000000000000000 ) ) ;
#44 =( NAMED_UNIT ( * ) SI_UNIT ( $, .STERADIAN. ) SOLID_ANGLE_UNIT ( ) );
#45 = CARTESIAN_POINT ( 'NONE',  ( 0.000000000000000000, 1.000000000000000000, -5.000000000000000888 ) ) ;
#46 = APPLICATION_CONTEXT ( 'automotive_design' ) ;
#47 = ORIENTED_EDGE ( 'NONE', *, *, #15, .T. ) ;
#48 =( LENGTH_UNIT ( ) NAMED_UNIT ( * ) SI_UNIT ( .MILLI., .METRE. ) );
#49 = PLANE ( 'NONE',  #95 ) ;
#50 = DIRECTION ( 'NONE',  ( -0.000000000000000000, -1.000000000000000000, -0.000000000000000000 ) ) ;
#51 = COLOUR_RGB ( '',0.7921568627450980005, 0.8196078431372548767, 0.9333333333333333481 ) ;
#52 = CARTESIAN_POINT ( 'NONE',  ( -4.999999999999976019, 25.00000000000000000, 0.000000000000000000 ) ) ;
#53 = AXIS2_PLACEMENT_3D ( 'NONE', #99, #308, #41 ) ;
#54 = CARTESIAN_POINT ( 'NONE',  ( 0.000000000000000000, 1.000000000000000000, -4.000000000000000000 ) ) ;
#55 = ORIENTED_EDGE ( 'NONE', *, *, #108, .T. ) ;
#56 = VERTEX_POINT ( 'NONE', #4 ) ;
#57 = ORIENTED_EDGE ( 'NONE', *, *, #104, .F. ) ;
#58 = DIRECTION ( 'NONE',  ( 0.000000000000000000, 0.000000000000000000, 1.000000000000000000 ) ) ;
#59 = ORIENTED_EDGE ( 'NONE', *, *, #120, .F. ) ;
#60 = AXIS2_PLACEMENT_3D ( 'NONE', #287, #179, #35 ) ;
#61 = PRESENTATION_LAYER_ASSIGNMENT (  '', '', ( #333 ) ) ;
#62 = DIRECTION ( 'NONE',  ( 0.000000000000000000, 0.000000000000000000, -1.000000000000000000 ) ) ;
#63 = SURFACE_STYLE_USAGE ( .BOTH. , #151 ) ;
#64 = CARTESIAN_POINT ( 'NONE',  ( 0.000000000000000000, 0.000000000000000000, 0.000000000000000000 ) ) ;
#65 = ADVANCED_FACE ( 'NONE', ( #8 ), #345, .T. ) ;
#66 = DIRECTION ( 'NONE',  ( 1.000000000000000000, 0.000000000000000000, -1.224646799147353207E-16 ) ) ;
#67 =( GEOMETRIC_REPRESENTATION_CONTEXT ( 3 ) GLOBAL_UNCERTAINTY_ASSIGNED_CONTEXT ( ( #82 ) ) GLOBAL_UNIT_ASSIGNED_CONTEXT ( ( #13, #23, #241 ) ) REPRESENTATION_CONTEXT ( 'NONE', 'WORKASPACE' ) );
#68 = LINE ( 'NONE', #38, #9 ) ;
#69 = DIRECTION ( 'NONE',  ( -0.000000000000000000, -1.000000000000000000, -0.000000000000000000 ) ) ;
#70 = APPLICATION_PROTOCOL_DEFINITION ( 'draft international standard', 'automotive_design', 1998, #28 ) ;
#71 = SURFACE_STYLE_FILL_AREA ( #157 ) ;
#72 =( GEOMETRIC_REPRESENTATION_CONTEXT ( 3 ) GLOBAL_UNCERTAINTY_ASSIGNED_CONTEXT ( ( #327 ) ) GLOBAL_UNIT_ASSIGNED_CONTEXT ( ( #48, #156, #130 ) ) REPRESENTATION_CONTEXT ( 'NONE', 'WORKASPACE' ) );
#73 = COLOUR_RGB ( '',0.7921568627450980005, 0.8196078431372548767, 0.9333333333333333481 ) ;
#74 = PRESENTATION_STYLE_ASSIGNMENT (( #214 ) ) ;
#75 = AXIS2_PLACEMENT_3D ( 'NONE', #189, #335, #301 ) ;
#76 = AXIS2_PLACEMENT_3D ( 'NONE', #103, #296, #300 ) ;
#77 = CARTESIAN_POINT ( 'NONE',  ( 5.000000000000000888, 75.00000000000000000, 6.123233995736757408E-16 ) ) ;
#78 = ORIENTED_EDGE ( 'NONE', *, *, #39, .F. ) ;
#79 = TOROIDAL_SURFACE ( 'NONE', #295, 4.000000000000000000, 1.000000000000000444 ) ;
#80 = EDGE_CURVE ( 'NONE', #221, #167, #281, .T. ) ;
#81 = ORIENTED_EDGE ( 'NONE', *, *, #22, .F. ) ;
#82 = UNCERTAINTY_MEASURE_WITH_UNIT (LENGTH_MEASURE( 1.000000000000000082E-05 ), #13, 'distance_accuracy_value', 'NONE');
#83 = DIRECTION ( 'NONE',  ( 1.203966067220177465E-16, -1.000000000000000000, 0.000000000000000000 ) ) ;
#84 = EDGE_LOOP ( 'NONE', ( #334, #225 ) ) ;
#85 = SURFACE_STYLE_FILL_AREA ( #229 ) ;
#86 = PRODUCT_DEFINITION_CONTEXT ( 'detailed design', #46, 'design' ) ;
#87 = DIRECTION ( 'NONE',  ( 0.000000000000000000, 0.000000000000000000, -1.000000000000000000 ) ) ;
#88 = AXIS2_PLACEMENT_3D ( 'NONE', #360, #186, #354 ) ;
#89 =( GEOMETRIC_REPRESENTATION_CONTEXT ( 3 ) GLOBAL_UNCERTAINTY_ASSIGNED_CONTEXT ( ( #306 ) ) GLOBAL_UNIT_ASSIGNED_CONTEXT ( ( #280, #153, #144 ) ) REPRESENTATION_CONTEXT ( 'NONE', 'WORKASPACE' ) );
#90 = DIRECTION ( 'NONE',  ( 0.000000000000000000, -1.000000000000000000, -0.000000000000000000 ) ) ;
#91 = EDGE_CURVE ( 'NONE', #167, #221, #331, .T. ) ;
#92 = CARTESIAN_POINT ( 'NONE',  ( 6.123233995736762930E-15, 75.00000000000000000, 0.000000000000000000 ) ) ;
#93 = FILL_AREA_STYLE_COLOUR ( '', #184 ) ;
#94 = AXIS2_PLACEMENT_3D ( 'NONE', #114, #362, #111 ) ;
#95 = AXIS2_PLACEMENT_3D ( 'NONE', #133, #242, #24 ) ;
#96 = SURFACE_STYLE_FILL_AREA ( #240 ) ;
#97 = EDGE_CURVE ( 'NONE', #167, #163, #68, .T. ) ;
#98 = FILL_AREA_STYLE ('',( #299 ) ) ;
#99 = CARTESIAN_POINT ( 'NONE',  ( 0.000000000000000000, 25.00000000000000000, 0.000000000000000000 ) ) ;
#100 = DIRECTION ( 'NONE',  ( 0.000000000000000000, 0.000000000000000000, -1.000000000000000000 ) ) ;
#101 = AXIS2_PLACEMENT_3D ( 'NONE', #267, #323, #100 ) ;
#102 = PRESENTATION_STYLE_ASSIGNMENT (( #137 ) ) ;
#103 = CARTESIAN_POINT ( 'NONE',  ( 0.000000000000000000, 0.000000000000000000, 0.000000000000000000 ) ) ;
#104 = EDGE_CURVE ( 'NONE', #113, #194, #304, .T. ) ;
#105 = FILL_AREA_STYLE ('',( #357 ) ) ;
#106 = CYLINDRICAL_SURFACE ( 'NONE', #76, 5.000000000000000888 ) ;
#107 =( GEOMETRIC_REPRESENTATION_CONTEXT ( 3 ) GLOBAL_UNCERTAINTY_ASSIGNED_CONTEXT ( ( #164 ) ) GLOBAL_UNIT_ASSIGNED_CONTEXT ( ( #197, #180, #231 ) ) REPRESENTATION_CONTEXT ( 'NONE', 'WORKASPACE' ) );
#108 = EDGE_CURVE ( 'NONE', #220, #113, #119, .T. ) ;
#109 = LINE ( 'NONE', #355, #278 ) ;
#110 = ORIENTED_EDGE ( 'NONE', *, *, #166, .F. ) ;
#111 = DIRECTION ( 'NONE',  ( -1.000000000000000000, 0.000000000000000000, 0.000000000000000000 ) ) ;
#112 = CIRCLE ( 'NONE', #261, 1.000000000000000444 ) ;
#113 = VERTEX_POINT ( 'NONE', #285 ) ;
#114 = CARTESIAN_POINT ( 'NONE',  ( 6.123233995736762930E-15, 75.00000000000000000, 0.000000000000000000 ) ) ;
#115 = ORIENTED_EDGE ( 'NONE', *, *, #104, .T. ) ;
#116 =( LENGTH_UNIT ( ) NAMED_UNIT ( * ) SI_UNIT ( .MILLI., .METRE. ) );
#117 = CARTESIAN_POINT ( 'NONE',  ( 1.214306433183764966E-14, 25.00000000000000000, 0.000000000000000000 ) ) ;
#118 = PRESENTATION_LAYER_ASSIGNMENT (  '', '', ( #170 ) ) ;
#119 = LINE ( 'NONE', #177, #351 ) ;
#120 = EDGE_CURVE ( 'NONE', #194, #113, #224, .T. ) ;
#121 = PRESENTATION_LAYER_ASSIGNMENT (  '', '', ( #277 ) ) ;
#122 = AXIS2_PLACEMENT_3D ( 'NONE', #168, #83, #43 ) ;
#123 =( LENGTH_UNIT ( ) NAMED_UNIT ( * ) SI_UNIT ( .MILLI., .METRE. ) );
#124 = CARTESIAN_POINT ( 'NONE',  ( 4.898587196589412829E-16, 1.000000000000000000, 4.000000000000000000 ) ) ;
#125 = DIRECTION ( 'NONE',  ( 0.000000000000000000, 0.000000000000000000, -1.000000000000000000 ) ) ;
#126 = DIRECTION ( 'NONE',  ( 0.000000000000000000, 0.000000000000000000, -1.000000000000000000 ) ) ;
#127 = AXIS2_PLACEMENT_3D ( 'NONE', #40, #369, #42 ) ;
#128 = SURFACE_SIDE_STYLE ('',( #7 ) ) ;
#129 = PRODUCT_DEFINITION_SHAPE ( 'NONE', 'NONE',  #247 ) ;
#130 =( NAMED_UNIT ( * ) SI_UNIT ( $, .STERADIAN. ) SOLID_ANGLE_UNIT ( ) );
#131 = CARTESIAN_POINT ( 'NONE',  ( 5.000000000000000888, 25.00000000000000000, 6.123233995736757408E-16 ) ) ;
#132 = EDGE_CURVE ( 'NONE', #30, #56, #232, .T. ) ;
#133 = CARTESIAN_POINT ( 'NONE',  ( 1.214306433183764966E-14, 25.00000000000000000, 0.000000000000000000 ) ) ;
#134 = CIRCLE ( 'NONE', #75, 5.000000000000000000 ) ;
#135 = EDGE_CURVE ( 'NONE', #163, #192, #310, .T. ) ;
#136 = COLOUR_RGB ( '',1.000000000000000000, 0.000000000000000000, 0.000000000000000000 ) ;
#137 = SURFACE_STYLE_USAGE ( .BOTH. , #245 ) ;
#138 = MECHANICAL_DESIGN_GEOMETRIC_PRESENTATION_REPRESENTATION (  '', ( #333 ), #107 ) ;
#139 = UNCERTAINTY_MEASURE_WITH_UNIT (LENGTH_MEASURE( 1.000000000000000082E-05 ), #176, 'distance_accuracy_value', 'NONE');
#140 = EDGE_LOOP ( 'NONE', ( #141, #274 ) ) ;
#141 = ORIENTED_EDGE ( 'NONE', *, *, #135, .T. ) ;
#142 = ORIENTED_EDGE ( 'NONE', *, *, #6, .T. ) ;
#143 = PRESENTATION_LAYER_ASSIGNMENT (  '', '', ( #36 ) ) ;
#144 =( NAMED_UNIT ( * ) SI_UNIT ( $, .STERADIAN. ) SOLID_ANGLE_UNIT ( ) );
#145 = UNCERTAINTY_MEASURE_WITH_UNIT (LENGTH_MEASURE( 1.000000000000000082E-05 ), #1, 'distance_accuracy_value', 'NONE');
#146 = CYLINDRICAL_SURFACE ( 'NONE', #219, 5.000000000000000888 ) ;
#147 = CARTESIAN_POINT ( 'NONE',  ( 0.000000000000000000, 1.000000000000000000, 0.000000000000000000 ) ) ;
#148 = CARTESIAN_POINT ( 'NONE',  ( -4.999999999999987566, 75.00000000000000000, 0.000000000000000000 ) ) ;
#149 = CIRCLE ( 'NONE', #32, 4.999999999999993783 ) ;
#150 = DIRECTION ( 'NONE',  ( -0.000000000000000000, -1.000000000000000000, -0.000000000000000000 ) ) ;
#151 = SURFACE_SIDE_STYLE ('',( #206 ) ) ;
#152 =( NAMED_UNIT ( * ) PLANE_ANGLE_UNIT ( ) SI_UNIT ( $, .RADIAN. ) );
#153 =( NAMED_UNIT ( * ) PLANE_ANGLE_UNIT ( ) SI_UNIT ( $, .RADIAN. ) );
#154 = VECTOR ( 'NONE', #209, 1000.000000000000000 ) ;
#155 = DIRECTION ( 'NONE',  ( 0.000000000000000000, 0.000000000000000000, -1.000000000000000000 ) ) ;
#156 =( NAMED_UNIT ( * ) PLANE_ANGLE_UNIT ( ) SI_UNIT ( $, .RADIAN. ) );
#157 = FILL_AREA_STYLE ('',( #20 ) ) ;
#158 = FACE_OUTER_BOUND ( 'NONE', #366, .T. ) ;
#159 =( GEOMETRIC_REPRESENTATION_CONTEXT ( 3 ) GLOBAL_UNCERTAINTY_ASSIGNED_CONTEXT ( ( #230 ) ) GLOBAL_UNIT_ASSIGNED_CONTEXT ( ( #123, #289, #44 ) ) REPRESENTATION_CONTEXT ( 'NONE', 'WORKASPACE' ) );
#160 = SURFACE_SIDE_STYLE ('',( #71 ) ) ;
#161 = DIRECTION ( 'NONE',  ( -1.000000000000000000, 0.000000000000000000, 0.000000000000000000 ) ) ;
#162 = MECHANICAL_DESIGN_GEOMETRIC_PRESENTATION_REPRESENTATION (  '', ( #277 ), #159 ) ;
#163 = VERTEX_POINT ( 'NONE', #148 ) ;
#164 = UNCERTAINTY_MEASURE_WITH_UNIT (LENGTH_MEASURE( 1.000000000000000082E-05 ), #197, 'distance_accuracy_value', 'NONE');
#165 = ORIENTED_EDGE ( 'NONE', *, *, #22, .T. ) ;
#166 = EDGE_CURVE ( 'NONE', #192, #163, #149, .T. ) ;
#167 = VERTEX_POINT ( 'NONE', #52 ) ;
#168 = CARTESIAN_POINT ( 'NONE',  ( 5.000000000000000000, 75.00000000000000000, 0.000000000000000000 ) ) ;
#169 = FACE_OUTER_BOUND ( 'NONE', #309, .T. ) ;
#170 = STYLED_ITEM ( 'NONE', ( #196 ), #65 ) ;
#171 =( GEOMETRIC_REPRESENTATION_CONTEXT ( 3 ) GLOBAL_UNCERTAINTY_ASSIGNED_CONTEXT ( ( #139 ) ) GLOBAL_UNIT_ASSIGNED_CONTEXT ( ( #176, #152, #10 ) ) REPRESENTATION_CONTEXT ( 'NONE', 'WORKASPACE' ) );
#172 = ADVANCED_FACE ( 'NONE', ( #356 ), #326, .T. ) ;
#173 = DIRECTION ( 'NONE',  ( 0.000000000000000000, 0.000000000000000000, -1.000000000000000000 ) ) ;
#174 = SURFACE_SIDE_STYLE ('',( #96 ) ) ;
#175 = DIRECTION ( 'NONE',  ( 0.000000000000000000, 0.000000000000000000, -1.000000000000000000 ) ) ;
#176 =( LENGTH_UNIT ( ) NAMED_UNIT ( * ) SI_UNIT ( .MILLI., .METRE. ) );
#177 = CARTESIAN_POINT ( 'NONE',  ( 6.123233995736767268E-16, 0.000000000000000000, 5.000000000000000888 ) ) ;
#178 = MECHANICAL_DESIGN_GEOMETRIC_PRESENTATION_REPRESENTATION (  '', ( #36 ), #67 ) ;
#179 = DIRECTION ( 'NONE',  ( -1.203966067220177465E-16, 1.000000000000000000, -0.000000000000000000 ) ) ;
#180 =( NAMED_UNIT ( * ) PLANE_ANGLE_UNIT ( ) SI_UNIT ( $, .RADIAN. ) );
#181 =( NAMED_UNIT ( * ) SI_UNIT ( $, .STERADIAN. ) SOLID_ANGLE_UNIT ( ) );
#182 = CARTESIAN_POINT ( 'NONE',  ( 0.000000000000000000, 0.000000000000000000, 0.000000000000000000 ) ) ;
#183 = PRESENTATION_STYLE_ASSIGNMENT (( #188 ) ) ;
#184 = COLOUR_RGB ( '',1.000000000000000000, 0.000000000000000000, 0.000000000000000000 ) ;
#185 = COLOUR_RGB ( '',1.000000000000000000, 0.000000000000000000, 0.000000000000000000 ) ;
#186 = DIRECTION ( 'NONE',  ( -1.203966067220177465E-16, 1.000000000000000000, -0.000000000000000000 ) ) ;
#187 = SURFACE_SIDE_STYLE ('',( #270 ) ) ;
#188 = SURFACE_STYLE_USAGE ( .BOTH. , #328 ) ;
#189 = CARTESIAN_POINT ( 'NONE',  ( 0.000000000000000000, 25.00000000000000000, 0.000000000000000000 ) ) ;
#190 = ORIENTED_EDGE ( 'NONE', *, *, #39, .T. ) ;
#191 = MANIFOLD_SOLID_BREP ( 'Revolve - Tool Body (Straight Shanked)', #237 ) ;
#192 = VERTEX_POINT ( 'NONE', #77 ) ;
#193 = ORIENTED_EDGE ( 'NONE', *, *, #227, .F. ) ;
#194 = VERTEX_POINT ( 'NONE', #45 ) ;
#195 = PRESENTATION_LAYER_ASSIGNMENT (  '', '', ( #27 ) ) ;
#196 = PRESENTATION_STYLE_ASSIGNMENT (( #63 ) ) ;
#197 =( LENGTH_UNIT ( ) NAMED_UNIT ( * ) SI_UNIT ( .MILLI., .METRE. ) );
#198 =( NAMED_UNIT ( * ) PLANE_ANGLE_UNIT ( ) SI_UNIT ( $, .RADIAN. ) );
#199 = DIRECTION ( 'NONE',  ( -0.000000000000000000, -1.000000000000000000, -0.000000000000000000 ) ) ;
#200 = CARTESIAN_POINT ( 'NONE',  ( 0.000000000000000000, 1.000000000000000000, 0.000000000000000000 ) ) ;
#201 = FILL_AREA_STYLE_COLOUR ( '', #303 ) ;
#202 = FILL_AREA_STYLE ('',( #93 ) ) ;
#203 = COLOUR_RGB ( '',1.000000000000000000, 0.000000000000000000, 0.000000000000000000 ) ;
#204 = PRODUCT_DEFINITION_FORMATION_WITH_SPECIFIED_SOURCE ( 'ANY', '', #320, .NOT_KNOWN. ) ;
#205 =( NAMED_UNIT ( * ) PLANE_ANGLE_UNIT ( ) SI_UNIT ( $, .RADIAN. ) );
#206 = SURFACE_STYLE_FILL_AREA ( #236 ) ;
#207 = DIRECTION ( 'NONE',  ( 1.000000000000000000, 0.000000000000000000, 0.000000000000000000 ) ) ;
#208 = DIRECTION ( 'NONE',  ( -0.000000000000000000, -1.000000000000000000, -0.000000000000000000 ) ) ;
#209 = DIRECTION ( 'NONE',  ( -1.203966067220177465E-16, 1.000000000000000000, -0.000000000000000000 ) ) ;
#210 = ADVANCED_FACE ( 'NONE', ( #16 ), #106, .T. ) ;
#211 = SURFACE_STYLE_USAGE ( .BOTH. , #128 ) ;
#212 = PRESENTATION_STYLE_ASSIGNMENT (( #243 ) ) ;
#213 = PRESENTATION_LAYER_ASSIGNMENT (  '', '', ( #11 ) ) ;
#214 = SURFACE_STYLE_USAGE ( .BOTH. , #160 ) ;
#215 = CARTESIAN_POINT ( 'NONE',  ( 0.000000000000000000, 25.00000000000000000, -5.000000000000000000 ) ) ;
#216 = SURFACE_STYLE_FILL_AREA ( #105 ) ;
#217 = LINE ( 'NONE', #273, #154 ) ;
#218 = MECHANICAL_DESIGN_GEOMETRIC_PRESENTATION_REPRESENTATION (  '', ( #11 ), #317 ) ;
#219 = AXIS2_PLACEMENT_3D ( 'NONE', #341, #365, #62 ) ;
#220 = VERTEX_POINT ( 'NONE', #17 ) ;
#221 = VERTEX_POINT ( 'NONE', #131 ) ;
#222 = PRODUCT_RELATED_PRODUCT_CATEGORY ( 'part', '', ( #320 ) ) ;
#223 = FILL_AREA_STYLE_COLOUR ( '', #12 ) ;
#224 = CIRCLE ( 'NONE', #246, 5.000000000000000888 ) ;
#225 = ORIENTED_EDGE ( 'NONE', *, *, #132, .T. ) ;
#226 = ORIENTED_EDGE ( 'NONE', *, *, #15, .F. ) ;
#227 = EDGE_CURVE ( 'NONE', #221, #192, #217, .T. ) ;
#228 = ORIENTED_EDGE ( 'NONE', *, *, #97, .T. ) ;
#229 = FILL_AREA_STYLE ('',( #223 ) ) ;
#230 = UNCERTAINTY_MEASURE_WITH_UNIT (LENGTH_MEASURE( 1.000000000000000082E-05 ), #123, 'distance_accuracy_value', 'NONE');
#231 =( NAMED_UNIT ( * ) SI_UNIT ( $, .STERADIAN. ) SOLID_ANGLE_UNIT ( ) );
#232 = CIRCLE ( 'NONE', #337, 4.000000000000000000 ) ;
#233 = CIRCLE ( 'NONE', #2, 4.000000000000000000 ) ;
#234 = ADVANCED_FACE ( 'NONE', ( #322 ), #146, .T. ) ;
#235 = PRESENTATION_STYLE_ASSIGNMENT (( #260 ) ) ;
#236 = FILL_AREA_STYLE ('',( #201 ) ) ;
#237 = CLOSED_SHELL ( 'NONE', ( #238, #359, #172, #367 ) ) ;
#238 = ADVANCED_FACE ( 'NONE', ( #312 ), #249, .T. ) ;
#239 = PRODUCT_CONTEXT ( 'NONE', #28, 'mechanical' ) ;
#240 = FILL_AREA_STYLE ('',( #349 ) ) ;
#241 =( NAMED_UNIT ( * ) SI_UNIT ( $, .STERADIAN. ) SOLID_ANGLE_UNIT ( ) );
#242 = DIRECTION ( 'NONE',  ( -1.203966067220177465E-16, 1.000000000000000000, 0.000000000000000000 ) ) ;
#243 = SURFACE_STYLE_USAGE ( .BOTH. , #187 ) ;
#244 = SURFACE_STYLE_FILL_AREA ( #21 ) ;
#245 = SURFACE_SIDE_STYLE ('',( #244 ) ) ;
#246 = AXIS2_PLACEMENT_3D ( 'NONE', #258, #199, #314 ) ;
#247 = PRODUCT_DEFINITION ( 'UNKNOWN', '', #204, #86 ) ;
#248 = EDGE_LOOP ( 'NONE', ( #338, #25 ) ) ;
#249 = CYLINDRICAL_SURFACE ( 'NONE', #94, 4.999999999999990230 ) ;
#250 = EDGE_LOOP ( 'NONE', ( #255, #165, #279, #57 ) ) ;
#251 = EDGE_LOOP ( 'NONE', ( #265, #339, #256, #252 ) ) ;
#252 = ORIENTED_EDGE ( 'NONE', *, *, #97, .F. ) ;
#253 =( GEOMETRIC_REPRESENTATION_CONTEXT ( 3 ) GLOBAL_UNCERTAINTY_ASSIGNED_CONTEXT ( ( #145 ) ) GLOBAL_UNIT_ASSIGNED_CONTEXT ( ( #1, #342, #348 ) ) REPRESENTATION_CONTEXT ( 'NONE', 'WORKASPACE' ) );
#254 =( NAMED_UNIT ( * ) SI_UNIT ( $, .STERADIAN. ) SOLID_ANGLE_UNIT ( ) );
#255 = ORIENTED_EDGE ( 'NONE', *, *, #108, .F. ) ;
#256 = ORIENTED_EDGE ( 'NONE', *, *, #135, .F. ) ;
#257 = FACE_OUTER_BOUND ( 'NONE', #140, .T. ) ;
#258 = CARTESIAN_POINT ( 'NONE',  ( 0.000000000000000000, 1.000000000000000000, 0.000000000000000000 ) ) ;
#259 = ADVANCED_BREP_SHAPE_REPRESENTATION ( '59556', ( #318, #191, #284 ), #89 ) ;
#260 = SURFACE_STYLE_USAGE ( .BOTH. , #347 ) ;
#261 = AXIS2_PLACEMENT_3D ( 'NONE', #124, #66, #268 ) ;
#262 = TOROIDAL_SURFACE ( 'NONE', #101, 4.000000000000000000, 1.000000000000000444 ) ;
#263 = MECHANICAL_DESIGN_GEOMETRIC_PRESENTATION_REPRESENTATION (  '', ( #272 ), #171 ) ;
#264 = CARTESIAN_POINT ( 'NONE',  ( 0.000000000000000000, 25.00000000000000000, 0.000000000000000000 ) ) ;
#265 = ORIENTED_EDGE ( 'NONE', *, *, #91, .T. ) ;
#266 = DIRECTION ( 'NONE',  ( -0.000000000000000000, -1.000000000000000000, -0.000000000000000000 ) ) ;
#267 = CARTESIAN_POINT ( 'NONE',  ( 0.000000000000000000, 1.000000000000000000, 0.000000000000000000 ) ) ;
#268 = DIRECTION ( 'NONE',  ( -1.224646799147353454E-16, 0.000000000000000000, -1.000000000000000000 ) ) ;
#269 = STYLED_ITEM ( 'NONE', ( #183 ), #234 ) ;
#270 = SURFACE_STYLE_FILL_AREA ( #98 ) ;
#271 =( GEOMETRIC_REPRESENTATION_CONTEXT ( 3 ) GLOBAL_UNCERTAINTY_ASSIGNED_CONTEXT ( ( #368 ) ) GLOBAL_UNIT_ASSIGNED_CONTEXT ( ( #116, #198, #254 ) ) REPRESENTATION_CONTEXT ( 'NONE', 'WORKASPACE' ) );
#272 = STYLED_ITEM ( 'NONE', ( #319 ), #318 ) ;
#273 = CARTESIAN_POINT ( 'NONE',  ( 4.999999999999996447, 75.00000000000000000, 6.123233995736754449E-16 ) ) ;
#274 = ORIENTED_EDGE ( 'NONE', *, *, #166, .T. ) ;
#275 = ORIENTED_EDGE ( 'NONE', *, *, #6, .F. ) ;
#276 = CIRCLE ( 'NONE', #336, 1.000000000000000444 ) ;
#277 = STYLED_ITEM ( 'NONE', ( #292 ), #291 ) ;
#278 = VECTOR ( 'NONE', #50, 1000.000000000000000 ) ;
#279 = ORIENTED_EDGE ( 'NONE', *, *, #330, .T. ) ;
#280 =( LENGTH_UNIT ( ) NAMED_UNIT ( * ) SI_UNIT ( .MILLI., .METRE. ) );
#281 = CIRCLE ( 'NONE', #127, 4.999999999999987566 ) ;
#282 = PRESENTATION_LAYER_ASSIGNMENT (  '', '', ( #269 ) ) ;
#283 = FACE_OUTER_BOUND ( 'NONE', #34, .T. ) ;
#284 = AXIS2_PLACEMENT_3D ( 'NONE', #370, #58, #207 ) ;
#285 = CARTESIAN_POINT ( 'NONE',  ( 6.123233995736766282E-16, 1.000000000000000000, 5.000000000000000888 ) ) ;
#286 = ADVANCED_FACE ( 'NONE', ( #169 ), #79, .T. ) ;
#287 = CARTESIAN_POINT ( 'NONE',  ( 6.123233995736762930E-15, 75.00000000000000000, 0.000000000000000000 ) ) ;
#288 = DIRECTION ( 'NONE',  ( -1.203966067220177465E-16, 1.000000000000000000, -0.000000000000000000 ) ) ;
#289 =( NAMED_UNIT ( * ) PLANE_ANGLE_UNIT ( ) SI_UNIT ( $, .RADIAN. ) );
#290 = CARTESIAN_POINT ( 'NONE',  ( 5.510910596163089556E-16, 0.000000000000000000, 4.000000000000000000 ) ) ;
#291 = ADVANCED_FACE ( 'NONE', ( #283 ), #262, .T. ) ;
#292 = PRESENTATION_STYLE_ASSIGNMENT (( #211 ) ) ;
#293 = DIRECTION ( 'NONE',  ( 0.000000000000000000, 0.000000000000000000, 1.000000000000000000 ) ) ;
#294 = PLANE ( 'NONE',  #53 ) ;
#295 = AXIS2_PLACEMENT_3D ( 'NONE', #200, #208, #155 ) ;
#296 = DIRECTION ( 'NONE',  ( -0.000000000000000000, -1.000000000000000000, -0.000000000000000000 ) ) ;
#297 = ORIENTED_EDGE ( 'NONE', *, *, #298, .F. ) ;
#298 = EDGE_CURVE ( 'NONE', #56, #30, #233, .T. ) ;
#299 = FILL_AREA_STYLE_COLOUR ( '', #51 ) ;
#300 = DIRECTION ( 'NONE',  ( 0.000000000000000000, 0.000000000000000000, -1.000000000000000000 ) ) ;
#301 = DIRECTION ( 'NONE',  ( 0.000000000000000000, 0.000000000000000000, -1.000000000000000000 ) ) ;
#302 = UNCERTAINTY_MEASURE_WITH_UNIT (LENGTH_MEASURE( 1.000000000000000082E-05 ), #315, 'distance_accuracy_value', 'NONE');
#303 = COLOUR_RGB ( '',1.000000000000000000, 0.000000000000000000, 0.000000000000000000 ) ;
#304 = CIRCLE ( 'NONE', #19, 5.000000000000000888 ) ;
#305 = ORIENTED_EDGE ( 'NONE', *, *, #132, .F. ) ;
#306 = UNCERTAINTY_MEASURE_WITH_UNIT (LENGTH_MEASURE( 1.000000000000000082E-05 ), #280, 'distance_accuracy_value', 'NONE');
#307 = ORIENTED_EDGE ( 'NONE', *, *, #80, .T. ) ;
#308 = DIRECTION ( 'NONE',  ( 0.000000000000000000, 1.000000000000000000, 0.000000000000000000 ) ) ;
#309 = EDGE_LOOP ( 'NONE', ( #78, #115, #47, #305 ) ) ;
#310 = CIRCLE ( 'NONE', #60, 4.999999999999993783 ) ;
#311 = SHAPE_DEFINITION_REPRESENTATION ( #129, #259 ) ;
#312 = FACE_OUTER_BOUND ( 'NONE', #251, .T. ) ;
#313 = DIRECTION ( 'NONE',  ( -0.000000000000000000, -1.000000000000000000, -0.000000000000000000 ) ) ;
#314 = DIRECTION ( 'NONE',  ( 0.000000000000000000, 0.000000000000000000, -1.000000000000000000 ) ) ;
#315 =( LENGTH_UNIT ( ) NAMED_UNIT ( * ) SI_UNIT ( .MILLI., .METRE. ) );
#316 = DIRECTION ( 'NONE',  ( -1.000000000000000000, 0.000000000000000000, 0.000000000000000000 ) ) ;
#317 =( GEOMETRIC_REPRESENTATION_CONTEXT ( 3 ) GLOBAL_UNCERTAINTY_ASSIGNED_CONTEXT ( ( #302 ) ) GLOBAL_UNIT_ASSIGNED_CONTEXT ( ( #315, #205, #181 ) ) REPRESENTATION_CONTEXT ( 'NONE', 'WORKASPACE' ) );
#318 = MANIFOLD_SOLID_BREP ( 'Revolve - Cutting Edge', #343 ) ;
#319 = PRESENTATION_STYLE_ASSIGNMENT (( #353 ) ) ;
#320 = PRODUCT ( '59556', '59556', '', ( #239 ) ) ;
#321 = FACE_OUTER_BOUND ( 'NONE', #248, .T. ) ;
#322 = FACE_OUTER_BOUND ( 'NONE', #250, .T. ) ;
#323 = DIRECTION ( 'NONE',  ( -0.000000000000000000, -1.000000000000000000, -0.000000000000000000 ) ) ;
#324 = MECHANICAL_DESIGN_GEOMETRIC_PRESENTATION_REPRESENTATION (  '', ( #170 ), #253 ) ;
#325 = MECHANICAL_DESIGN_GEOMETRIC_PRESENTATION_REPRESENTATION (  '', ( #27 ), #72 ) ;
#326 = CYLINDRICAL_SURFACE ( 'NONE', #88, 4.999999999999990230 ) ;
#327 = UNCERTAINTY_MEASURE_WITH_UNIT (LENGTH_MEASURE( 1.000000000000000082E-05 ), #48, 'distance_accuracy_value', 'NONE');
#328 = SURFACE_SIDE_STYLE ('',( #216 ) ) ;
#329 = AXIS2_PLACEMENT_3D ( 'NONE', #117, #352, #316 ) ;
#330 = EDGE_CURVE ( 'NONE', #361, #194, #109, .T. ) ;
#331 = CIRCLE ( 'NONE', #329, 4.999999999999987566 ) ;
#332 = MECHANICAL_DESIGN_GEOMETRIC_PRESENTATION_REPRESENTATION (  '', ( #269 ), #271 ) ;
#333 = STYLED_ITEM ( 'NONE', ( #102 ), #363 ) ;
#334 = ORIENTED_EDGE ( 'NONE', *, *, #298, .T. ) ;
#335 = DIRECTION ( 'NONE',  ( -0.000000000000000000, -1.000000000000000000, -0.000000000000000000 ) ) ;
#336 = AXIS2_PLACEMENT_3D ( 'NONE', #54, #161, #293 ) ;
#337 = AXIS2_PLACEMENT_3D ( 'NONE', #64, #266, #175 ) ;
#338 = ORIENTED_EDGE ( 'NONE', *, *, #91, .F. ) ;
#339 = ORIENTED_EDGE ( 'NONE', *, *, #227, .T. ) ;
#340 = APPLICATION_PROTOCOL_DEFINITION ( 'draft international standard', 'automotive_design', 1998, #46 ) ;
#341 = CARTESIAN_POINT ( 'NONE',  ( 0.000000000000000000, 0.000000000000000000, 0.000000000000000000 ) ) ;
#342 =( NAMED_UNIT ( * ) PLANE_ANGLE_UNIT ( ) SI_UNIT ( $, .RADIAN. ) );
#343 = CLOSED_SHELL ( 'NONE', ( #210, #291, #65, #286, #234, #363 ) ) ;
#344 = PLANE ( 'NONE',  #122 ) ;
#345 = PLANE ( 'NONE',  #350 ) ;
#346 = DIRECTION ( 'NONE',  ( -1.203966067220177465E-16, 1.000000000000000000, -0.000000000000000000 ) ) ;
#347 = SURFACE_SIDE_STYLE ('',( #85 ) ) ;
#348 =( NAMED_UNIT ( * ) SI_UNIT ( $, .STERADIAN. ) SOLID_ANGLE_UNIT ( ) );
#349 = FILL_AREA_STYLE_COLOUR ( '', #73 ) ;
#350 = AXIS2_PLACEMENT_3D ( 'NONE', #182, #90, #87 ) ;
#351 = VECTOR ( 'NONE', #150, 1000.000000000000000 ) ;
#352 = DIRECTION ( 'NONE',  ( -1.203966067220177465E-16, 1.000000000000000000, -0.000000000000000000 ) ) ;
#353 = SURFACE_STYLE_USAGE ( .BOTH. , #174 ) ;
#354 = DIRECTION ( 'NONE',  ( -1.000000000000000000, 0.000000000000000000, 0.000000000000000000 ) ) ;
#355 = CARTESIAN_POINT ( 'NONE',  ( 0.000000000000000000, 0.000000000000000000, -5.000000000000000888 ) ) ;
#356 = FACE_OUTER_BOUND ( 'NONE', #31, .T. ) ;
#357 = FILL_AREA_STYLE_COLOUR ( '', #136 ) ;
#358 = FILL_AREA_STYLE_COLOUR ( '', #185 ) ;
#359 = ADVANCED_FACE ( 'NONE', ( #321 ), #49, .F. ) ;
#360 = CARTESIAN_POINT ( 'NONE',  ( 6.123233995736762930E-15, 75.00000000000000000, 0.000000000000000000 ) ) ;
#361 = VERTEX_POINT ( 'NONE', #215 ) ;
#362 = DIRECTION ( 'NONE',  ( -1.203966067220177465E-16, 1.000000000000000000, -0.000000000000000000 ) ) ;
#363 = ADVANCED_FACE ( 'NONE', ( #158 ), #294, .T. ) ;
#364 = ORIENTED_EDGE ( 'NONE', *, *, #120, .T. ) ;
#365 = DIRECTION ( 'NONE',  ( -0.000000000000000000, -1.000000000000000000, -0.000000000000000000 ) ) ;
#366 = EDGE_LOOP ( 'NONE', ( #275, #81 ) ) ;
#367 = ADVANCED_FACE ( 'NONE', ( #257 ), #344, .F. ) ;
#368 = UNCERTAINTY_MEASURE_WITH_UNIT (LENGTH_MEASURE( 1.000000000000000082E-05 ), #116, 'distance_accuracy_value', 'NONE');
#369 = DIRECTION ( 'NONE',  ( -1.203966067220177465E-16, 1.000000000000000000, -0.000000000000000000 ) ) ;
#370 = CARTESIAN_POINT ( 'NONE',  ( 0.000000000000000000, 0.000000000000000000, 0.000000000000000000 ) ) ;
ENDSEC;
END-ISO-10303-21;
