ISO-10303-21;
HEADER;
FILE_DESCRIPTION (( 'STEP AP214' ),
    '1' );
FILE_NAME ('Micro_AMRM-016-2X.STEP',
    '2021-09-01T17:15:27',
    ( '' ),
    ( '' ),
    'SwSTEP 2.0',
    'SolidWorks 2020',
    '' );
FILE_SCHEMA (( 'AUTOMOTIVE_DESIGN' ));
ENDSEC;

DATA;
#1 = PRESENTATION_LAYER_ASSIGNMENT (  '', '', ( #86 ) ) ;
#2 = CYLINDRICAL_SURFACE ( 'NONE', #163, 0.07874000000000001831 ) ;
#3 = ORIENTED_EDGE ( 'NONE', *, *, #25, .T. ) ;
#4 = ORIENTED_EDGE ( 'NONE', *, *, #20, .T. ) ;
#5 = ORIENTED_EDGE ( 'NONE', *, *, #255, .F. ) ;
#6 = ORIENTED_EDGE ( 'NONE', *, *, #99, .F. ) ;
#7 = ADVANCED_FACE ( 'NONE', ( #170 ), #53, .T. ) ;
#8 = CARTESIAN_POINT ( 'NONE',  ( 0.07874000000000007382, 9.642868896486266213E-18, 0.4570886609782084387 ) ) ;
#9 = AXIS2_PLACEMENT_3D ( 'NONE', #11, #264, #122 ) ;
#10 = AXIS2_PLACEMENT_3D ( 'NONE', #271, #84, #79 ) ;
#11 = CARTESIAN_POINT ( 'NONE',  ( 0.0000000000000000000, 0.0000000000000000000, 0.0000000000000000000 ) ) ;
#12 = LINE ( 'NONE', #175, #292 ) ;
#13 = APPLICATION_CONTEXT ( 'automotive_design' ) ;
#14 = DIRECTION ( 'NONE',  ( -1.224646799147353207E-16, -0.0000000000000000000, -1.000000000000000000 ) ) ;
#15 = LINE ( 'NONE', #222, #215 ) ;
#16 =( CONVERSION_BASED_UNIT ( 'INCH', #247 ) LENGTH_UNIT ( ) NAMED_UNIT ( #173 ) );
#17 = ORIENTED_EDGE ( 'NONE', *, *, #181, .F. ) ;
#18 = VECTOR ( 'NONE', #212, 39.37007874015748143 ) ;
#19 = CARTESIAN_POINT ( 'NONE',  ( 0.0000000000000000000, 0.0000000000000000000, 0.0000000000000000000 ) ) ;
#20 = EDGE_CURVE ( 'NONE', #162, #194, #230, .T. ) ;
#21 = FACE_OUTER_BOUND ( 'NONE', #72, .T. ) ;
#22 = AXIS2_PLACEMENT_3D ( 'NONE', #261, #55, #146 ) ;
#23 = CIRCLE ( 'NONE', #184, 0.07874000000000001831 ) ;
#24 = DIRECTION ( 'NONE',  ( -1.224646799147353207E-16, -0.0000000000000000000, -1.000000000000000000 ) ) ;
#25 = EDGE_CURVE ( 'NONE', #282, #148, #119, .T. ) ;
#26 = DIRECTION ( 'NONE',  ( 1.000000000000000000, 0.0000000000000000000, 0.0000000000000000000 ) ) ;
#27 = DIRECTION ( 'NONE',  ( -1.000000000000000000, 0.0000000000000000000, 0.0000000000000000000 ) ) ;
#28 = ORIENTED_EDGE ( 'NONE', *, *, #190, .T. ) ;
#29 = COLOUR_RGB ( '',0.7921568627450980005, 0.8196078431372548767, 0.9333333333333333481 ) ;
#30 = AXIS2_PLACEMENT_3D ( 'NONE', #209, #298, #26 ) ;
#31 = VERTEX_POINT ( 'NONE', #142 ) ;
#32 =( CONVERSION_BASED_UNIT ( 'INCH', #52 ) LENGTH_UNIT ( ) NAMED_UNIT ( #226 ) );
#33 = ADVANCED_FACE ( 'NONE', ( #98 ), #243, .T. ) ;
#34 = DIRECTION ( 'NONE',  ( 0.0000000000000000000, 0.0000000000000000000, -1.000000000000000000 ) ) ;
#35 = VERTEX_POINT ( 'NONE', #245 ) ;
#36 = CYLINDRICAL_SURFACE ( 'NONE', #156, 0.03146450399999999731 ) ;
#37 = SURFACE_SIDE_STYLE ('',( #200 ) ) ;
#38 = MECHANICAL_DESIGN_GEOMETRIC_PRESENTATION_REPRESENTATION (  '', ( #63 ), #127 ) ;
#39 = EDGE_CURVE ( 'NONE', #194, #162, #161, .T. ) ;
#40 = CARTESIAN_POINT ( 'NONE',  ( 4.718919768060314138E-34, 0.0000000000000000000, 3.853290411035908808E-18 ) ) ;
#41 =( NAMED_UNIT ( * ) SI_UNIT ( $, .STERADIAN. ) SOLID_ANGLE_UNIT ( ) );
#42 = DIRECTION ( 'NONE',  ( 1.000000000000000000, 0.0000000000000000000, 0.0000000000000000000 ) ) ;
#43 = EDGE_CURVE ( 'NONE', #31, #114, #15, .T. ) ;
#44 = LINE ( 'NONE', #295, #46 ) ;
#45 = LINE ( 'NONE', #65, #18 ) ;
#46 = VECTOR ( 'NONE', #182, 39.37007874015748143 ) ;
#47 = ADVANCED_FACE ( 'NONE', ( #197 ), #125, .T. ) ;
#48 = ORIENTED_EDGE ( 'NONE', *, *, #190, .F. ) ;
#49 = MANIFOLD_SOLID_BREP ( 'Cut-Revolve1', #137 ) ;
#50 = ORIENTED_EDGE ( 'NONE', *, *, #99, .T. ) ;
#51 = ORIENTED_EDGE ( 'NONE', *, *, #263, .F. ) ;
#52 = LENGTH_MEASURE_WITH_UNIT ( LENGTH_MEASURE( 0.02539999999999999897 ), #144 );
#53 = CYLINDRICAL_SURFACE ( 'NONE', #9, 0.03146450399999999731 ) ;
#54 = CIRCLE ( 'NONE', #238, 0.06374000000000018540 ) ;
#55 = DIRECTION ( 'NONE',  ( -1.224646799147353207E-16, -0.0000000000000000000, -1.000000000000000000 ) ) ;
#56 = ORIENTED_EDGE ( 'NONE', *, *, #177, .T. ) ;
#57 = ADVANCED_FACE ( 'NONE', ( #85 ), #36, .T. ) ;
#58 =( NAMED_UNIT ( * ) PLANE_ANGLE_UNIT ( ) SI_UNIT ( $, .RADIAN. ) );
#59 = AXIS2_PLACEMENT_3D ( 'NONE', #78, #118, #268 ) ;
#60 = CARTESIAN_POINT ( 'NONE',  ( 0.0000000000000000000, 0.0000000000000000000, 1.968503999999999809 ) ) ;
#61 = CARTESIAN_POINT ( 'NONE',  ( -0.03146450399999997649, 3.853290411035908808E-18, 0.1889760000000000051 ) ) ;
#62 = DIRECTION ( 'NONE',  ( -0.1736481776669311639, 2.126576849575783008E-17, 0.9848077530122080203 ) ) ;
#63 = STYLED_ITEM ( 'NONE', ( #218 ), #49 ) ;
#64 = DIRECTION ( 'NONE',  ( -1.224646799147353207E-16, -0.0000000000000000000, -1.000000000000000000 ) ) ;
#65 = CARTESIAN_POINT ( 'NONE',  ( 0.06374000000000018540, 7.805898697765251255E-18, 1.968503999999999809 ) ) ;
#66 = EDGE_CURVE ( 'NONE', #35, #31, #249, .T. ) ;
#67 = ORIENTED_EDGE ( 'NONE', *, *, #160, .T. ) ;
#68 = MECHANICAL_DESIGN_GEOMETRIC_PRESENTATION_REPRESENTATION (  '', ( #86 ), #109 ) ;
#69 = EDGE_CURVE ( 'NONE', #31, #35, #206, .T. ) ;
#70 = ORIENTED_EDGE ( 'NONE', *, *, #266, .F. ) ;
#71 = DIRECTION ( 'NONE',  ( -1.000000000000000000, 0.0000000000000000000, 0.0000000000000000000 ) ) ;
#72 = EDGE_LOOP ( 'NONE', ( #48, #281, #287, #17 ) ) ;
#73 =( NAMED_UNIT ( * ) SI_UNIT ( $, .STERADIAN. ) SOLID_ANGLE_UNIT ( ) );
#74 = ORIENTED_EDGE ( 'NONE', *, *, #69, .F. ) ;
#75 = CYLINDRICAL_SURFACE ( 'NONE', #59, 0.07874000000000001831 ) ;
#76 = AXIS2_PLACEMENT_3D ( 'NONE', #274, #131, #229 ) ;
#77 = DIRECTION ( 'NONE',  ( 1.000000000000000000, 0.0000000000000000000, -0.0000000000000000000 ) ) ;
#78 = CARTESIAN_POINT ( 'NONE',  ( 0.0000000000000000000, 0.0000000000000000000, 1.968503999999999809 ) ) ;
#79 = DIRECTION ( 'NONE',  ( -1.000000000000000000, 0.0000000000000000000, 0.0000000000000000000 ) ) ;
#80 = CARTESIAN_POINT ( 'NONE',  ( -0.07874000000000001831, 0.0000000000000000000, 1.968503999999999809 ) ) ;
#81 = AXIS2_PLACEMENT_3D ( 'NONE', #60, #152, #180 ) ;
#82 = PRODUCT_DEFINITION ( 'UNKNOWN', '', #166, #277 ) ;
#83 = CARTESIAN_POINT ( 'NONE',  ( 4.718919768060314138E-34, 0.0000000000000000000, 3.853290411035908808E-18 ) ) ;
#84 = DIRECTION ( 'NONE',  ( -1.224646799147353207E-16, -0.0000000000000000000, -1.000000000000000000 ) ) ;
#85 = FACE_OUTER_BOUND ( 'NONE', #235, .T. ) ;
#86 = STYLED_ITEM ( 'NONE', ( #151 ), #188 ) ;
#87 = UNCERTAINTY_MEASURE_WITH_UNIT (LENGTH_MEASURE( 1.000000000000000082E-05 ), #32, 'distance_accuracy_value', 'NONE');
#88 = CARTESIAN_POINT ( 'NONE',  ( 0.03146450399999999731, 3.853290411035908808E-18, 0.0000000000000000000 ) ) ;
#89 = EDGE_CURVE ( 'NONE', #217, #114, #227, .T. ) ;
#90 = ORIENTED_EDGE ( 'NONE', *, *, #93, .F. ) ;
#91 = EDGE_LOOP ( 'NONE', ( #186, #260, #5, #90 ) ) ;
#92 = ORIENTED_EDGE ( 'NONE', *, *, #43, .F. ) ;
#93 = EDGE_CURVE ( 'NONE', #194, #148, #203, .T. ) ;
#94 = ORIENTED_EDGE ( 'NONE', *, *, #177, .F. ) ;
#95 = LENGTH_MEASURE_WITH_UNIT ( LENGTH_MEASURE( 0.02539999999999999897 ), #269 );
#96 = LINE ( 'NONE', #195, #259 ) ;
#97 = AXIS2_PLACEMENT_3D ( 'NONE', #130, #205, #42 ) ;
#98 = FACE_OUTER_BOUND ( 'NONE', #159, .T. ) ;
#99 = EDGE_CURVE ( 'NONE', #164, #189, #54, .T. ) ;
#100 = DIRECTION ( 'NONE',  ( 0.0000000000000000000, 0.0000000000000000000, -1.000000000000000000 ) ) ;
#101 = CARTESIAN_POINT ( 'NONE',  ( 0.0000000000000000000, 0.0000000000000000000, 1.968503999999999809 ) ) ;
#102 = AXIS2_PLACEMENT_3D ( 'NONE', #40, #24, #183 ) ;
#103 = CARTESIAN_POINT ( 'NONE',  ( 0.0000000000000000000, 0.0000000000000000000, 1.953504000000000129 ) ) ;
#104 = SHAPE_DEFINITION_REPRESENTATION ( #199, #188 ) ;
#105 = DIRECTION ( 'NONE',  ( 1.000000000000000000, 0.0000000000000000000, 0.0000000000000000000 ) ) ;
#106 = CARTESIAN_POINT ( 'NONE',  ( 0.0000000000000000000, 0.0000000000000000000, 0.0000000000000000000 ) ) ;
#107 = FACE_OUTER_BOUND ( 'NONE', #150, .T. ) ;
#108 = AXIS2_PLACEMENT_3D ( 'NONE', #267, #246, #71 ) ;
#109 =( GEOMETRIC_REPRESENTATION_CONTEXT ( 3 ) GLOBAL_UNCERTAINTY_ASSIGNED_CONTEXT ( ( #87 ) ) GLOBAL_UNIT_ASSIGNED_CONTEXT ( ( #32, #241, #73 ) ) REPRESENTATION_CONTEXT ( 'NONE', 'WORKASPACE' ) );
#110 = FACE_OUTER_BOUND ( 'NONE', #165, .T. ) ;
#111 = DIRECTION ( 'NONE',  ( 1.000000000000000000, 0.0000000000000000000, -0.0000000000000000000 ) ) ;
#112 = FACE_OUTER_BOUND ( 'NONE', #117, .T. ) ;
#113 = CONICAL_SURFACE ( 'NONE', #97, 0.03146450399999999731, 0.1745329251994338637 ) ;
#114 = VERTEX_POINT ( 'NONE', #294 ) ;
#115 = AXIS2_PLACEMENT_3D ( 'NONE', #134, #233, #111 ) ;
#116 = APPLICATION_CONTEXT ( 'automotive_design' ) ;
#117 = EDGE_LOOP ( 'NONE', ( #70, #4, #143, #283 ) ) ;
#118 = DIRECTION ( 'NONE',  ( -0.0000000000000000000, -0.0000000000000000000, -1.000000000000000000 ) ) ;
#119 = CIRCLE ( 'NONE', #22, 0.07874000000000001831 ) ;
#120 = VECTOR ( 'NONE', #254, 39.37007874015748143 ) ;
#121 = DIRECTION ( 'NONE',  ( 1.000000000000000000, 0.0000000000000000000, 0.0000000000000000000 ) ) ;
#122 = DIRECTION ( 'NONE',  ( -1.000000000000000000, 0.0000000000000000000, 1.224646799147353207E-16 ) ) ;
#123 = DIRECTION ( 'NONE',  ( 0.0000000000000000000, 0.0000000000000000000, 1.000000000000000000 ) ) ;
#124 = ADVANCED_FACE ( 'NONE', ( #179 ), #113, .T. ) ;
#125 = PLANE ( 'NONE',  #290 ) ;
#126 = PRODUCT_CONTEXT ( 'NONE', #116, 'mechanical' ) ;
#127 =( GEOMETRIC_REPRESENTATION_CONTEXT ( 3 ) GLOBAL_UNCERTAINTY_ASSIGNED_CONTEXT ( ( #135 ) ) GLOBAL_UNIT_ASSIGNED_CONTEXT ( ( #191, #58, #41 ) ) REPRESENTATION_CONTEXT ( 'NONE', 'WORKASPACE' ) );
#128 = VECTOR ( 'NONE', #276, 39.37007874015748143 ) ;
#129 = DIRECTION ( 'NONE',  ( -1.000000000000000000, 0.0000000000000000000, 1.224646799147353207E-16 ) ) ;
#130 = CARTESIAN_POINT ( 'NONE',  ( 2.314288535156702350E-17, 0.0000000000000000000, 0.1889760000000000051 ) ) ;
#131 = DIRECTION ( 'NONE',  ( 0.0000000000000000000, 0.0000000000000000000, 1.000000000000000000 ) ) ;
#132 = LINE ( 'NONE', #232, #120 ) ;
#133 = AXIS2_PLACEMENT_3D ( 'NONE', #210, #252, #299 ) ;
#134 = CARTESIAN_POINT ( 'NONE',  ( 0.0000000000000000000, 0.0000000000000000000, 0.0000000000000000000 ) ) ;
#135 = UNCERTAINTY_MEASURE_WITH_UNIT (LENGTH_MEASURE( 1.000000000000000082E-05 ), #191, 'distance_accuracy_value', 'NONE');
#136 = CARTESIAN_POINT ( 'NONE',  ( 5.597721655935126928E-17, 0.0000000000000000000, 0.4570886609782084387 ) ) ;
#137 = CLOSED_SHELL ( 'NONE', ( #57, #124, #141, #296, #208, #47, #33, #187, #7, #202 ) ) ;
#138 = ORIENTED_EDGE ( 'NONE', *, *, #145, .F. ) ;
#139 = ORIENTED_EDGE ( 'NONE', *, *, #66, .F. ) ;
#140 = CONICAL_SURFACE ( 'NONE', #81, 0.06374000000000018540, 0.7853981633974528309 ) ;
#141 = ADVANCED_FACE ( 'NONE', ( #21 ), #140, .T. ) ;
#142 = CARTESIAN_POINT ( 'NONE',  ( -0.03146450399999997649, 6.748079653761084814E-18, 0.1889760000000000051 ) ) ;
#143 = ORIENTED_EDGE ( 'NONE', *, *, #93, .T. ) ;
#144 =( LENGTH_UNIT ( ) NAMED_UNIT ( * ) SI_UNIT ( $, .METRE. ) );
#145 = EDGE_CURVE ( 'NONE', #31, #148, #273, .T. ) ;
#146 = DIRECTION ( 'NONE',  ( 1.000000000000000000, 0.0000000000000000000, 0.0000000000000000000 ) ) ;
#147 =( LENGTH_UNIT ( ) NAMED_UNIT ( * ) SI_UNIT ( $, .METRE. ) );
#148 = VERTEX_POINT ( 'NONE', #250 ) ;
#149 = SURFACE_SIDE_STYLE ('',( #291 ) ) ;
#150 = EDGE_LOOP ( 'NONE', ( #67, #236 ) ) ;
#151 = PRESENTATION_STYLE_ASSIGNMENT (( #284 ) ) ;
#152 = DIRECTION ( 'NONE',  ( 0.0000000000000000000, 0.0000000000000000000, -1.000000000000000000 ) ) ;
#153 = CARTESIAN_POINT ( 'NONE',  ( 0.0000000000000000000, 0.0000000000000000000, 1.968503999999999809 ) ) ;
#154 = CARTESIAN_POINT ( 'NONE',  ( 0.07874000000000001831, 9.642868896486260050E-18, 1.953504000000000129 ) ) ;
#155 = CARTESIAN_POINT ( 'NONE',  ( -0.07874000000000001831, 0.0000000000000000000, 1.953504000000000129 ) ) ;
#156 = AXIS2_PLACEMENT_3D ( 'NONE', #106, #64, #129 ) ;
#157 = DIRECTION ( 'NONE',  ( 0.0000000000000000000, 0.0000000000000000000, 1.000000000000000000 ) ) ;
#158 = CARTESIAN_POINT ( 'NONE',  ( 0.0000000000000000000, 0.0000000000000000000, 1.968503999999999809 ) ) ;
#159 = EDGE_LOOP ( 'NONE', ( #258, #6, #172, #257 ) ) ;
#160 = EDGE_CURVE ( 'NONE', #114, #217, #231, .T. ) ;
#161 = CIRCLE ( 'NONE', #279, 0.07874000000000001831 ) ;
#162 = VERTEX_POINT ( 'NONE', #154 ) ;
#163 = AXIS2_PLACEMENT_3D ( 'NONE', #158, #185, #27 ) ;
#164 = VERTEX_POINT ( 'NONE', #228 ) ;
#165 = EDGE_LOOP ( 'NONE', ( #138, #139, #216, #3 ) ) ;
#166 = PRODUCT_DEFINITION_FORMATION_WITH_SPECIFIED_SOURCE ( 'ANY', '', #167, .NOT_KNOWN. ) ;
#167 = PRODUCT ( 'Micro_AMRM-016-2X', 'Micro_AMRM-016-2X', '', ( #126 ) ) ;
#168 = ORIENTED_EDGE ( 'NONE', *, *, #43, .T. ) ;
#169 = DIRECTION ( 'NONE',  ( 0.1736481776669313581, 0.0000000000000000000, 0.9848077530122077983 ) ) ;
#170 = FACE_OUTER_BOUND ( 'NONE', #174, .T. ) ;
#171 =( NAMED_UNIT ( * ) PLANE_ANGLE_UNIT ( ) SI_UNIT ( $, .RADIAN. ) );
#172 = ORIENTED_EDGE ( 'NONE', *, *, #181, .T. ) ;
#173 = DIMENSIONAL_EXPONENTS ( 1.000000000000000000, 0.0000000000000000000, 0.0000000000000000000, 0.0000000000000000000, 0.0000000000000000000, 0.0000000000000000000, 0.0000000000000000000 ) ;
#174 = EDGE_LOOP ( 'NONE', ( #94, #256, #168, #219 ) ) ;
#175 = CARTESIAN_POINT ( 'NONE',  ( 0.07874000000000001831, 9.642868896486260050E-18, 1.968503999999999809 ) ) ;
#176 = DIRECTION ( 'NONE',  ( -1.224646799147353207E-16, -0.0000000000000000000, -1.000000000000000000 ) ) ;
#177 = EDGE_CURVE ( 'NONE', #35, #217, #44, .T. ) ;
#178 = AXIS2_PLACEMENT_3D ( 'NONE', #83, #176, #207 ) ;
#179 = FACE_OUTER_BOUND ( 'NONE', #285, .T. ) ;
#180 = DIRECTION ( 'NONE',  ( -1.000000000000000000, 0.0000000000000000000, 0.0000000000000000000 ) ) ;
#181 = EDGE_CURVE ( 'NONE', #164, #194, #132, .T. ) ;
#182 = DIRECTION ( 'NONE',  ( -1.224646799147353207E-16, -0.0000000000000000000, -1.000000000000000000 ) ) ;
#183 = DIRECTION ( 'NONE',  ( -1.000000000000000000, 0.0000000000000000000, 1.224646799147353207E-16 ) ) ;
#184 = AXIS2_PLACEMENT_3D ( 'NONE', #136, #278, #234 ) ;
#185 = DIRECTION ( 'NONE',  ( -0.0000000000000000000, -0.0000000000000000000, -1.000000000000000000 ) ) ;
#186 = ORIENTED_EDGE ( 'NONE', *, *, #39, .T. ) ;
#187 = ADVANCED_FACE ( 'NONE', ( #110 ), #275, .T. ) ;
#188 = ADVANCED_BREP_SHAPE_REPRESENTATION ( 'Micro_AMRM-016-2X', ( #49, #280 ), #272 ) ;
#189 = VERTEX_POINT ( 'NONE', #251 ) ;
#190 = EDGE_CURVE ( 'NONE', #189, #164, #297, .T. ) ;
#191 =( CONVERSION_BASED_UNIT ( 'INCH', #95 ) LENGTH_UNIT ( ) NAMED_UNIT ( #204 ) );
#192 = DIRECTION ( 'NONE',  ( -0.0000000000000000000, -0.0000000000000000000, -1.000000000000000000 ) ) ;
#193 = VECTOR ( 'NONE', #62, 39.37007874015747433 ) ;
#194 = VERTEX_POINT ( 'NONE', #155 ) ;
#195 = CARTESIAN_POINT ( 'NONE',  ( 0.03146450400000001812, 0.0000000000000000000, 0.1889760000000000051 ) ) ;
#196 = PRODUCT_RELATED_PRODUCT_CATEGORY ( 'part', '', ( #167 ) ) ;
#197 = FACE_OUTER_BOUND ( 'NONE', #293, .T. ) ;
#198 = DIRECTION ( 'NONE',  ( 0.0000000000000000000, 0.0000000000000000000, 1.000000000000000000 ) ) ;
#199 = PRODUCT_DEFINITION_SHAPE ( 'NONE', 'NONE',  #82 ) ;
#200 = SURFACE_STYLE_FILL_AREA ( #225 ) ;
#201 = APPLICATION_PROTOCOL_DEFINITION ( 'draft international standard', 'automotive_design', 1998, #116 ) ;
#202 = ADVANCED_FACE ( 'NONE', ( #107 ), #253, .F. ) ;
#203 = LINE ( 'NONE', #80, #128 ) ;
#204 = DIMENSIONAL_EXPONENTS ( 1.000000000000000000, 0.0000000000000000000, 0.0000000000000000000, 0.0000000000000000000, 0.0000000000000000000, 0.0000000000000000000, 0.0000000000000000000 ) ;
#205 = DIRECTION ( 'NONE',  ( 1.224646799147353207E-16, 0.0000000000000000000, 1.000000000000000000 ) ) ;
#206 = CIRCLE ( 'NONE', #133, 0.03146450399999999731 ) ;
#207 = DIRECTION ( 'NONE',  ( -1.000000000000000000, 0.0000000000000000000, 1.224646799147353207E-16 ) ) ;
#208 = ADVANCED_FACE ( 'NONE', ( #112 ), #2, .T. ) ;
#209 = CARTESIAN_POINT ( 'NONE',  ( 2.314288535156702350E-17, 0.0000000000000000000, 0.1889760000000000051 ) ) ;
#210 = CARTESIAN_POINT ( 'NONE',  ( 2.314288535156702350E-17, 0.0000000000000000000, 0.1889760000000000051 ) ) ;
#211 = UNCERTAINTY_MEASURE_WITH_UNIT (LENGTH_MEASURE( 1.000000000000000082E-05 ), #16, 'distance_accuracy_value', 'NONE');
#212 = DIRECTION ( 'NONE',  ( 0.7071067811865507924, 8.659560562354973534E-17, -0.7071067811865443531 ) ) ;
#213 = EDGE_CURVE ( 'NONE', #189, #162, #45, .T. ) ;
#214 = ORIENTED_EDGE ( 'NONE', *, *, #255, .T. ) ;
#215 = VECTOR ( 'NONE', #14, 39.37007874015748143 ) ;
#216 = ORIENTED_EDGE ( 'NONE', *, *, #263, .T. ) ;
#217 = VERTEX_POINT ( 'NONE', #88 ) ;
#218 = PRESENTATION_STYLE_ASSIGNMENT (( #240 ) ) ;
#219 = ORIENTED_EDGE ( 'NONE', *, *, #89, .F. ) ;
#220 = AXIS2_PLACEMENT_3D ( 'NONE', #265, #100, #223 ) ;
#221 = COLOUR_RGB ( '',0.7921568627450980005, 0.8196078431372548767, 0.9333333333333333481 ) ;
#222 = CARTESIAN_POINT ( 'NONE',  ( -0.03146450399999999731, 0.0000000000000000000, 3.853290411035908808E-18 ) ) ;
#223 = DIRECTION ( 'NONE',  ( 1.000000000000000000, 0.0000000000000000000, 0.0000000000000000000 ) ) ;
#224 = DIRECTION ( 'NONE',  ( 1.000000000000000000, 0.0000000000000000000, 0.0000000000000000000 ) ) ;
#225 = FILL_AREA_STYLE ('',( #248 ) ) ;
#226 = DIMENSIONAL_EXPONENTS ( 1.000000000000000000, 0.0000000000000000000, 0.0000000000000000000, 0.0000000000000000000, 0.0000000000000000000, 0.0000000000000000000, 0.0000000000000000000 ) ;
#227 = CIRCLE ( 'NONE', #178, 0.03146450399999999731 ) ;
#228 = CARTESIAN_POINT ( 'NONE',  ( -0.06374000000000018540, 0.0000000000000000000, 1.968503999999999809 ) ) ;
#229 = DIRECTION ( 'NONE',  ( 1.000000000000000000, 0.0000000000000000000, 0.0000000000000000000 ) ) ;
#230 = CIRCLE ( 'NONE', #220, 0.07874000000000001831 ) ;
#231 = CIRCLE ( 'NONE', #102, 0.03146450399999999731 ) ;
#232 = CARTESIAN_POINT ( 'NONE',  ( -0.06374000000000018540, 0.0000000000000000000, 1.968503999999999809 ) ) ;
#233 = DIRECTION ( 'NONE',  ( 0.0000000000000000000, 0.0000000000000000000, 1.000000000000000000 ) ) ;
#234 = DIRECTION ( 'NONE',  ( 1.000000000000000000, 0.0000000000000000000, 0.0000000000000000000 ) ) ;
#235 = EDGE_LOOP ( 'NONE', ( #289, #56, #239, #92 ) ) ;
#236 = ORIENTED_EDGE ( 'NONE', *, *, #89, .T. ) ;
#237 = PRESENTATION_LAYER_ASSIGNMENT (  '', '', ( #63 ) ) ;
#238 = AXIS2_PLACEMENT_3D ( 'NONE', #153, #157, #105 ) ;
#239 = ORIENTED_EDGE ( 'NONE', *, *, #160, .F. ) ;
#240 = SURFACE_STYLE_USAGE ( .BOTH. , #37 ) ;
#241 =( NAMED_UNIT ( * ) PLANE_ANGLE_UNIT ( ) SI_UNIT ( $, .RADIAN. ) );
#242 = ORIENTED_EDGE ( 'NONE', *, *, #145, .T. ) ;
#243 = CONICAL_SURFACE ( 'NONE', #108, 0.06374000000000018540, 0.7853981633974528309 ) ;
#244 = FACE_OUTER_BOUND ( 'NONE', #91, .T. ) ;
#245 = CARTESIAN_POINT ( 'NONE',  ( 0.03146450400000001812, 0.0000000000000000000, 0.1889760000000000051 ) ) ;
#246 = DIRECTION ( 'NONE',  ( 0.0000000000000000000, 0.0000000000000000000, -1.000000000000000000 ) ) ;
#247 = LENGTH_MEASURE_WITH_UNIT ( LENGTH_MEASURE( 0.02539999999999999897 ), #147 );
#248 = FILL_AREA_STYLE_COLOUR ( '', #29 ) ;
#249 = CIRCLE ( 'NONE', #10, 0.03146450399999999731 ) ;
#250 = CARTESIAN_POINT ( 'NONE',  ( -0.07873999999999996280, 0.0000000000000000000, 0.4570886609782084387 ) ) ;
#251 = CARTESIAN_POINT ( 'NONE',  ( 0.06374000000000018540, 8.724383797125754882E-18, 1.968503999999999809 ) ) ;
#252 = DIRECTION ( 'NONE',  ( -1.224646799147353207E-16, -0.0000000000000000000, -1.000000000000000000 ) ) ;
#253 = PLANE ( 'NONE',  #115 ) ;
#254 = DIRECTION ( 'NONE',  ( -0.7071067811865507924, 0.0000000000000000000, -0.7071067811865443531 ) ) ;
#255 = EDGE_CURVE ( 'NONE', #148, #282, #23, .T. ) ;
#256 = ORIENTED_EDGE ( 'NONE', *, *, #66, .T. ) ;
#257 = ORIENTED_EDGE ( 'NONE', *, *, #20, .F. ) ;
#258 = ORIENTED_EDGE ( 'NONE', *, *, #213, .F. ) ;
#259 = VECTOR ( 'NONE', #169, 39.37007874015748143 ) ;
#260 = ORIENTED_EDGE ( 'NONE', *, *, #266, .T. ) ;
#261 = CARTESIAN_POINT ( 'NONE',  ( 5.597721655935126928E-17, 0.0000000000000000000, 0.4570886609782084387 ) ) ;
#262 = FILL_AREA_STYLE_COLOUR ( '', #221 ) ;
#263 = EDGE_CURVE ( 'NONE', #35, #282, #96, .T. ) ;
#264 = DIRECTION ( 'NONE',  ( -1.224646799147353207E-16, -0.0000000000000000000, -1.000000000000000000 ) ) ;
#265 = CARTESIAN_POINT ( 'NONE',  ( 0.0000000000000000000, 0.0000000000000000000, 1.953504000000000129 ) ) ;
#266 = EDGE_CURVE ( 'NONE', #162, #282, #12, .T. ) ;
#267 = CARTESIAN_POINT ( 'NONE',  ( 0.0000000000000000000, 0.0000000000000000000, 1.968503999999999809 ) ) ;
#268 = DIRECTION ( 'NONE',  ( -1.000000000000000000, 0.0000000000000000000, 0.0000000000000000000 ) ) ;
#269 =( LENGTH_UNIT ( ) NAMED_UNIT ( * ) SI_UNIT ( $, .METRE. ) );
#270 =( NAMED_UNIT ( * ) SI_UNIT ( $, .STERADIAN. ) SOLID_ANGLE_UNIT ( ) );
#271 = CARTESIAN_POINT ( 'NONE',  ( 2.314288535156702350E-17, 0.0000000000000000000, 0.1889760000000000051 ) ) ;
#272 =( GEOMETRIC_REPRESENTATION_CONTEXT ( 3 ) GLOBAL_UNCERTAINTY_ASSIGNED_CONTEXT ( ( #211 ) ) GLOBAL_UNIT_ASSIGNED_CONTEXT ( ( #16, #171, #270 ) ) REPRESENTATION_CONTEXT ( 'NONE', 'WORKASPACE' ) );
#273 = LINE ( 'NONE', #61, #193 ) ;
#274 = CARTESIAN_POINT ( 'NONE',  ( 0.0000000000000000000, 0.0000000000000000000, 1.968503999999999809 ) ) ;
#275 = CONICAL_SURFACE ( 'NONE', #30, 0.03146450399999999731, 0.1745329251994338637 ) ;
#276 = DIRECTION ( 'NONE',  ( -0.0000000000000000000, -0.0000000000000000000, -1.000000000000000000 ) ) ;
#277 = PRODUCT_DEFINITION_CONTEXT ( 'detailed design', #13, 'design' ) ;
#278 = DIRECTION ( 'NONE',  ( -1.224646799147353207E-16, -0.0000000000000000000, -1.000000000000000000 ) ) ;
#279 = AXIS2_PLACEMENT_3D ( 'NONE', #103, #34, #121 ) ;
#280 = AXIS2_PLACEMENT_3D ( 'NONE', #19, #123, #224 ) ;
#281 = ORIENTED_EDGE ( 'NONE', *, *, #213, .T. ) ;
#282 = VERTEX_POINT ( 'NONE', #8 ) ;
#283 = ORIENTED_EDGE ( 'NONE', *, *, #25, .F. ) ;
#284 = SURFACE_STYLE_USAGE ( .BOTH. , #149 ) ;
#285 = EDGE_LOOP ( 'NONE', ( #74, #242, #214, #51 ) ) ;
#286 = FILL_AREA_STYLE ('',( #262 ) ) ;
#287 = ORIENTED_EDGE ( 'NONE', *, *, #39, .F. ) ;
#288 = APPLICATION_PROTOCOL_DEFINITION ( 'draft international standard', 'automotive_design', 1998, #13 ) ;
#289 = ORIENTED_EDGE ( 'NONE', *, *, #69, .T. ) ;
#290 = AXIS2_PLACEMENT_3D ( 'NONE', #101, #198, #77 ) ;
#291 = SURFACE_STYLE_FILL_AREA ( #286 ) ;
#292 = VECTOR ( 'NONE', #192, 39.37007874015748143 ) ;
#293 = EDGE_LOOP ( 'NONE', ( #50, #28 ) ) ;
#294 = CARTESIAN_POINT ( 'NONE',  ( -0.03146450399999999731, 0.0000000000000000000, 7.706580822071817615E-18 ) ) ;
#295 = CARTESIAN_POINT ( 'NONE',  ( 0.03146450399999999731, 3.853290411035908808E-18, -3.853290411035908808E-18 ) ) ;
#296 = ADVANCED_FACE ( 'NONE', ( #244 ), #75, .T. ) ;
#297 = CIRCLE ( 'NONE', #76, 0.06374000000000018540 ) ;
#298 = DIRECTION ( 'NONE',  ( 1.224646799147353207E-16, 0.0000000000000000000, 1.000000000000000000 ) ) ;
#299 = DIRECTION ( 'NONE',  ( -1.000000000000000000, 0.0000000000000000000, 0.0000000000000000000 ) ) ;
ENDSEC;
END-ISO-10303-21;
