ISO-10303-21;
HEADER;
FILE_DESCRIPTION (( 'STEP AP214' ),
    '1' );
FILE_NAME ('Micro_EMHM-200-6X.STEP',
    '2021-09-01T17:29:04',
    ( '' ),
    ( '' ),
    'SwSTEP 2.0',
    'SolidWorks 2020',
    '' );
FILE_SCHEMA (( 'AUTOMOTIVE_DESIGN' ));
ENDSEC;

DATA;
#1 = EDGE_CURVE ( 'NONE', #66, #252, #134, .T. ) ;
#2 = DIRECTION ( 'NONE',  ( 1.000000000000000000, 0.0000000000000000000, 0.0000000000000000000 ) ) ;
#3 = LINE ( 'NONE', #147, #116 ) ;
#4 = EDGE_CURVE ( 'NONE', #64, #161, #26, .T. ) ;
#5 = CIRCLE ( 'NONE', #249, 0.3937009999999999676 ) ;
#6 = CARTESIAN_POINT ( 'NONE',  ( -0.3937009999999999676, 0.0000000000000000000, 4.079488000000000447 ) ) ;
#7 = EDGE_CURVE ( 'NONE', #295, #161, #184, .T. ) ;
#8 = DIRECTION ( 'NONE',  ( 0.0000000000000000000, 0.0000000000000000000, 1.000000000000000000 ) ) ;
#9 = LINE ( 'NONE', #282, #37 ) ;
#10 =( GEOMETRIC_REPRESENTATION_CONTEXT ( 3 ) GLOBAL_UNCERTAINTY_ASSIGNED_CONTEXT ( ( #289 ) ) GLOBAL_UNIT_ASSIGNED_CONTEXT ( ( #127, #61, #201 ) ) REPRESENTATION_CONTEXT ( 'NONE', 'WORKASPACE' ) );
#11 = AXIS2_PLACEMENT_3D ( 'NONE', #12, #197, #172 ) ;
#12 = CARTESIAN_POINT ( 'NONE',  ( 0.0000000000000000000, 0.0000000000000000000, 4.094488000000000127 ) ) ;
#13 = SURFACE_STYLE_FILL_AREA ( #85 ) ;
#14 = ADVANCED_FACE ( 'NONE', ( #212 ), #211, .T. ) ;
#15 = SURFACE_STYLE_USAGE ( .BOTH. , #222 ) ;
#16 = ADVANCED_FACE ( 'NONE', ( #48 ), #27, .T. ) ;
#17 = AXIS2_PLACEMENT_3D ( 'NONE', #101, #191, #102 ) ;
#18 = CARTESIAN_POINT ( 'NONE',  ( 0.3937009999999999676, 4.821446694711121291E-17, 4.094488000000000127 ) ) ;
#19 = CONICAL_SURFACE ( 'NONE', #189, 0.3787010000000002319, 0.7853981633974506105 ) ;
#20 = ORIENTED_EDGE ( 'NONE', *, *, #45, .T. ) ;
#21 = ORIENTED_EDGE ( 'NONE', *, *, #155, .F. ) ;
#22 = ADVANCED_FACE ( 'NONE', ( #236 ), #19, .T. ) ;
#23 = EDGE_LOOP ( 'NONE', ( #233, #89, #298, #160 ) ) ;
#24 = MECHANICAL_DESIGN_GEOMETRIC_PRESENTATION_REPRESENTATION (  '', ( #103 ), #210 ) ;
#25 = EDGE_CURVE ( 'NONE', #295, #69, #30, .T. ) ;
#26 = CIRCLE ( 'NONE', #153, 0.3937009999999999676 ) ;
#27 = CYLINDRICAL_SURFACE ( 'NONE', #266, 0.3933072990000000546 ) ;
#28 = CARTESIAN_POINT ( 'NONE',  ( 0.3933072989999999991, 4.816625248016410340E-17, 7.582401355855259480E-33 ) ) ;
#29 = CARTESIAN_POINT ( 'NONE',  ( 0.0000000000000000000, 0.0000000000000000000, 4.094488000000000127 ) ) ;
#30 = CIRCLE ( 'NONE', #292, 0.3937009999999999676 ) ;
#31 = LINE ( 'NONE', #119, #226 ) ;
#32 = CYLINDRICAL_SURFACE ( 'NONE', #17, 0.3937009999999999676 ) ;
#33 = EDGE_CURVE ( 'NONE', #111, #198, #254, .T. ) ;
#34 = FACE_OUTER_BOUND ( 'NONE', #274, .T. ) ;
#35 = FILL_AREA_STYLE_COLOUR ( '', #284 ) ;
#36 = VECTOR ( 'NONE', #86, 39.37007874015748143 ) ;
#37 = VECTOR ( 'NONE', #169, 39.37007874015748143 ) ;
#38 = LENGTH_MEASURE_WITH_UNIT ( LENGTH_MEASURE( 0.02539999999999999897 ), #268 );
#39 = ORIENTED_EDGE ( 'NONE', *, *, #97, .F. ) ;
#40 = SURFACE_STYLE_FILL_AREA ( #138 ) ;
#41 = CARTESIAN_POINT ( 'NONE',  ( -0.3933072990000000546, 0.0000000000000000000, 4.816625248016410956E-17 ) ) ;
#42 = COLOUR_RGB ( '',0.7921568627450980005, 0.8196078431372548767, 0.9333333333333333481 ) ;
#43 = ORIENTED_EDGE ( 'NONE', *, *, #272, .T. ) ;
#44 = CONICAL_SURFACE ( 'NONE', #120, 0.3787010000000002319, 0.7853981633974506105 ) ;
#45 = EDGE_CURVE ( 'NONE', #181, #151, #77, .T. ) ;
#46 = ORIENTED_EDGE ( 'NONE', *, *, #296, .F. ) ;
#47 = ORIENTED_EDGE ( 'NONE', *, *, #1, .T. ) ;
#48 = FACE_OUTER_BOUND ( 'NONE', #183, .T. ) ;
#49 =( GEOMETRIC_REPRESENTATION_CONTEXT ( 3 ) GLOBAL_UNCERTAINTY_ASSIGNED_CONTEXT ( ( #204 ) ) GLOBAL_UNIT_ASSIGNED_CONTEXT ( ( #196, #290, #285 ) ) REPRESENTATION_CONTEXT ( 'NONE', 'WORKASPACE' ) );
#50 = CONICAL_SURFACE ( 'NONE', #173, 0.3933072990000000546, 0.1745329251994337805 ) ;
#51 = CARTESIAN_POINT ( 'NONE',  ( 0.0000000000000000000, 0.0000000000000000000, 4.079488000000000447 ) ) ;
#52 = DIRECTION ( 'NONE',  ( 0.0000000000000000000, 0.0000000000000000000, -1.000000000000000000 ) ) ;
#53 = DIRECTION ( 'NONE',  ( -1.224646799147353207E-16, -0.0000000000000000000, -1.000000000000000000 ) ) ;
#54 = DIRECTION ( 'NONE',  ( 1.000000000000000000, 0.0000000000000000000, 0.0000000000000000000 ) ) ;
#55 = DIRECTION ( 'NONE',  ( -1.224646799147353207E-16, -0.0000000000000000000, -1.000000000000000000 ) ) ;
#56 = ADVANCED_FACE ( 'NONE', ( #34 ), #146, .F. ) ;
#57 = FACE_OUTER_BOUND ( 'NONE', #140, .T. ) ;
#58 = ORIENTED_EDGE ( 'NONE', *, *, #155, .T. ) ;
#59 = DIRECTION ( 'NONE',  ( -1.000000000000000000, 0.0000000000000000000, 0.0000000000000000000 ) ) ;
#60 = DIRECTION ( 'NONE',  ( -1.224646799147353207E-16, -0.0000000000000000000, -1.000000000000000000 ) ) ;
#61 =( NAMED_UNIT ( * ) PLANE_ANGLE_UNIT ( ) SI_UNIT ( $, .RADIAN. ) );
#62 = AXIS2_PLACEMENT_3D ( 'NONE', #150, #288, #176 ) ;
#63 = DIRECTION ( 'NONE',  ( -1.000000000000000000, 0.0000000000000000000, 1.224646799147353207E-16 ) ) ;
#64 = VERTEX_POINT ( 'NONE', #193 ) ;
#65 = PRESENTATION_LAYER_ASSIGNMENT (  '', '', ( #260 ) ) ;
#66 = VERTEX_POINT ( 'NONE', #262 ) ;
#67 = PRODUCT_DEFINITION ( 'UNKNOWN', '', #80, #188 ) ;
#68 = FILL_AREA_STYLE_COLOUR ( '', #42 ) ;
#69 = VERTEX_POINT ( 'NONE', #6 ) ;
#70 = ORIENTED_EDGE ( 'NONE', *, *, #45, .F. ) ;
#71 = ORIENTED_EDGE ( 'NONE', *, *, #25, .F. ) ;
#72 = CARTESIAN_POINT ( 'NONE',  ( 2.172384778595001442E-16, 0.0000000000000000000, 1.773886789323664726 ) ) ;
#73 = CARTESIAN_POINT ( 'NONE',  ( 2.172384778595001442E-16, 0.0000000000000000000, 1.773886789323664726 ) ) ;
#74 = EDGE_CURVE ( 'NONE', #111, #295, #9, .T. ) ;
#75 = CARTESIAN_POINT ( 'NONE',  ( 0.0000000000000000000, 0.0000000000000000000, 4.094488000000000127 ) ) ;
#76 = PRODUCT_RELATED_PRODUCT_CATEGORY ( 'part', '', ( #246 ) ) ;
#77 = LINE ( 'NONE', #79, #269 ) ;
#78 = ADVANCED_FACE ( 'NONE', ( #166 ), #44, .T. ) ;
#79 = CARTESIAN_POINT ( 'NONE',  ( 0.3933072990000000546, 4.816625248016410956E-17, -4.816625248016410956E-17 ) ) ;
#80 = PRODUCT_DEFINITION_FORMATION_WITH_SPECIFIED_SOURCE ( 'ANY', '', #246, .NOT_KNOWN. ) ;
#81 = CLOSED_SHELL ( 'NONE', ( #14, #105, #78, #162, #174, #243, #22, #264, #16, #56 ) ) ;
#82 = EDGE_CURVE ( 'NONE', #69, #64, #31, .T. ) ;
#83 = FACE_OUTER_BOUND ( 'NONE', #90, .T. ) ;
#84 = PRESENTATION_STYLE_ASSIGNMENT (( #15 ) ) ;
#85 = FILL_AREA_STYLE ('',( #35 ) ) ;
#86 = DIRECTION ( 'NONE',  ( -0.7071067811865491270, 0.0000000000000000000, -0.7071067811865459074 ) ) ;
#87 = ADVANCED_BREP_SHAPE_REPRESENTATION ( 'Micro_EMHM-200-6X', ( #175, #232 ), #49 ) ;
#88 =( LENGTH_UNIT ( ) NAMED_UNIT ( * ) SI_UNIT ( $, .METRE. ) );
#89 = ORIENTED_EDGE ( 'NONE', *, *, #7, .T. ) ;
#90 = EDGE_LOOP ( 'NONE', ( #273, #58, #115, #203 ) ) ;
#91 =( CONVERSION_BASED_UNIT ( 'INCH', #133 ) LENGTH_UNIT ( ) NAMED_UNIT ( #122 ) );
#92 = ORIENTED_EDGE ( 'NONE', *, *, #33, .T. ) ;
#93 = DIRECTION ( 'NONE',  ( -1.224646799147353207E-16, -0.0000000000000000000, -1.000000000000000000 ) ) ;
#94 = SURFACE_SIDE_STYLE ('',( #40 ) ) ;
#95 = ORIENTED_EDGE ( 'NONE', *, *, #74, .T. ) ;
#96 = DIRECTION ( 'NONE',  ( 0.1736481776669312749, 0.0000000000000000000, 0.9848077530122077983 ) ) ;
#97 = EDGE_CURVE ( 'NONE', #198, #111, #170, .T. ) ;
#98 = CARTESIAN_POINT ( 'NONE',  ( 0.0000000000000000000, 0.0000000000000000000, 4.079488000000000447 ) ) ;
#99 = DIMENSIONAL_EXPONENTS ( 1.000000000000000000, 0.0000000000000000000, 0.0000000000000000000, 0.0000000000000000000, 0.0000000000000000000, 0.0000000000000000000, 0.0000000000000000000 ) ;
#100 = CARTESIAN_POINT ( 'NONE',  ( 2.169650400296604887E-16, 0.0000000000000000000, 1.771654000000000062 ) ) ;
#101 = CARTESIAN_POINT ( 'NONE',  ( 0.0000000000000000000, 0.0000000000000000000, 4.094488000000000127 ) ) ;
#102 = DIRECTION ( 'NONE',  ( -1.000000000000000000, 0.0000000000000000000, 0.0000000000000000000 ) ) ;
#103 = STYLED_ITEM ( 'NONE', ( #258 ), #87 ) ;
#104 = CARTESIAN_POINT ( 'NONE',  ( 2.169650400296604887E-16, 0.0000000000000000000, 1.771654000000000062 ) ) ;
#105 = ADVANCED_FACE ( 'NONE', ( #83 ), #293, .T. ) ;
#106 = CARTESIAN_POINT ( 'NONE',  ( -0.3787010000000002319, 0.0000000000000000000, 4.094488000000000127 ) ) ;
#107 = EDGE_CURVE ( 'NONE', #69, #295, #194, .T. ) ;
#108 = DIRECTION ( 'NONE',  ( 0.0000000000000000000, 0.0000000000000000000, 1.000000000000000000 ) ) ;
#109 = DIRECTION ( 'NONE',  ( 1.000000000000000000, 0.0000000000000000000, 0.0000000000000000000 ) ) ;
#110 =( LENGTH_UNIT ( ) NAMED_UNIT ( * ) SI_UNIT ( $, .METRE. ) );
#111 = VERTEX_POINT ( 'NONE', #263 ) ;
#112 =( NAMED_UNIT ( * ) SI_UNIT ( $, .STERADIAN. ) SOLID_ANGLE_UNIT ( ) );
#113 = DIRECTION ( 'NONE',  ( -1.224646799147353207E-16, -0.0000000000000000000, -1.000000000000000000 ) ) ;
#114 = CIRCLE ( 'NONE', #178, 0.3933072990000000546 ) ;
#115 = ORIENTED_EDGE ( 'NONE', *, *, #4, .T. ) ;
#116 = VECTOR ( 'NONE', #216, 39.37007874015748854 ) ;
#117 = CARTESIAN_POINT ( 'NONE',  ( 0.0000000000000000000, 0.0000000000000000000, 0.0000000000000000000 ) ) ;
#118 = DIRECTION ( 'NONE',  ( -0.0000000000000000000, -0.0000000000000000000, -1.000000000000000000 ) ) ;
#119 = CARTESIAN_POINT ( 'NONE',  ( -0.3937009999999999676, 0.0000000000000000000, 4.094488000000000127 ) ) ;
#120 = AXIS2_PLACEMENT_3D ( 'NONE', #29, #124, #283 ) ;
#121 = LINE ( 'NONE', #234, #144 ) ;
#122 = DIMENSIONAL_EXPONENTS ( 1.000000000000000000, 0.0000000000000000000, 0.0000000000000000000, 0.0000000000000000000, 0.0000000000000000000, 0.0000000000000000000, 0.0000000000000000000 ) ;
#123 = CARTESIAN_POINT ( 'NONE',  ( 0.3937010000000001897, 4.821446694711123140E-17, 1.773886789323664726 ) ) ;
#124 = DIRECTION ( 'NONE',  ( 0.0000000000000000000, 0.0000000000000000000, -1.000000000000000000 ) ) ;
#125 = AXIS2_PLACEMENT_3D ( 'NONE', #261, #118, #59 ) ;
#126 = VECTOR ( 'NONE', #163, 39.37007874015748143 ) ;
#127 =( CONVERSION_BASED_UNIT ( 'INCH', #38 ) LENGTH_UNIT ( ) NAMED_UNIT ( #237 ) );
#128 = EDGE_CURVE ( 'NONE', #181, #161, #121, .T. ) ;
#129 = CARTESIAN_POINT ( 'NONE',  ( 5.898664692675622805E-33, 0.0000000000000000000, 4.816625248016410340E-17 ) ) ;
#130 = DIRECTION ( 'NONE',  ( 1.000000000000000000, 0.0000000000000000000, 0.0000000000000000000 ) ) ;
#131 = FACE_OUTER_BOUND ( 'NONE', #158, .T. ) ;
#132 = ORIENTED_EDGE ( 'NONE', *, *, #74, .F. ) ;
#133 = LENGTH_MEASURE_WITH_UNIT ( LENGTH_MEASURE( 0.02539999999999999897 ), #110 );
#134 = LINE ( 'NONE', #41, #179 ) ;
#135 = CIRCLE ( 'NONE', #279, 0.3933072990000000546 ) ;
#136 = PRODUCT_CONTEXT ( 'NONE', #241, 'mechanical' ) ;
#137 = ORIENTED_EDGE ( 'NONE', *, *, #272, .F. ) ;
#138 = FILL_AREA_STYLE ('',( #68 ) ) ;
#139 = EDGE_LOOP ( 'NONE', ( #245, #95, #277, #255 ) ) ;
#140 = EDGE_LOOP ( 'NONE', ( #21, #46, #180, #159 ) ) ;
#141 = EDGE_CURVE ( 'NONE', #161, #64, #5, .T. ) ;
#142 = AXIS2_PLACEMENT_3D ( 'NONE', #100, #190, #2 ) ;
#143 = ORIENTED_EDGE ( 'NONE', *, *, #97, .T. ) ;
#144 = VECTOR ( 'NONE', #96, 39.37007874015748143 ) ;
#145 = DIRECTION ( 'NONE',  ( 1.000000000000000000, 0.0000000000000000000, 0.0000000000000000000 ) ) ;
#146 = PLANE ( 'NONE',  #165 ) ;
#147 = CARTESIAN_POINT ( 'NONE',  ( -0.3933072989999998881, 4.816625248016410956E-17, 1.771654000000000062 ) ) ;
#148 = CARTESIAN_POINT ( 'NONE',  ( 0.0000000000000000000, 0.0000000000000000000, 4.094488000000000127 ) ) ;
#149 = CYLINDRICAL_SURFACE ( 'NONE', #125, 0.3937009999999999676 ) ;
#150 = CARTESIAN_POINT ( 'NONE',  ( 5.898664692675622805E-33, 0.0000000000000000000, 4.816625248016410340E-17 ) ) ;
#151 = VERTEX_POINT ( 'NONE', #28 ) ;
#152 = AXIS2_PLACEMENT_3D ( 'NONE', #98, #240, #281 ) ;
#153 = AXIS2_PLACEMENT_3D ( 'NONE', #72, #93, #109 ) ;
#154 = DIRECTION ( 'NONE',  ( -1.224646799147353207E-16, -0.0000000000000000000, -1.000000000000000000 ) ) ;
#155 = EDGE_CURVE ( 'NONE', #66, #64, #3, .T. ) ;
#156 = CIRCLE ( 'NONE', #168, 0.3933072989999999991 ) ;
#157 = DIRECTION ( 'NONE',  ( 1.224646799147353207E-16, 0.0000000000000000000, 1.000000000000000000 ) ) ;
#158 = EDGE_LOOP ( 'NONE', ( #143, #92 ) ) ;
#159 = ORIENTED_EDGE ( 'NONE', *, *, #141, .T. ) ;
#160 = ORIENTED_EDGE ( 'NONE', *, *, #82, .F. ) ;
#161 = VERTEX_POINT ( 'NONE', #123 ) ;
#162 = ADVANCED_FACE ( 'NONE', ( #164 ), #32, .T. ) ;
#163 = DIRECTION ( 'NONE',  ( -0.0000000000000000000, -0.0000000000000000000, -1.000000000000000000 ) ) ;
#164 = FACE_OUTER_BOUND ( 'NONE', #23, .T. ) ;
#165 = AXIS2_PLACEMENT_3D ( 'NONE', #217, #265, #167 ) ;
#166 = FACE_OUTER_BOUND ( 'NONE', #139, .T. ) ;
#167 = DIRECTION ( 'NONE',  ( 1.000000000000000000, 0.0000000000000000000, -0.0000000000000000000 ) ) ;
#168 = AXIS2_PLACEMENT_3D ( 'NONE', #129, #60, #63 ) ;
#169 = DIRECTION ( 'NONE',  ( 0.7071067811865491270, 8.659560562354952580E-17, -0.7071067811865459074 ) ) ;
#170 = CIRCLE ( 'NONE', #200, 0.3787010000000002319 ) ;
#171 = FACE_OUTER_BOUND ( 'NONE', #299, .T. ) ;
#172 = DIRECTION ( 'NONE',  ( 1.000000000000000000, 0.0000000000000000000, -0.0000000000000000000 ) ) ;
#173 = AXIS2_PLACEMENT_3D ( 'NONE', #104, #157, #130 ) ;
#174 = ADVANCED_FACE ( 'NONE', ( #171 ), #149, .T. ) ;
#175 = MANIFOLD_SOLID_BREP ( 'Cut-Revolve1', #81 ) ;
#176 = DIRECTION ( 'NONE',  ( -1.000000000000000000, 0.0000000000000000000, 1.224646799147353207E-16 ) ) ;
#177 = CARTESIAN_POINT ( 'NONE',  ( -0.3787010000000002319, 0.0000000000000000000, 4.094488000000000127 ) ) ;
#178 = AXIS2_PLACEMENT_3D ( 'NONE', #271, #154, #244 ) ;
#179 = VECTOR ( 'NONE', #113, 39.37007874015748143 ) ;
#180 = ORIENTED_EDGE ( 'NONE', *, *, #128, .T. ) ;
#181 = VERTEX_POINT ( 'NONE', #199 ) ;
#182 = SURFACE_STYLE_USAGE ( .BOTH. , #94 ) ;
#183 = EDGE_LOOP ( 'NONE', ( #70, #209, #47, #137 ) ) ;
#184 = LINE ( 'NONE', #18, #126 ) ;
#185 = ORIENTED_EDGE ( 'NONE', *, *, #1, .F. ) ;
#186 = DIRECTION ( 'NONE',  ( -1.000000000000000000, 0.0000000000000000000, 0.0000000000000000000 ) ) ;
#187 = DIRECTION ( 'NONE',  ( -1.000000000000000000, 0.0000000000000000000, 1.224646799147353207E-16 ) ) ;
#188 = PRODUCT_DEFINITION_CONTEXT ( 'detailed design', #247, 'design' ) ;
#189 = AXIS2_PLACEMENT_3D ( 'NONE', #75, #242, #186 ) ;
#190 = DIRECTION ( 'NONE',  ( 1.224646799147353207E-16, 0.0000000000000000000, 1.000000000000000000 ) ) ;
#191 = DIRECTION ( 'NONE',  ( -0.0000000000000000000, -0.0000000000000000000, -1.000000000000000000 ) ) ;
#192 = CIRCLE ( 'NONE', #62, 0.3933072989999999991 ) ;
#193 = CARTESIAN_POINT ( 'NONE',  ( -0.3937009999999998011, 0.0000000000000000000, 1.773886789323664726 ) ) ;
#194 = CIRCLE ( 'NONE', #152, 0.3937009999999999676 ) ;
#195 = EDGE_CURVE ( 'NONE', #66, #181, #114, .T. ) ;
#196 =( CONVERSION_BASED_UNIT ( 'INCH', #202 ) LENGTH_UNIT ( ) NAMED_UNIT ( #99 ) );
#197 = DIRECTION ( 'NONE',  ( 0.0000000000000000000, 0.0000000000000000000, 1.000000000000000000 ) ) ;
#198 = VERTEX_POINT ( 'NONE', #177 ) ;
#199 = CARTESIAN_POINT ( 'NONE',  ( 0.3933072990000002767, 0.0000000000000000000, 1.771654000000000062 ) ) ;
#200 = AXIS2_PLACEMENT_3D ( 'NONE', #148, #8, #215 ) ;
#201 =( NAMED_UNIT ( * ) SI_UNIT ( $, .STERADIAN. ) SOLID_ANGLE_UNIT ( ) );
#202 = LENGTH_MEASURE_WITH_UNIT ( LENGTH_MEASURE( 0.02539999999999999897 ), #88 );
#203 = ORIENTED_EDGE ( 'NONE', *, *, #128, .F. ) ;
#204 = UNCERTAINTY_MEASURE_WITH_UNIT (LENGTH_MEASURE( 1.000000000000000082E-05 ), #196, 'distance_accuracy_value', 'NONE');
#205 = CARTESIAN_POINT ( 'NONE',  ( 0.0000000000000000000, 0.0000000000000000000, 0.0000000000000000000 ) ) ;
#206 =( NAMED_UNIT ( * ) PLANE_ANGLE_UNIT ( ) SI_UNIT ( $, .RADIAN. ) );
#207 = ORIENTED_EDGE ( 'NONE', *, *, #7, .F. ) ;
#208 = CARTESIAN_POINT ( 'NONE',  ( 0.0000000000000000000, 0.0000000000000000000, 0.0000000000000000000 ) ) ;
#209 = ORIENTED_EDGE ( 'NONE', *, *, #296, .T. ) ;
#210 =( GEOMETRIC_REPRESENTATION_CONTEXT ( 3 ) GLOBAL_UNCERTAINTY_ASSIGNED_CONTEXT ( ( #235 ) ) GLOBAL_UNIT_ASSIGNED_CONTEXT ( ( #91, #206, #112 ) ) REPRESENTATION_CONTEXT ( 'NONE', 'WORKASPACE' ) );
#211 = CYLINDRICAL_SURFACE ( 'NONE', #239, 0.3933072990000000546 ) ;
#212 = FACE_OUTER_BOUND ( 'NONE', #253, .T. ) ;
#213 = DIRECTION ( 'NONE',  ( 0.0000000000000000000, 0.0000000000000000000, 1.000000000000000000 ) ) ;
#214 = PRESENTATION_LAYER_ASSIGNMENT (  '', '', ( #103 ) ) ;
#215 = DIRECTION ( 'NONE',  ( 1.000000000000000000, 0.0000000000000000000, 0.0000000000000000000 ) ) ;
#216 = DIRECTION ( 'NONE',  ( -0.1736481776669310528, 2.126576849575781776E-17, 0.9848077530122080203 ) ) ;
#217 = CARTESIAN_POINT ( 'NONE',  ( 0.0000000000000000000, 0.0000000000000000000, 0.0000000000000000000 ) ) ;
#218 = AXIS2_PLACEMENT_3D ( 'NONE', #280, #213, #238 ) ;
#219 = CARTESIAN_POINT ( 'NONE',  ( 0.3937009999999999676, 4.821446694711121291E-17, 4.079488000000000447 ) ) ;
#220 = LINE ( 'NONE', #106, #36 ) ;
#221 = DIRECTION ( 'NONE',  ( -1.000000000000000000, 0.0000000000000000000, 0.0000000000000000000 ) ) ;
#222 = SURFACE_SIDE_STYLE ('',( #13 ) ) ;
#223 = PRODUCT_DEFINITION_SHAPE ( 'NONE', 'NONE',  #67 ) ;
#224 = DIRECTION ( 'NONE',  ( 1.000000000000000000, 0.0000000000000000000, 0.0000000000000000000 ) ) ;
#225 = ORIENTED_EDGE ( 'NONE', *, *, #141, .F. ) ;
#226 = VECTOR ( 'NONE', #267, 39.37007874015748143 ) ;
#227 = APPLICATION_PROTOCOL_DEFINITION ( 'draft international standard', 'automotive_design', 1998, #247 ) ;
#228 = ORIENTED_EDGE ( 'NONE', *, *, #229, .F. ) ;
#229 = EDGE_CURVE ( 'NONE', #252, #151, #156, .T. ) ;
#230 = ORIENTED_EDGE ( 'NONE', *, *, #229, .T. ) ;
#231 = ORIENTED_EDGE ( 'NONE', *, *, #25, .T. ) ;
#232 = AXIS2_PLACEMENT_3D ( 'NONE', #208, #108, #224 ) ;
#233 = ORIENTED_EDGE ( 'NONE', *, *, #107, .T. ) ;
#234 = CARTESIAN_POINT ( 'NONE',  ( 0.3933072990000002767, 0.0000000000000000000, 1.771654000000000062 ) ) ;
#235 = UNCERTAINTY_MEASURE_WITH_UNIT (LENGTH_MEASURE( 1.000000000000000082E-05 ), #91, 'distance_accuracy_value', 'NONE');
#236 = FACE_OUTER_BOUND ( 'NONE', #250, .T. ) ;
#237 = DIMENSIONAL_EXPONENTS ( 1.000000000000000000, 0.0000000000000000000, 0.0000000000000000000, 0.0000000000000000000, 0.0000000000000000000, 0.0000000000000000000, 0.0000000000000000000 ) ;
#238 = DIRECTION ( 'NONE',  ( 1.000000000000000000, 0.0000000000000000000, 0.0000000000000000000 ) ) ;
#239 = AXIS2_PLACEMENT_3D ( 'NONE', #205, #259, #276 ) ;
#240 = DIRECTION ( 'NONE',  ( 0.0000000000000000000, 0.0000000000000000000, -1.000000000000000000 ) ) ;
#241 = APPLICATION_CONTEXT ( 'automotive_design' ) ;
#242 = DIRECTION ( 'NONE',  ( 0.0000000000000000000, 0.0000000000000000000, -1.000000000000000000 ) ) ;
#243 = ADVANCED_FACE ( 'NONE', ( #131 ), #287, .T. ) ;
#244 = DIRECTION ( 'NONE',  ( -1.000000000000000000, 0.0000000000000000000, 0.0000000000000000000 ) ) ;
#245 = ORIENTED_EDGE ( 'NONE', *, *, #33, .F. ) ;
#246 = PRODUCT ( 'Micro_EMHM-200-6X', 'Micro_EMHM-200-6X', '', ( #136 ) ) ;
#247 = APPLICATION_CONTEXT ( 'automotive_design' ) ;
#248 = CARTESIAN_POINT ( 'NONE',  ( -0.3933072989999999991, 0.0000000000000000000, 9.633250496032820680E-17 ) ) ;
#249 = AXIS2_PLACEMENT_3D ( 'NONE', #73, #53, #54 ) ;
#250 = EDGE_LOOP ( 'NONE', ( #132, #39, #257, #71 ) ) ;
#251 = EDGE_CURVE ( 'NONE', #198, #69, #220, .T. ) ;
#252 = VERTEX_POINT ( 'NONE', #248 ) ;
#253 = EDGE_LOOP ( 'NONE', ( #294, #20, #228, #185 ) ) ;
#254 = CIRCLE ( 'NONE', #218, 0.3787010000000002319 ) ;
#255 = ORIENTED_EDGE ( 'NONE', *, *, #251, .F. ) ;
#256 = SHAPE_DEFINITION_REPRESENTATION ( #223, #87 ) ;
#257 = ORIENTED_EDGE ( 'NONE', *, *, #251, .T. ) ;
#258 = PRESENTATION_STYLE_ASSIGNMENT (( #182 ) ) ;
#259 = DIRECTION ( 'NONE',  ( -1.224646799147353207E-16, -0.0000000000000000000, -1.000000000000000000 ) ) ;
#260 = STYLED_ITEM ( 'NONE', ( #84 ), #175 ) ;
#261 = CARTESIAN_POINT ( 'NONE',  ( 0.0000000000000000000, 0.0000000000000000000, 4.094488000000000127 ) ) ;
#262 = CARTESIAN_POINT ( 'NONE',  ( -0.3933072989999998881, 4.819035971363765816E-17, 1.771654000000000062 ) ) ;
#263 = CARTESIAN_POINT ( 'NONE',  ( 0.3787010000000002319, 4.729598184775070620E-17, 4.094488000000000127 ) ) ;
#264 = ADVANCED_FACE ( 'NONE', ( #57 ), #50, .T. ) ;
#265 = DIRECTION ( 'NONE',  ( 0.0000000000000000000, 0.0000000000000000000, 1.000000000000000000 ) ) ;
#266 = AXIS2_PLACEMENT_3D ( 'NONE', #117, #278, #187 ) ;
#267 = DIRECTION ( 'NONE',  ( -0.0000000000000000000, -0.0000000000000000000, -1.000000000000000000 ) ) ;
#268 =( LENGTH_UNIT ( ) NAMED_UNIT ( * ) SI_UNIT ( $, .METRE. ) );
#269 = VECTOR ( 'NONE', #55, 39.37007874015748143 ) ;
#270 = DIRECTION ( 'NONE',  ( -1.224646799147353207E-16, -0.0000000000000000000, -1.000000000000000000 ) ) ;
#271 = CARTESIAN_POINT ( 'NONE',  ( 2.169650400296604887E-16, 0.0000000000000000000, 1.771654000000000062 ) ) ;
#272 = EDGE_CURVE ( 'NONE', #151, #252, #192, .T. ) ;
#273 = ORIENTED_EDGE ( 'NONE', *, *, #195, .F. ) ;
#274 = EDGE_LOOP ( 'NONE', ( #230, #43 ) ) ;
#275 = ORIENTED_EDGE ( 'NONE', *, *, #82, .T. ) ;
#276 = DIRECTION ( 'NONE',  ( -1.000000000000000000, 0.0000000000000000000, 1.224646799147353207E-16 ) ) ;
#277 = ORIENTED_EDGE ( 'NONE', *, *, #107, .F. ) ;
#278 = DIRECTION ( 'NONE',  ( -1.224646799147353207E-16, -0.0000000000000000000, -1.000000000000000000 ) ) ;
#279 = AXIS2_PLACEMENT_3D ( 'NONE', #286, #270, #221 ) ;
#280 = CARTESIAN_POINT ( 'NONE',  ( 0.0000000000000000000, 0.0000000000000000000, 4.094488000000000127 ) ) ;
#281 = DIRECTION ( 'NONE',  ( 1.000000000000000000, 0.0000000000000000000, 0.0000000000000000000 ) ) ;
#282 = CARTESIAN_POINT ( 'NONE',  ( 0.3787010000000002319, 4.637749674839021182E-17, 4.094488000000000127 ) ) ;
#283 = DIRECTION ( 'NONE',  ( -1.000000000000000000, 0.0000000000000000000, 0.0000000000000000000 ) ) ;
#284 = COLOUR_RGB ( '',0.7921568627450980005, 0.8196078431372548767, 0.9333333333333333481 ) ;
#285 =( NAMED_UNIT ( * ) SI_UNIT ( $, .STERADIAN. ) SOLID_ANGLE_UNIT ( ) );
#286 = CARTESIAN_POINT ( 'NONE',  ( 2.169650400296604887E-16, 0.0000000000000000000, 1.771654000000000062 ) ) ;
#287 = PLANE ( 'NONE',  #11 ) ;
#288 = DIRECTION ( 'NONE',  ( -1.224646799147353207E-16, -0.0000000000000000000, -1.000000000000000000 ) ) ;
#289 = UNCERTAINTY_MEASURE_WITH_UNIT (LENGTH_MEASURE( 1.000000000000000082E-05 ), #127, 'distance_accuracy_value', 'NONE');
#290 =( NAMED_UNIT ( * ) PLANE_ANGLE_UNIT ( ) SI_UNIT ( $, .RADIAN. ) );
#291 = MECHANICAL_DESIGN_GEOMETRIC_PRESENTATION_REPRESENTATION (  '', ( #260 ), #10 ) ;
#292 = AXIS2_PLACEMENT_3D ( 'NONE', #51, #52, #145 ) ;
#293 = CONICAL_SURFACE ( 'NONE', #142, 0.3933072990000000546, 0.1745329251994337805 ) ;
#294 = ORIENTED_EDGE ( 'NONE', *, *, #195, .T. ) ;
#295 = VERTEX_POINT ( 'NONE', #219 ) ;
#296 = EDGE_CURVE ( 'NONE', #181, #66, #135, .T. ) ;
#297 = APPLICATION_PROTOCOL_DEFINITION ( 'draft international standard', 'automotive_design', 1998, #241 ) ;
#298 = ORIENTED_EDGE ( 'NONE', *, *, #4, .F. ) ;
#299 = EDGE_LOOP ( 'NONE', ( #207, #231, #275, #225 ) ) ;
ENDSEC;
END-ISO-10303-21;
