ISO-10303-21;
HEADER;
FILE_DESCRIPTION (( 'STEP AP214' ),
    '1' );
FILE_NAME ('49195.STEP',
    '2023-06-30T21:58:06',
    ( '' ),
    ( '' ),
    'SwSTEP 2.0',
    'SolidWorks 2023',
    '' );
FILE_SCHEMA (( 'AUTOMOTIVE_DESIGN' ));
ENDSEC;

DATA;
#1 = DIRECTION ( 'NONE',  ( -0.000000000000000000, -1.000000000000000000, -0.000000000000000000 ) ) ;
#2 = AXIS2_PLACEMENT_3D ( 'NONE', #44, #265, #19 ) ;
#3 = DIMENSIONAL_EXPONENTS ( 1.000000000000000000, 0.000000000000000000, 0.000000000000000000, 0.000000000000000000, 0.000000000000000000, 0.000000000000000000, 0.000000000000000000 ) ;
#4 = MECHANICAL_DESIGN_GEOMETRIC_PRESENTATION_REPRESENTATION (  '', ( #114 ), #185 ) ;
#5 = CYLINDRICAL_SURFACE ( 'NONE', #54, 0.1874999999999999722 ) ;
#6 = FILL_AREA_STYLE_COLOUR ( '', #67 ) ;
#7 = AXIS2_PLACEMENT_3D ( 'NONE', #348, #99, #202 ) ;
#8 = APPLICATION_CONTEXT ( 'automotive_design' ) ;
#9 = PRODUCT_RELATED_PRODUCT_CATEGORY ( 'part', '', ( #359 ) ) ;
#10 = SURFACE_STYLE_USAGE ( .BOTH. , #213 ) ;
#11 = FILL_AREA_STYLE ('',( #6 ) ) ;
#12 = CARTESIAN_POINT ( 'NONE',  ( 0.000000000000000000, 0.1875000000000000833, -0.1874999999999999722 ) ) ;
#13 = FACE_OUTER_BOUND ( 'NONE', #302, .T. ) ;
#14 = MECHANICAL_DESIGN_GEOMETRIC_PRESENTATION_REPRESENTATION (  '', ( #75 ), #255 ) ;
#15 = FILL_AREA_STYLE_COLOUR ( '', #78 ) ;
#16 = FILL_AREA_STYLE_COLOUR ( '', #246 ) ;
#17 = APPLICATION_CONTEXT ( 'automotive_design' ) ;
#18 = EDGE_CURVE ( 'NONE', #308, #32, #112, .T. ) ;
#19 = DIRECTION ( 'NONE',  ( -1.000000000000000000, 0.000000000000000000, 0.000000000000000000 ) ) ;
#20 = AXIS2_PLACEMENT_3D ( 'NONE', #116, #216, #132 ) ;
#21 = CARTESIAN_POINT ( 'NONE',  ( 0.000000000000000000, 0.000000000000000000, 0.000000000000000000 ) ) ;
#22 =( NAMED_UNIT ( * ) PLANE_ANGLE_UNIT ( ) SI_UNIT ( $, .RADIAN. ) );
#23 = DIRECTION ( 'NONE',  ( 0.000000000000000000, 0.000000000000000000, 1.000000000000000000 ) ) ;
#24 = SURFACE_STYLE_USAGE ( .BOTH. , #271 ) ;
#25 = FACE_OUTER_BOUND ( 'NONE', #48, .T. ) ;
#26 =( NAMED_UNIT ( * ) PLANE_ANGLE_UNIT ( ) SI_UNIT ( $, .RADIAN. ) );
#27 = ADVANCED_FACE ( 'NONE', ( #125 ), #203, .F. ) ;
#28 = ORIENTED_EDGE ( 'NONE', *, *, #307, .T. ) ;
#29 = EDGE_LOOP ( 'NONE', ( #163, #161, #218, #28 ) ) ;
#30 = CIRCLE ( 'NONE', #20, 0.1874999999999996669 ) ;
#31 = CIRCLE ( 'NONE', #332, 0.1874999999999999722 ) ;
#32 = VERTEX_POINT ( 'NONE', #12 ) ;
#33 = ADVANCED_FACE ( 'NONE', ( #146 ), #89, .T. ) ;
#34 = ORIENTED_EDGE ( 'NONE', *, *, #150, .T. ) ;
#35 = DIRECTION ( 'NONE',  ( 0.000000000000000000, 0.000000000000000000, -1.000000000000000000 ) ) ;
#36 = EDGE_CURVE ( 'NONE', #158, #50, #350, .T. ) ;
#37 = SURFACE_STYLE_USAGE ( .BOTH. , #288 ) ;
#38 = MECHANICAL_DESIGN_GEOMETRIC_PRESENTATION_REPRESENTATION (  '', ( #52 ), #139 ) ;
#39 = LENGTH_MEASURE_WITH_UNIT ( LENGTH_MEASURE( 0.02539999999999999897 ), #138 );
#40 = FACE_OUTER_BOUND ( 'NONE', #250, .T. ) ;
#41 = STYLED_ITEM ( 'NONE', ( #179 ), #240 ) ;
#42 = DIRECTION ( 'NONE',  ( -0.000000000000000000, -1.000000000000000000, -0.000000000000000000 ) ) ;
#43 =( CONVERSION_BASED_UNIT ( 'INCH', #324 ) LENGTH_UNIT ( ) NAMED_UNIT ( #76 ) );
#44 = CARTESIAN_POINT ( 'NONE',  ( 1.224646799147353700E-16, 2.000000000000000000, 0.000000000000000000 ) ) ;
#45 = DIRECTION ( 'NONE',  ( -0.000000000000000000, -1.000000000000000000, -0.000000000000000000 ) ) ;
#46 = DIRECTION ( 'NONE',  ( -0.000000000000000000, -1.000000000000000000, -0.000000000000000000 ) ) ;
#47 = DIRECTION ( 'NONE',  ( -1.205004597867861339E-16, 1.000000000000000000, -0.000000000000000000 ) ) ;
#48 = EDGE_LOOP ( 'NONE', ( #368, #339 ) ) ;
#49 = DIRECTION ( 'NONE',  ( 1.224646799147353207E-16, -0.000000000000000000, 1.000000000000000000 ) ) ;
#50 = VERTEX_POINT ( 'NONE', #66 ) ;
#51 = LINE ( 'NONE', #180, #126 ) ;
#52 = STYLED_ITEM ( 'NONE', ( #120 ), #197 ) ;
#53 = VERTEX_POINT ( 'NONE', #68 ) ;
#54 = AXIS2_PLACEMENT_3D ( 'NONE', #285, #1, #286 ) ;
#55 = ORIENTED_EDGE ( 'NONE', *, *, #358, .F. ) ;
#56 =( NAMED_UNIT ( * ) SI_UNIT ( $, .STERADIAN. ) SOLID_ANGLE_UNIT ( ) );
#57 = ORIENTED_EDGE ( 'NONE', *, *, #291, .F. ) ;
#58 = PRESENTATION_STYLE_ASSIGNMENT (( #37 ) ) ;
#59 = CARTESIAN_POINT ( 'NONE',  ( -2.296212748401288034E-17, 0.1875000000000000555, 0.000000000000000000 ) ) ;
#60 = UNCERTAINTY_MEASURE_WITH_UNIT (LENGTH_MEASURE( 1.000000000000000082E-05 ), #342, 'distance_accuracy_value', 'NONE');
#61 = CLOSED_SHELL ( 'NONE', ( #177, #197, #234, #282, #317 ) ) ;
#62 = CARTESIAN_POINT ( 'NONE',  ( -1.148106374200644017E-17, 0.000000000000000000, 0.000000000000000000 ) ) ;
#63 = AXIS2_PLACEMENT_3D ( 'NONE', #212, #242, #181 ) ;
#64 = CIRCLE ( 'NONE', #65, 0.1874999999999999722 ) ;
#65 = AXIS2_PLACEMENT_3D ( 'NONE', #326, #205, #217 ) ;
#66 = CARTESIAN_POINT ( 'NONE',  ( 0.1874999999999999722, 2.000000000000000000, 2.296212748401284952E-17 ) ) ;
#67 = COLOUR_RGB ( '',1.000000000000000000, 0.000000000000000000, 0.000000000000000000 ) ;
#68 = CARTESIAN_POINT ( 'NONE',  ( 0.1874999999999999722, 0.1875000000000000833, 0.000000000000000000 ) ) ;
#69 = EDGE_CURVE ( 'NONE', #281, #308, #190, .T. ) ;
#70 =( NAMED_UNIT ( * ) PLANE_ANGLE_UNIT ( ) SI_UNIT ( $, .RADIAN. ) );
#71 = DIRECTION ( 'NONE',  ( 1.000000000000000000, 1.205004597867861339E-16, 0.000000000000000000 ) ) ;
#72 = PRODUCT_DEFINITION_CONTEXT ( 'detailed design', #17, 'design' ) ;
#73 =( LENGTH_UNIT ( ) NAMED_UNIT ( * ) SI_UNIT ( $, .METRE. ) );
#74 = CARTESIAN_POINT ( 'NONE',  ( -0.1875000000000000555, 0.1875000000000000833, 2.296212748401287109E-17 ) ) ;
#75 = STYLED_ITEM ( 'NONE', ( #305 ), #177 ) ;
#76 = DIMENSIONAL_EXPONENTS ( 1.000000000000000000, 0.000000000000000000, 0.000000000000000000, 0.000000000000000000, 0.000000000000000000, 0.000000000000000000, 0.000000000000000000 ) ;
#77 = ORIENTED_EDGE ( 'NONE', *, *, #334, .F. ) ;
#78 = COLOUR_RGB ( '',0.7921568627450980005, 0.8196078431372548767, 0.9333333333333333481 ) ;
#79 = SURFACE_STYLE_USAGE ( .BOTH. , #215 ) ;
#80 = ORIENTED_EDGE ( 'NONE', *, *, #129, .F. ) ;
#81 = LENGTH_MEASURE_WITH_UNIT ( LENGTH_MEASURE( 0.02539999999999999897 ), #141 );
#82 = SURFACE_STYLE_USAGE ( .BOTH. , #101 ) ;
#83 = ORIENTED_EDGE ( 'NONE', *, *, #36, .T. ) ;
#84 = EDGE_CURVE ( 'NONE', #158, #134, #30, .T. ) ;
#85 = VERTEX_POINT ( 'NONE', #74 ) ;
#86 = VECTOR ( 'NONE', #47, 39.37007874015748143 ) ;
#87 = STYLED_ITEM ( 'NONE', ( #336 ), #317 ) ;
#88 = EDGE_LOOP ( 'NONE', ( #337, #83, #304, #189 ) ) ;
#89 = CYLINDRICAL_SURFACE ( 'NONE', #7, 0.1874999999999997780 ) ;
#90 = ADVANCED_FACE ( 'NONE', ( #25 ), #298, .F. ) ;
#91 = DIRECTION ( 'NONE',  ( -0.000000000000000000, -1.000000000000000000, -0.000000000000000000 ) ) ;
#92 = UNCERTAINTY_MEASURE_WITH_UNIT (LENGTH_MEASURE( 1.000000000000000082E-05 ), #145, 'distance_accuracy_value', 'NONE');
#93 =( NAMED_UNIT ( * ) PLANE_ANGLE_UNIT ( ) SI_UNIT ( $, .RADIAN. ) );
#94 = SPHERICAL_SURFACE ( 'NONE', #174, 0.1875000000000000555 ) ;
#95 = SURFACE_STYLE_FILL_AREA ( #227 ) ;
#96 = DIRECTION ( 'NONE',  ( 0.000000000000000000, 0.000000000000000000, 1.000000000000000000 ) ) ;
#97 = COLOUR_RGB ( '',1.000000000000000000, 0.000000000000000000, 0.000000000000000000 ) ;
#98 = CARTESIAN_POINT ( 'NONE',  ( 0.000000000000000000, 0.5000000000000000000, -0.1874999999999999722 ) ) ;
#99 = DIRECTION ( 'NONE',  ( -1.205004597867861339E-16, 1.000000000000000000, -0.000000000000000000 ) ) ;
#100 =( CONVERSION_BASED_UNIT ( 'INCH', #105 ) LENGTH_UNIT ( ) NAMED_UNIT ( #290 ) );
#101 = SURFACE_SIDE_STYLE ('',( #109 ) ) ;
#102 = CIRCLE ( 'NONE', #300, 0.1875000000000000555 ) ;
#103 = FILL_AREA_STYLE ('',( #148 ) ) ;
#104 = DIRECTION ( 'NONE',  ( 0.000000000000000000, 0.000000000000000000, -1.000000000000000000 ) ) ;
#105 = LENGTH_MEASURE_WITH_UNIT ( LENGTH_MEASURE( 0.02539999999999999897 ), #237 );
#106 = CARTESIAN_POINT ( 'NONE',  ( -0.1874999999999993616, 0.5000000000000001110, 0.000000000000000000 ) ) ;
#107 = ORIENTED_EDGE ( 'NONE', *, *, #349, .F. ) ;
#108 = PRESENTATION_STYLE_ASSIGNMENT (( #24 ) ) ;
#109 = SURFACE_STYLE_FILL_AREA ( #276 ) ;
#110 = VERTEX_POINT ( 'NONE', #188 ) ;
#111 = EDGE_LOOP ( 'NONE', ( #55, #333 ) ) ;
#112 = LINE ( 'NONE', #164, #330 ) ;
#113 = ORIENTED_EDGE ( 'NONE', *, *, #18, .F. ) ;
#114 = STYLED_ITEM ( 'NONE', ( #108 ), #234 ) ;
#115 = CARTESIAN_POINT ( 'NONE',  ( 0.000000000000000000, 0.1875000000000000833, 0.000000000000000000 ) ) ;
#116 = CARTESIAN_POINT ( 'NONE',  ( 3.032153695949145708E-16, 0.5000000000000001110, 0.000000000000000000 ) ) ;
#117 = DIRECTION ( 'NONE',  ( 0.000000000000000000, 0.000000000000000000, -1.000000000000000000 ) ) ;
#118 = PRESENTATION_LAYER_ASSIGNMENT (  '', '', ( #52 ) ) ;
#119 = PRESENTATION_LAYER_ASSIGNMENT (  '', '', ( #133 ) ) ;
#120 = PRESENTATION_STYLE_ASSIGNMENT (( #289 ) ) ;
#121 = SPHERICAL_SURFACE ( 'NONE', #323, 0.1875000000000000555 ) ;
#122 = VECTOR ( 'NONE', #233, 39.37007874015748143 ) ;
#123 = SURFACE_STYLE_FILL_AREA ( #11 ) ;
#124 = EDGE_CURVE ( 'NONE', #110, #50, #279, .T. ) ;
#125 = FACE_OUTER_BOUND ( 'NONE', #111, .T. ) ;
#126 = VECTOR ( 'NONE', #45, 39.37007874015748143 ) ;
#127 = MECHANICAL_DESIGN_GEOMETRIC_PRESENTATION_REPRESENTATION (  '', ( #87 ), #344 ) ;
#128 = CYLINDRICAL_SURFACE ( 'NONE', #223, 0.1874999999999997780 ) ;
#129 = EDGE_CURVE ( 'NONE', #308, #281, #236, .T. ) ;
#130 = DIRECTION ( 'NONE',  ( 1.000000000000000000, 0.000000000000000000, 0.000000000000000000 ) ) ;
#131 = ORIENTED_EDGE ( 'NONE', *, *, #69, .F. ) ;
#132 = DIRECTION ( 'NONE',  ( -1.000000000000000000, 0.000000000000000000, 0.000000000000000000 ) ) ;
#133 = STYLED_ITEM ( 'NONE', ( #58 ), #282 ) ;
#134 = VERTEX_POINT ( 'NONE', #106 ) ;
#135 = ORIENTED_EDGE ( 'NONE', *, *, #18, .T. ) ;
#136 = DIRECTION ( 'NONE',  ( -0.000000000000000000, -1.000000000000000000, -0.000000000000000000 ) ) ;
#137 = FACE_OUTER_BOUND ( 'NONE', #249, .T. ) ;
#138 =( LENGTH_UNIT ( ) NAMED_UNIT ( * ) SI_UNIT ( $, .METRE. ) );
#139 =( GEOMETRIC_REPRESENTATION_CONTEXT ( 3 ) GLOBAL_UNCERTAINTY_ASSIGNED_CONTEXT ( ( #166 ) ) GLOBAL_UNIT_ASSIGNED_CONTEXT ( ( #235, #22, #241 ) ) REPRESENTATION_CONTEXT ( 'NONE', 'WORKASPACE' ) );
#140 = EDGE_CURVE ( 'NONE', #134, #110, #325, .T. ) ;
#141 =( LENGTH_UNIT ( ) NAMED_UNIT ( * ) SI_UNIT ( $, .METRE. ) );
#142 = AXIS2_PLACEMENT_3D ( 'NONE', #321, #154, #147 ) ;
#143 =( NAMED_UNIT ( * ) SI_UNIT ( $, .STERADIAN. ) SOLID_ANGLE_UNIT ( ) );
#144 = EDGE_CURVE ( 'NONE', #281, #274, #51, .T. ) ;
#145 =( CONVERSION_BASED_UNIT ( 'INCH', #228 ) LENGTH_UNIT ( ) NAMED_UNIT ( #3 ) );
#146 = FACE_OUTER_BOUND ( 'NONE', #88, .T. ) ;
#147 = DIRECTION ( 'NONE',  ( -1.000000000000000000, 0.000000000000000000, 0.000000000000000000 ) ) ;
#148 = FILL_AREA_STYLE_COLOUR ( '', #211 ) ;
#149 = DIRECTION ( 'NONE',  ( 0.000000000000000000, 0.000000000000000000, -1.000000000000000000 ) ) ;
#150 = EDGE_CURVE ( 'NONE', #85, #247, #267, .T. ) ;
#151 = DIRECTION ( 'NONE',  ( -1.205004597867861339E-16, 1.000000000000000000, -0.000000000000000000 ) ) ;
#152 = AXIS2_PLACEMENT_3D ( 'NONE', #335, #49, #157 ) ;
#153 = CARTESIAN_POINT ( 'NONE',  ( 0.1874999999999999722, 0.5000000000000001110, 2.296212748401284952E-17 ) ) ;
#154 = DIRECTION ( 'NONE',  ( -1.205004597867861339E-16, 1.000000000000000000, -0.000000000000000000 ) ) ;
#155 = FILL_AREA_STYLE ('',( #353 ) ) ;
#156 = PRESENTATION_LAYER_ASSIGNMENT (  '', '', ( #114 ) ) ;
#157 = DIRECTION ( 'NONE',  ( 1.000000000000000000, 0.000000000000000000, -1.224646799147353207E-16 ) ) ;
#158 = VERTEX_POINT ( 'NONE', #153 ) ;
#159 = FILL_AREA_STYLE_COLOUR ( '', #97 ) ;
#160 = ORIENTED_EDGE ( 'NONE', *, *, #129, .T. ) ;
#161 = ORIENTED_EDGE ( 'NONE', *, *, #299, .T. ) ;
#162 = CIRCLE ( 'NONE', #182, 0.1874999999999999722 ) ;
#163 = ORIENTED_EDGE ( 'NONE', *, *, #150, .F. ) ;
#164 = CARTESIAN_POINT ( 'NONE',  ( 0.000000000000000000, 0.000000000000000000, -0.1874999999999999722 ) ) ;
#165 = DIRECTION ( 'NONE',  ( -0.000000000000000000, -1.000000000000000000, -0.000000000000000000 ) ) ;
#166 = UNCERTAINTY_MEASURE_WITH_UNIT (LENGTH_MEASURE( 1.000000000000000082E-05 ), #235, 'distance_accuracy_value', 'NONE');
#167 =( GEOMETRIC_REPRESENTATION_CONTEXT ( 3 ) GLOBAL_UNCERTAINTY_ASSIGNED_CONTEXT ( ( #287 ) ) GLOBAL_UNIT_ASSIGNED_CONTEXT ( ( #366, #252, #258 ) ) REPRESENTATION_CONTEXT ( 'NONE', 'WORKASPACE' ) );
#168 = PRODUCT_DEFINITION ( 'UNKNOWN', '', #201, #72 ) ;
#169 = CIRCLE ( 'NONE', #2, 0.1874999999999998335 ) ;
#170 = SURFACE_STYLE_FILL_AREA ( #322 ) ;
#171 = MECHANICAL_DESIGN_GEOMETRIC_PRESENTATION_REPRESENTATION (  '', ( #310 ), #230 ) ;
#172 = SURFACE_SIDE_STYLE ('',( #170 ) ) ;
#173 = CARTESIAN_POINT ( 'NONE',  ( -2.296212748401288034E-17, 0.1875000000000000555, 0.000000000000000000 ) ) ;
#174 = AXIS2_PLACEMENT_3D ( 'NONE', #198, #96, #261 ) ;
#175 = PRESENTATION_LAYER_ASSIGNMENT (  '', '', ( #310 ) ) ;
#176 = SURFACE_STYLE_FILL_AREA ( #103 ) ;
#177 = ADVANCED_FACE ( 'NONE', ( #272 ), #94, .T. ) ;
#178 = PRODUCT_CONTEXT ( 'NONE', #8, 'mechanical' ) ;
#179 = PRESENTATION_STYLE_ASSIGNMENT (( #79 ) ) ;
#180 = CARTESIAN_POINT ( 'NONE',  ( 2.296212748401286801E-17, 0.000000000000000000, 0.1874999999999999722 ) ) ;
#181 = DIRECTION ( 'NONE',  ( -1.000000000000000000, 0.000000000000000000, 0.000000000000000000 ) ) ;
#182 = AXIS2_PLACEMENT_3D ( 'NONE', #195, #314, #315 ) ;
#183 = PRESENTATION_STYLE_ASSIGNMENT (( #10 ) ) ;
#184 = ORIENTED_EDGE ( 'NONE', *, *, #208, .F. ) ;
#185 =( GEOMETRIC_REPRESENTATION_CONTEXT ( 3 ) GLOBAL_UNCERTAINTY_ASSIGNED_CONTEXT ( ( #226 ) ) GLOBAL_UNIT_ASSIGNED_CONTEXT ( ( #100, #70, #303 ) ) REPRESENTATION_CONTEXT ( 'NONE', 'WORKASPACE' ) );
#186 = EDGE_LOOP ( 'NONE', ( #369, #34, #243, #365 ) ) ;
#187 = PRESENTATION_LAYER_ASSIGNMENT (  '', '', ( #75 ) ) ;
#188 = CARTESIAN_POINT ( 'NONE',  ( -0.1874999999999996947, 2.000000000000000000, 0.000000000000000000 ) ) ;
#189 = ORIENTED_EDGE ( 'NONE', *, *, #140, .F. ) ;
#190 = CIRCLE ( 'NONE', #343, 0.1874999999999999722 ) ;
#191 = ORIENTED_EDGE ( 'NONE', *, *, #36, .F. ) ;
#192 = ORIENTED_EDGE ( 'NONE', *, *, #69, .T. ) ;
#193 = CARTESIAN_POINT ( 'NONE',  ( 2.296212748401286801E-17, 0.1875000000000000833, 0.1874999999999999722 ) ) ;
#194 = CARTESIAN_POINT ( 'NONE',  ( 0.1874999999999999167, 2.000000000000000000, 2.296212748401284644E-17 ) ) ;
#195 = CARTESIAN_POINT ( 'NONE',  ( 0.000000000000000000, 0.1875000000000000833, 0.000000000000000000 ) ) ;
#196 = UNCERTAINTY_MEASURE_WITH_UNIT (LENGTH_MEASURE( 1.000000000000000082E-05 ), #295, 'distance_accuracy_value', 'NONE');
#197 = ADVANCED_FACE ( 'NONE', ( #269 ), #316, .T. ) ;
#198 = CARTESIAN_POINT ( 'NONE',  ( -2.296212748401288034E-17, 0.1875000000000000555, 0.000000000000000000 ) ) ;
#199 =( NAMED_UNIT ( * ) PLANE_ANGLE_UNIT ( ) SI_UNIT ( $, .RADIAN. ) );
#200 = AXIS2_PLACEMENT_3D ( 'NONE', #327, #46, #275 ) ;
#201 = PRODUCT_DEFINITION_FORMATION_WITH_SPECIFIED_SOURCE ( 'ANY', '', #359, .NOT_KNOWN. ) ;
#202 = DIRECTION ( 'NONE',  ( -1.000000000000000000, 0.000000000000000000, 0.000000000000000000 ) ) ;
#203 = PLANE ( 'NONE',  #251 ) ;
#204 =( NAMED_UNIT ( * ) PLANE_ANGLE_UNIT ( ) SI_UNIT ( $, .RADIAN. ) );
#205 = DIRECTION ( 'NONE',  ( -0.000000000000000000, -1.000000000000000000, -0.000000000000000000 ) ) ;
#206 =( LENGTH_UNIT ( ) NAMED_UNIT ( * ) SI_UNIT ( $, .METRE. ) );
#207 = AXIS2_PLACEMENT_3D ( 'NONE', #268, #42, #104 ) ;
#208 = EDGE_CURVE ( 'NONE', #50, #110, #169, .T. ) ;
#209 = FACE_OUTER_BOUND ( 'NONE', #29, .T. ) ;
#210 = SURFACE_STYLE_FILL_AREA ( #155 ) ;
#211 = COLOUR_RGB ( '',0.7921568627450980005, 0.8196078431372548767, 0.9333333333333333481 ) ;
#212 = CARTESIAN_POINT ( 'NONE',  ( 1.224646799147353700E-16, 2.000000000000000000, 0.000000000000000000 ) ) ;
#213 = SURFACE_SIDE_STYLE ('',( #331 ) ) ;
#214 = DIMENSIONAL_EXPONENTS ( 1.000000000000000000, 0.000000000000000000, 0.000000000000000000, 0.000000000000000000, 0.000000000000000000, 0.000000000000000000, 0.000000000000000000 ) ;
#215 = SURFACE_SIDE_STYLE ('',( #176 ) ) ;
#216 = DIRECTION ( 'NONE',  ( -1.205004597867861339E-16, 1.000000000000000000, -0.000000000000000000 ) ) ;
#217 = DIRECTION ( 'NONE',  ( 0.000000000000000000, 0.000000000000000000, -1.000000000000000000 ) ) ;
#218 = ORIENTED_EDGE ( 'NONE', *, *, #349, .T. ) ;
#219 = CLOSED_SHELL ( 'NONE', ( #33, #27, #221, #90 ) ) ;
#220 = AXIS2_PLACEMENT_3D ( 'NONE', #354, #301, #149 ) ;
#221 = ADVANCED_FACE ( 'NONE', ( #40 ), #128, .T. ) ;
#222 =( GEOMETRIC_REPRESENTATION_CONTEXT ( 3 ) GLOBAL_UNCERTAINTY_ASSIGNED_CONTEXT ( ( #329 ) ) GLOBAL_UNIT_ASSIGNED_CONTEXT ( ( #43, #204, #320 ) ) REPRESENTATION_CONTEXT ( 'NONE', 'WORKASPACE' ) );
#223 = AXIS2_PLACEMENT_3D ( 'NONE', #363, #151, #263 ) ;
#224 = ORIENTED_EDGE ( 'NONE', *, *, #299, .F. ) ;
#225 = AXIS2_PLACEMENT_3D ( 'NONE', #328, #367, #71 ) ;
#226 = UNCERTAINTY_MEASURE_WITH_UNIT (LENGTH_MEASURE( 1.000000000000000082E-05 ), #100, 'distance_accuracy_value', 'NONE');
#227 = FILL_AREA_STYLE ('',( #345 ) ) ;
#228 = LENGTH_MEASURE_WITH_UNIT ( LENGTH_MEASURE( 0.02539999999999999897 ), #206 );
#229 = DIRECTION ( 'NONE',  ( -1.000000000000000000, -1.205004597867861339E-16, 0.000000000000000000 ) ) ;
#230 =( GEOMETRIC_REPRESENTATION_CONTEXT ( 3 ) GLOBAL_UNCERTAINTY_ASSIGNED_CONTEXT ( ( #196 ) ) GLOBAL_UNIT_ASSIGNED_CONTEXT ( ( #295, #238, #239 ) ) REPRESENTATION_CONTEXT ( 'NONE', 'WORKASPACE' ) );
#231 = SURFACE_SIDE_STYLE ('',( #123 ) ) ;
#232 =( LENGTH_UNIT ( ) NAMED_UNIT ( * ) SI_UNIT ( $, .METRE. ) );
#233 = DIRECTION ( 'NONE',  ( -1.205004597867861339E-16, 1.000000000000000000, -0.000000000000000000 ) ) ;
#234 = ADVANCED_FACE ( 'NONE', ( #13 ), #357, .T. ) ;
#235 =( CONVERSION_BASED_UNIT ( 'INCH', #81 ) LENGTH_UNIT ( ) NAMED_UNIT ( #340 ) );
#236 = CIRCLE ( 'NONE', #220, 0.1874999999999999722 ) ;
#237 =( LENGTH_UNIT ( ) NAMED_UNIT ( * ) SI_UNIT ( $, .METRE. ) );
#238 =( NAMED_UNIT ( * ) PLANE_ANGLE_UNIT ( ) SI_UNIT ( $, .RADIAN. ) );
#239 =( NAMED_UNIT ( * ) SI_UNIT ( $, .STERADIAN. ) SOLID_ANGLE_UNIT ( ) );
#240 = MANIFOLD_SOLID_BREP ( 'Revolve - Cutting Edge', #61 ) ;
#241 =( NAMED_UNIT ( * ) SI_UNIT ( $, .STERADIAN. ) SOLID_ANGLE_UNIT ( ) );
#242 = DIRECTION ( 'NONE',  ( -1.205004597867861339E-16, 1.000000000000000000, -0.000000000000000000 ) ) ;
#243 = ORIENTED_EDGE ( 'NONE', *, *, #307, .F. ) ;
#244 = LENGTH_MEASURE_WITH_UNIT ( LENGTH_MEASURE( 0.02539999999999999897 ), #73 );
#245 = CARTESIAN_POINT ( 'NONE',  ( -0.1874999999999996392, 2.000000000000000000, 0.000000000000000000 ) ) ;
#246 = COLOUR_RGB ( '',1.000000000000000000, 0.000000000000000000, 0.000000000000000000 ) ;
#247 = VERTEX_POINT ( 'NONE', #62 ) ;
#248 = MECHANICAL_DESIGN_GEOMETRIC_PRESENTATION_REPRESENTATION (  '', ( #41 ), #167 ) ;
#249 = EDGE_LOOP ( 'NONE', ( #284, #192, #135, #224, #77 ) ) ;
#250 = EDGE_LOOP ( 'NONE', ( #191, #278, #312, #184 ) ) ;
#251 = AXIS2_PLACEMENT_3D ( 'NONE', #264, #253, #229 ) ;
#252 =( NAMED_UNIT ( * ) PLANE_ANGLE_UNIT ( ) SI_UNIT ( $, .RADIAN. ) );
#253 = DIRECTION ( 'NONE',  ( -1.205004597867861339E-16, 1.000000000000000000, 0.000000000000000000 ) ) ;
#254 = DIRECTION ( 'NONE',  ( 0.000000000000000000, 0.000000000000000000, -1.000000000000000000 ) ) ;
#255 =( GEOMETRIC_REPRESENTATION_CONTEXT ( 3 ) GLOBAL_UNCERTAINTY_ASSIGNED_CONTEXT ( ( #92 ) ) GLOBAL_UNIT_ASSIGNED_CONTEXT ( ( #145, #199, #143 ) ) REPRESENTATION_CONTEXT ( 'NONE', 'WORKASPACE' ) );
#256 = MECHANICAL_DESIGN_GEOMETRIC_PRESENTATION_REPRESENTATION (  '', ( #133 ), #260 ) ;
#257 =( NAMED_UNIT ( * ) SI_UNIT ( $, .STERADIAN. ) SOLID_ANGLE_UNIT ( ) );
#258 =( NAMED_UNIT ( * ) SI_UNIT ( $, .STERADIAN. ) SOLID_ANGLE_UNIT ( ) );
#259 = DIRECTION ( 'NONE',  ( 1.000000000000000000, 0.000000000000000000, 0.000000000000000000 ) ) ;
#260 =( GEOMETRIC_REPRESENTATION_CONTEXT ( 3 ) GLOBAL_UNCERTAINTY_ASSIGNED_CONTEXT ( ( #60 ) ) GLOBAL_UNIT_ASSIGNED_CONTEXT ( ( #342, #93, #257 ) ) REPRESENTATION_CONTEXT ( 'NONE', 'WORKASPACE' ) );
#261 = DIRECTION ( 'NONE',  ( 1.000000000000000000, 0.000000000000000000, 0.000000000000000000 ) ) ;
#262 =( LENGTH_UNIT ( ) NAMED_UNIT ( * ) SI_UNIT ( $, .METRE. ) );
#263 = DIRECTION ( 'NONE',  ( -1.000000000000000000, 0.000000000000000000, 0.000000000000000000 ) ) ;
#264 = CARTESIAN_POINT ( 'NONE',  ( 3.032153695949145708E-16, 0.5000000000000000000, 0.000000000000000000 ) ) ;
#265 = DIRECTION ( 'NONE',  ( -1.205004597867861339E-16, 1.000000000000000000, -0.000000000000000000 ) ) ;
#266 = DIRECTION ( 'NONE',  ( 0.000000000000000000, 0.000000000000000000, 1.000000000000000000 ) ) ;
#267 = CIRCLE ( 'NONE', #152, 0.1875000000000000555 ) ;
#268 = CARTESIAN_POINT ( 'NONE',  ( 0.000000000000000000, 0.1875000000000000833, 0.000000000000000000 ) ) ;
#269 = FACE_OUTER_BOUND ( 'NONE', #311, .T. ) ;
#270 =( LENGTH_UNIT ( ) NAMED_UNIT ( * ) SI_UNIT ( $, .METRE. ) );
#271 = SURFACE_SIDE_STYLE ('',( #210 ) ) ;
#272 = FACE_OUTER_BOUND ( 'NONE', #186, .T. ) ;
#273 = APPLICATION_PROTOCOL_DEFINITION ( 'draft international standard', 'automotive_design', 1998, #17 ) ;
#274 = VERTEX_POINT ( 'NONE', #193 ) ;
#275 = DIRECTION ( 'NONE',  ( 0.000000000000000000, 0.000000000000000000, -1.000000000000000000 ) ) ;
#276 = FILL_AREA_STYLE ('',( #159 ) ) ;
#277 = SURFACE_STYLE_USAGE ( .BOTH. , #172 ) ;
#278 = ORIENTED_EDGE ( 'NONE', *, *, #84, .T. ) ;
#279 = CIRCLE ( 'NONE', #63, 0.1874999999999998335 ) ;
#280 = DIMENSIONAL_EXPONENTS ( 1.000000000000000000, 0.000000000000000000, 0.000000000000000000, 0.000000000000000000, 0.000000000000000000, 0.000000000000000000, 0.000000000000000000 ) ;
#281 = VERTEX_POINT ( 'NONE', #313 ) ;
#282 = ADVANCED_FACE ( 'NONE', ( #137 ), #5, .T. ) ;
#283 = ORIENTED_EDGE ( 'NONE', *, *, #144, .T. ) ;
#284 = ORIENTED_EDGE ( 'NONE', *, *, #144, .F. ) ;
#285 = CARTESIAN_POINT ( 'NONE',  ( 0.000000000000000000, 0.000000000000000000, 0.000000000000000000 ) ) ;
#286 = DIRECTION ( 'NONE',  ( 0.000000000000000000, 0.000000000000000000, -1.000000000000000000 ) ) ;
#287 = UNCERTAINTY_MEASURE_WITH_UNIT (LENGTH_MEASURE( 1.000000000000000082E-05 ), #366, 'distance_accuracy_value', 'NONE');
#288 = SURFACE_SIDE_STYLE ('',( #95 ) ) ;
#289 = SURFACE_STYLE_USAGE ( .BOTH. , #231 ) ;
#290 = DIMENSIONAL_EXPONENTS ( 1.000000000000000000, 0.000000000000000000, 0.000000000000000000, 0.000000000000000000, 0.000000000000000000, 0.000000000000000000, 0.000000000000000000 ) ;
#291 = EDGE_CURVE ( 'NONE', #53, #274, #31, .T. ) ;
#292 = CARTESIAN_POINT ( 'NONE',  ( 0.000000000000000000, 0.5000000000000000000, 0.000000000000000000 ) ) ;
#293 = COLOUR_RGB ( '',1.000000000000000000, 0.000000000000000000, 0.000000000000000000 ) ;
#294 = DIRECTION ( 'NONE',  ( 0.000000000000000000, 1.000000000000000000, 0.000000000000000000 ) ) ;
#295 =( CONVERSION_BASED_UNIT ( 'INCH', #351 ) LENGTH_UNIT ( ) NAMED_UNIT ( #280 ) );
#296 = CARTESIAN_POINT ( 'NONE',  ( 0.000000000000000000, 0.5000000000000000000, 0.000000000000000000 ) ) ;
#297 = COLOUR_RGB ( '',1.000000000000000000, 0.000000000000000000, 0.000000000000000000 ) ;
#298 = PLANE ( 'NONE',  #225 ) ;
#299 = EDGE_CURVE ( 'NONE', #85, #32, #162, .T. ) ;
#300 = AXIS2_PLACEMENT_3D ( 'NONE', #59, #117, #352 ) ;
#301 = DIRECTION ( 'NONE',  ( -0.000000000000000000, -1.000000000000000000, -0.000000000000000000 ) ) ;
#302 = EDGE_LOOP ( 'NONE', ( #80, #131 ) ) ;
#303 =( NAMED_UNIT ( * ) SI_UNIT ( $, .STERADIAN. ) SOLID_ANGLE_UNIT ( ) );
#304 = ORIENTED_EDGE ( 'NONE', *, *, #124, .F. ) ;
#305 = PRESENTATION_STYLE_ASSIGNMENT (( #82 ) ) ;
#306 =( CONVERSION_BASED_UNIT ( 'INCH', #309 ) LENGTH_UNIT ( ) NAMED_UNIT ( #214 ) );
#307 = EDGE_CURVE ( 'NONE', #53, #247, #102, .T. ) ;
#308 = VERTEX_POINT ( 'NONE', #98 ) ;
#309 = LENGTH_MEASURE_WITH_UNIT ( LENGTH_MEASURE( 0.02539999999999999897 ), #270 );
#310 = STYLED_ITEM ( 'NONE', ( #183 ), #372 ) ;
#311 = EDGE_LOOP ( 'NONE', ( #160, #283, #57, #107, #113 ) ) ;
#312 = ORIENTED_EDGE ( 'NONE', *, *, #140, .T. ) ;
#313 = CARTESIAN_POINT ( 'NONE',  ( 2.296212748401286801E-17, 0.5000000000000000000, 0.1874999999999999722 ) ) ;
#314 = DIRECTION ( 'NONE',  ( -0.000000000000000000, -1.000000000000000000, -0.000000000000000000 ) ) ;
#315 = DIRECTION ( 'NONE',  ( 0.000000000000000000, 0.000000000000000000, -1.000000000000000000 ) ) ;
#316 = CYLINDRICAL_SURFACE ( 'NONE', #200, 0.1874999999999999722 ) ;
#317 = ADVANCED_FACE ( 'NONE', ( #209 ), #121, .T. ) ;
#318 = PRESENTATION_LAYER_ASSIGNMENT (  '', '', ( #87 ) ) ;
#319 = AXIS2_PLACEMENT_3D ( 'NONE', #296, #294, #362 ) ;
#320 =( NAMED_UNIT ( * ) SI_UNIT ( $, .STERADIAN. ) SOLID_ANGLE_UNIT ( ) );
#321 = CARTESIAN_POINT ( 'NONE',  ( 3.032153695949145708E-16, 0.5000000000000001110, 0.000000000000000000 ) ) ;
#322 = FILL_AREA_STYLE ('',( #16 ) ) ;
#323 = AXIS2_PLACEMENT_3D ( 'NONE', #173, #266, #259 ) ;
#324 = LENGTH_MEASURE_WITH_UNIT ( LENGTH_MEASURE( 0.02539999999999999897 ), #262 );
#325 = LINE ( 'NONE', #245, #86 ) ;
#326 = CARTESIAN_POINT ( 'NONE',  ( 0.000000000000000000, 0.1875000000000000833, 0.000000000000000000 ) ) ;
#327 = CARTESIAN_POINT ( 'NONE',  ( 0.000000000000000000, 0.000000000000000000, 0.000000000000000000 ) ) ;
#328 = CARTESIAN_POINT ( 'NONE',  ( 0.1874999999999999722, 2.000000000000000000, 0.000000000000000000 ) ) ;
#329 = UNCERTAINTY_MEASURE_WITH_UNIT (LENGTH_MEASURE( 1.000000000000000082E-05 ), #43, 'distance_accuracy_value', 'NONE');
#330 = VECTOR ( 'NONE', #136, 39.37007874015748143 ) ;
#331 = SURFACE_STYLE_FILL_AREA ( #360 ) ;
#332 = AXIS2_PLACEMENT_3D ( 'NONE', #115, #91, #254 ) ;
#333 = ORIENTED_EDGE ( 'NONE', *, *, #84, .F. ) ;
#334 = EDGE_CURVE ( 'NONE', #274, #85, #356, .T. ) ;
#335 = CARTESIAN_POINT ( 'NONE',  ( -2.296212748401288034E-17, 0.1875000000000000555, 0.000000000000000000 ) ) ;
#336 = PRESENTATION_STYLE_ASSIGNMENT (( #277 ) ) ;
#337 = ORIENTED_EDGE ( 'NONE', *, *, #358, .T. ) ;
#338 = CIRCLE ( 'NONE', #142, 0.1874999999999996669 ) ;
#339 = ORIENTED_EDGE ( 'NONE', *, *, #208, .T. ) ;
#340 = DIMENSIONAL_EXPONENTS ( 1.000000000000000000, 0.000000000000000000, 0.000000000000000000, 0.000000000000000000, 0.000000000000000000, 0.000000000000000000, 0.000000000000000000 ) ;
#341 = UNCERTAINTY_MEASURE_WITH_UNIT (LENGTH_MEASURE( 1.000000000000000082E-05 ), #306, 'distance_accuracy_value', 'NONE');
#342 =( CONVERSION_BASED_UNIT ( 'INCH', #39 ) LENGTH_UNIT ( ) NAMED_UNIT ( #347 ) );
#343 = AXIS2_PLACEMENT_3D ( 'NONE', #292, #165, #35 ) ;
#344 =( GEOMETRIC_REPRESENTATION_CONTEXT ( 3 ) GLOBAL_UNCERTAINTY_ASSIGNED_CONTEXT ( ( #341 ) ) GLOBAL_UNIT_ASSIGNED_CONTEXT ( ( #306, #26, #56 ) ) REPRESENTATION_CONTEXT ( 'NONE', 'WORKASPACE' ) );
#345 = FILL_AREA_STYLE_COLOUR ( '', #293 ) ;
#346 = ADVANCED_BREP_SHAPE_REPRESENTATION ( '49195', ( #240, #372, #373 ), #222 ) ;
#347 = DIMENSIONAL_EXPONENTS ( 1.000000000000000000, 0.000000000000000000, 0.000000000000000000, 0.000000000000000000, 0.000000000000000000, 0.000000000000000000, 0.000000000000000000 ) ;
#348 = CARTESIAN_POINT ( 'NONE',  ( 1.224646799147353700E-16, 2.000000000000000000, 0.000000000000000000 ) ) ;
#349 = EDGE_CURVE ( 'NONE', #32, #53, #64, .T. ) ;
#350 = LINE ( 'NONE', #194, #122 ) ;
#351 = LENGTH_MEASURE_WITH_UNIT ( LENGTH_MEASURE( 0.02539999999999999897 ), #232 );
#352 = DIRECTION ( 'NONE',  ( -1.000000000000000000, 0.000000000000000000, 0.000000000000000000 ) ) ;
#353 = FILL_AREA_STYLE_COLOUR ( '', #297 ) ;
#354 = CARTESIAN_POINT ( 'NONE',  ( 0.000000000000000000, 0.5000000000000000000, 0.000000000000000000 ) ) ;
#355 = APPLICATION_PROTOCOL_DEFINITION ( 'draft international standard', 'automotive_design', 1998, #8 ) ;
#356 = CIRCLE ( 'NONE', #207, 0.1874999999999999722 ) ;
#357 = PLANE ( 'NONE',  #319 ) ;
#358 = EDGE_CURVE ( 'NONE', #134, #158, #338, .T. ) ;
#359 = PRODUCT ( '49195', '49195', '', ( #178 ) ) ;
#360 = FILL_AREA_STYLE ('',( #15 ) ) ;
#361 = PRESENTATION_LAYER_ASSIGNMENT (  '', '', ( #41 ) ) ;
#362 = DIRECTION ( 'NONE',  ( 0.000000000000000000, -0.000000000000000000, 1.000000000000000000 ) ) ;
#363 = CARTESIAN_POINT ( 'NONE',  ( 1.224646799147353700E-16, 2.000000000000000000, 0.000000000000000000 ) ) ;
#364 = SHAPE_DEFINITION_REPRESENTATION ( #371, #346 ) ;
#365 = ORIENTED_EDGE ( 'NONE', *, *, #291, .T. ) ;
#366 =( CONVERSION_BASED_UNIT ( 'INCH', #244 ) LENGTH_UNIT ( ) NAMED_UNIT ( #370 ) );
#367 = DIRECTION ( 'NONE',  ( 1.205004597867861339E-16, -1.000000000000000000, 0.000000000000000000 ) ) ;
#368 = ORIENTED_EDGE ( 'NONE', *, *, #124, .T. ) ;
#369 = ORIENTED_EDGE ( 'NONE', *, *, #334, .T. ) ;
#370 = DIMENSIONAL_EXPONENTS ( 1.000000000000000000, 0.000000000000000000, 0.000000000000000000, 0.000000000000000000, 0.000000000000000000, 0.000000000000000000, 0.000000000000000000 ) ;
#371 = PRODUCT_DEFINITION_SHAPE ( 'NONE', 'NONE',  #168 ) ;
#372 = MANIFOLD_SOLID_BREP ( 'Revolve - Tool Body (Straight Shanked)', #219 ) ;
#373 = AXIS2_PLACEMENT_3D ( 'NONE', #21, #23, #130 ) ;
ENDSEC;
END-ISO-10303-21;
