ISO-10303-21;
HEADER;
FILE_DESCRIPTION (( 'STEP AP214' ),
    '1' );
FILE_NAME ('07001.STEP',
    '2023-07-12T13:04:47',
    ( '' ),
    ( '' ),
    'SwSTEP 2.0',
    'SolidWorks 2023',
    '' );
FILE_SCHEMA (( 'AUTOMOTIVE_DESIGN' ));
ENDSEC;

DATA;
#1 = SURFACE_STYLE_FILL_AREA ( #70 ) ;
#2 = AXIS2_PLACEMENT_3D ( 'NONE', #288, #68, #211 ) ;
#3 = DIRECTION ( 'NONE',  ( -1.000000000000000000, 0.000000000000000000, 0.000000000000000000 ) ) ;
#4 = SURFACE_STYLE_FILL_AREA ( #237 ) ;
#5 = AXIS2_PLACEMENT_3D ( 'NONE', #301, #178, #170 ) ;
#6 = ADVANCED_FACE ( 'NONE', ( #105 ), #220, .T. ) ;
#7 = DIRECTION ( 'NONE',  ( 0.000000000000000000, 0.000000000000000000, -1.000000000000000000 ) ) ;
#8 = CARTESIAN_POINT ( 'NONE',  ( -6.123233995736766036E-17, 2.500000000000000000, 0.000000000000000000 ) ) ;
#9 = PRESENTATION_LAYER_ASSIGNMENT (  '', '', ( #238 ) ) ;
#10 = FACE_OUTER_BOUND ( 'NONE', #201, .T. ) ;
#11 = VERTEX_POINT ( 'NONE', #83 ) ;
#12 =( CONVERSION_BASED_UNIT ( 'INCH', #32 ) LENGTH_UNIT ( ) NAMED_UNIT ( #38 ) );
#13 = ORIENTED_EDGE ( 'NONE', *, *, #64, .F. ) ;
#14 = AXIS2_PLACEMENT_3D ( 'NONE', #166, #132, #172 ) ;
#15 =( LENGTH_UNIT ( ) NAMED_UNIT ( * ) SI_UNIT ( $, .METRE. ) );
#16 = AXIS2_PLACEMENT_3D ( 'NONE', #90, #228, #46 ) ;
#17 = DIRECTION ( 'NONE',  ( -0.000000000000000000, -1.000000000000000000, -0.000000000000000000 ) ) ;
#18 = ORIENTED_EDGE ( 'NONE', *, *, #88, .F. ) ;
#19 = VECTOR ( 'NONE', #309, 39.37007874015748143 ) ;
#20 = DIRECTION ( 'NONE',  ( -1.212590130962537138E-16, 1.000000000000000000, -0.000000000000000000 ) ) ;
#21 = CARTESIAN_POINT ( 'NONE',  ( -0.1249999999999999584, 2.500000000000000000, 0.000000000000000000 ) ) ;
#22 = FACE_OUTER_BOUND ( 'NONE', #133, .T. ) ;
#23 = DIRECTION ( 'NONE',  ( 6.123233995736777129E-17, 0.8660254037844380415, -0.5000000000000008882 ) ) ;
#24 = CARTESIAN_POINT ( 'NONE',  ( -6.123233995736766036E-17, 2.500000000000000000, 0.000000000000000000 ) ) ;
#25 = CARTESIAN_POINT ( 'NONE',  ( 0.000000000000000000, 0.000000000000000000, 0.000000000000000000 ) ) ;
#26 = FILL_AREA_STYLE_COLOUR ( '', #267 ) ;
#27 = CIRCLE ( 'NONE', #120, 0.1250000000000000278 ) ;
#28 = MANIFOLD_SOLID_BREP ( 'Revolve - Tool Body (Tipped Off)', #285 ) ;
#29 = CIRCLE ( 'NONE', #80, 0.1249999999999999584 ) ;
#30 = DIRECTION ( 'NONE',  ( 0.000000000000000000, 0.000000000000000000, -1.000000000000000000 ) ) ;
#31 =( NAMED_UNIT ( * ) SI_UNIT ( $, .STERADIAN. ) SOLID_ANGLE_UNIT ( ) );
#32 = LENGTH_MEASURE_WITH_UNIT ( LENGTH_MEASURE( 0.02539999999999999897 ), #177 );
#33 = PRESENTATION_STYLE_ASSIGNMENT (( #77 ) ) ;
#34 =( NAMED_UNIT ( * ) PLANE_ANGLE_UNIT ( ) SI_UNIT ( $, .RADIAN. ) );
#35 = VERTEX_POINT ( 'NONE', #48 ) ;
#36 = CIRCLE ( 'NONE', #229, 0.1249999999999997363 ) ;
#37 = SURFACE_STYLE_FILL_AREA ( #300 ) ;
#38 = DIMENSIONAL_EXPONENTS ( 1.000000000000000000, 0.000000000000000000, 0.000000000000000000, 0.000000000000000000, 0.000000000000000000, 0.000000000000000000, 0.000000000000000000 ) ;
#39 = SURFACE_STYLE_USAGE ( .BOTH. , #93 ) ;
#40 = EDGE_LOOP ( 'NONE', ( #13, #304 ) ) ;
#41 = EDGE_CURVE ( 'NONE', #35, #174, #156, .T. ) ;
#42 = CARTESIAN_POINT ( 'NONE',  ( 3.673940397442059190E-18, 0.000000000000000000, -0.02999999999999999889 ) ) ;
#43 =( GEOMETRIC_REPRESENTATION_CONTEXT ( 3 ) GLOBAL_UNCERTAINTY_ASSIGNED_CONTEXT ( ( #114 ) ) GLOBAL_UNIT_ASSIGNED_CONTEXT ( ( #137, #258, #205 ) ) REPRESENTATION_CONTEXT ( 'NONE', 'WORKASPACE' ) );
#44 = SHAPE_DEFINITION_REPRESENTATION ( #47, #218 ) ;
#45 = AXIS2_PLACEMENT_3D ( 'NONE', #159, #20, #65 ) ;
#46 = DIRECTION ( 'NONE',  ( 0.000000000000000000, 0.000000000000000000, -1.000000000000000000 ) ) ;
#47 = PRODUCT_DEFINITION_SHAPE ( 'NONE', 'NONE',  #197 ) ;
#48 = CARTESIAN_POINT ( 'NONE',  ( 9.491012693391984829E-18, 0.000000000000000000, -0.02999999999999999889 ) ) ;
#49 = FILL_AREA_STYLE ('',( #232 ) ) ;
#50 = PRODUCT_DEFINITION_FORMATION_WITH_SPECIFIED_SOURCE ( 'ANY', '', #115, .NOT_KNOWN. ) ;
#51 =( NAMED_UNIT ( * ) SI_UNIT ( $, .STERADIAN. ) SOLID_ANGLE_UNIT ( ) );
#52 =( NAMED_UNIT ( * ) PLANE_ANGLE_UNIT ( ) SI_UNIT ( $, .RADIAN. ) );
#53 = EDGE_CURVE ( 'NONE', #108, #279, #306, .T. ) ;
#54 = MECHANICAL_DESIGN_GEOMETRIC_PRESENTATION_REPRESENTATION (  '', ( #305 ), #283 ) ;
#55 = AXIS2_PLACEMENT_3D ( 'NONE', #293, #187, #216 ) ;
#56 =( CONVERSION_BASED_UNIT ( 'INCH', #189 ) LENGTH_UNIT ( ) NAMED_UNIT ( #155 ) );
#57 = DIRECTION ( 'NONE',  ( 0.000000000000000000, 0.000000000000000000, -1.000000000000000000 ) ) ;
#58 = EDGE_LOOP ( 'NONE', ( #79, #81, #199, #18 ) ) ;
#59 =( GEOMETRIC_REPRESENTATION_CONTEXT ( 3 ) GLOBAL_UNCERTAINTY_ASSIGNED_CONTEXT ( ( #153 ) ) GLOBAL_UNIT_ASSIGNED_CONTEXT ( ( #56, #52, #51 ) ) REPRESENTATION_CONTEXT ( 'NONE', 'WORKASPACE' ) );
#60 = ORIENTED_EDGE ( 'NONE', *, *, #264, .T. ) ;
#61 = SURFACE_SIDE_STYLE ('',( #37 ) ) ;
#62 =( NAMED_UNIT ( * ) PLANE_ANGLE_UNIT ( ) SI_UNIT ( $, .RADIAN. ) );
#63 = EDGE_LOOP ( 'NONE', ( #112, #191, #277, #275 ) ) ;
#64 = EDGE_CURVE ( 'NONE', #108, #11, #82, .T. ) ;
#65 = DIRECTION ( 'NONE',  ( -1.000000000000000000, 0.000000000000000000, 0.000000000000000000 ) ) ;
#66 =( NAMED_UNIT ( * ) PLANE_ANGLE_UNIT ( ) SI_UNIT ( $, .RADIAN. ) );
#67 = EDGE_CURVE ( 'NONE', #174, #224, #206, .T. ) ;
#68 = DIRECTION ( 'NONE',  ( 0.000000000000000000, 1.000000000000000000, 0.000000000000000000 ) ) ;
#69 = CONICAL_SURFACE ( 'NONE', #2, 0.02999999999999999889, 0.5235987755982999259 ) ;
#70 = FILL_AREA_STYLE ('',( #251 ) ) ;
#71 = CIRCLE ( 'NONE', #213, 0.1250000000000000278 ) ;
#72 = DIRECTION ( 'NONE',  ( -1.000000000000000000, 0.000000000000000000, 0.000000000000000000 ) ) ;
#73 = VECTOR ( 'NONE', #23, 39.37007874015748143 ) ;
#74 = FACE_OUTER_BOUND ( 'NONE', #40, .T. ) ;
#75 = AXIS2_PLACEMENT_3D ( 'NONE', #24, #142, #140 ) ;
#76 = FILL_AREA_STYLE ('',( #26 ) ) ;
#77 = SURFACE_STYLE_USAGE ( .BOTH. , #61 ) ;
#78 =( CONVERSION_BASED_UNIT ( 'INCH', #129 ) LENGTH_UNIT ( ) NAMED_UNIT ( #139 ) );
#79 = ORIENTED_EDGE ( 'NONE', *, *, #217, .F. ) ;
#80 = AXIS2_PLACEMENT_3D ( 'NONE', #276, #17, #57 ) ;
#81 = ORIENTED_EDGE ( 'NONE', *, *, #41, .T. ) ;
#82 = CIRCLE ( 'NONE', #45, 0.1249999999999997363 ) ;
#83 = CARTESIAN_POINT ( 'NONE',  ( 0.1249999999999999445, 0.1645448267190428582, 1.530808498934190893E-17 ) ) ;
#84 = SURFACE_SIDE_STYLE ('',( #226 ) ) ;
#85 = EDGE_LOOP ( 'NONE', ( #158, #130, #272, #60 ) ) ;
#86 = AXIS2_PLACEMENT_3D ( 'NONE', #110, #107, #280 ) ;
#87 = LINE ( 'NONE', #184, #173 ) ;
#88 = EDGE_CURVE ( 'NONE', #104, #224, #87, .T. ) ;
#89 = EDGE_CURVE ( 'NONE', #11, #196, #235, .T. ) ;
#90 = CARTESIAN_POINT ( 'NONE',  ( 0.000000000000000000, 0.1645448267190428582, 0.000000000000000000 ) ) ;
#91 = CIRCLE ( 'NONE', #163, 0.02999999999999999889 ) ;
#92 = COLOUR_RGB ( '',1.000000000000000000, 0.000000000000000000, 0.000000000000000000 ) ;
#93 = SURFACE_SIDE_STYLE ('',( #259 ) ) ;
#94 = DIMENSIONAL_EXPONENTS ( 1.000000000000000000, 0.000000000000000000, 0.000000000000000000, 0.000000000000000000, 0.000000000000000000, 0.000000000000000000, 0.000000000000000000 ) ;
#95 = CARTESIAN_POINT ( 'NONE',  ( 1.530808498934190893E-17, 0.1645448267190428582, -0.1249999999999999445 ) ) ;
#96 = FILL_AREA_STYLE_COLOUR ( '', #119 ) ;
#97 = MECHANICAL_DESIGN_GEOMETRIC_PRESENTATION_REPRESENTATION (  '', ( #244 ), #240 ) ;
#98 =( NAMED_UNIT ( * ) SI_UNIT ( $, .STERADIAN. ) SOLID_ANGLE_UNIT ( ) );
#99 = ADVANCED_FACE ( 'NONE', ( #116 ), #69, .T. ) ;
#100 = CARTESIAN_POINT ( 'NONE',  ( 2.219626494852214481E-16, 0.1645448267190428582, 0.000000000000000000 ) ) ;
#101 = AXIS2_PLACEMENT_3D ( 'NONE', #268, #212, #190 ) ;
#102 =( LENGTH_UNIT ( ) NAMED_UNIT ( * ) SI_UNIT ( $, .METRE. ) );
#103 = UNCERTAINTY_MEASURE_WITH_UNIT (LENGTH_MEASURE( 1.000000000000000082E-05 ), #118, 'distance_accuracy_value', 'NONE');
#104 = VERTEX_POINT ( 'NONE', #287 ) ;
#105 = FACE_OUTER_BOUND ( 'NONE', #63, .T. ) ;
#106 = ADVANCED_FACE ( 'NONE', ( #22 ), #180, .T. ) ;
#107 = DIRECTION ( 'NONE',  ( 1.212590130962537138E-16, -1.000000000000000000, 0.000000000000000000 ) ) ;
#108 = VERTEX_POINT ( 'NONE', #193 ) ;
#109 = MECHANICAL_DESIGN_GEOMETRIC_PRESENTATION_REPRESENTATION (  '', ( #113 ), #291 ) ;
#110 = CARTESIAN_POINT ( 'NONE',  ( 0.1249999999999999584, 2.500000000000000000, 0.000000000000000000 ) ) ;
#111 = EDGE_LOOP ( 'NONE', ( #286, #303 ) ) ;
#112 = ORIENTED_EDGE ( 'NONE', *, *, #64, .T. ) ;
#113 = STYLED_ITEM ( 'NONE', ( #135 ), #106 ) ;
#114 = UNCERTAINTY_MEASURE_WITH_UNIT (LENGTH_MEASURE( 1.000000000000000082E-05 ), #137, 'distance_accuracy_value', 'NONE');
#115 = PRODUCT ( '07001', '07001', '', ( #117 ) ) ;
#116 = FACE_OUTER_BOUND ( 'NONE', #58, .T. ) ;
#117 = PRODUCT_CONTEXT ( 'NONE', #122, 'mechanical' ) ;
#118 =( CONVERSION_BASED_UNIT ( 'INCH', #208 ) LENGTH_UNIT ( ) NAMED_UNIT ( #94 ) );
#119 = COLOUR_RGB ( '',1.000000000000000000, 0.000000000000000000, 0.000000000000000000 ) ;
#120 = AXIS2_PLACEMENT_3D ( 'NONE', #8, #271, #72 ) ;
#121 = SURFACE_SIDE_STYLE ('',( #1 ) ) ;
#122 = APPLICATION_CONTEXT ( 'automotive_design' ) ;
#123 = PRESENTATION_STYLE_ASSIGNMENT (( #296 ) ) ;
#124 = ADVANCED_FACE ( 'NONE', ( #265 ), #215, .T. ) ;
#125 = DIRECTION ( 'NONE',  ( -0.000000000000000000, -1.000000000000000000, -0.000000000000000000 ) ) ;
#126 = PRESENTATION_LAYER_ASSIGNMENT (  '', '', ( #113 ) ) ;
#127 = PRESENTATION_STYLE_ASSIGNMENT (( #273 ) ) ;
#128 = PRESENTATION_LAYER_ASSIGNMENT (  '', '', ( #305 ) ) ;
#129 = LENGTH_MEASURE_WITH_UNIT ( LENGTH_MEASURE( 0.02539999999999999897 ), #249 );
#130 = ORIENTED_EDGE ( 'NONE', *, *, #260, .F. ) ;
#131 = ORIENTED_EDGE ( 'NONE', *, *, #171, .T. ) ;
#132 = DIRECTION ( 'NONE',  ( 0.000000000000000000, 1.000000000000000000, 0.000000000000000000 ) ) ;
#133 = EDGE_LOOP ( 'NONE', ( #245, #194 ) ) ;
#134 = PRESENTATION_LAYER_ASSIGNMENT (  '', '', ( #270 ) ) ;
#135 = PRESENTATION_STYLE_ASSIGNMENT (( #186 ) ) ;
#136 = COLOUR_RGB ( '',1.000000000000000000, 0.000000000000000000, 0.000000000000000000 ) ;
#137 =( CONVERSION_BASED_UNIT ( 'INCH', #243 ) LENGTH_UNIT ( ) NAMED_UNIT ( #175 ) );
#138 = DIRECTION ( 'NONE',  ( -1.212590130962537138E-16, 1.000000000000000000, -0.000000000000000000 ) ) ;
#139 = DIMENSIONAL_EXPONENTS ( 1.000000000000000000, 0.000000000000000000, 0.000000000000000000, 0.000000000000000000, 0.000000000000000000, 0.000000000000000000, 0.000000000000000000 ) ;
#140 = DIRECTION ( 'NONE',  ( -1.000000000000000000, 0.000000000000000000, 0.000000000000000000 ) ) ;
#141 = DIRECTION ( 'NONE',  ( -1.000000000000000000, -1.212590130962537138E-16, 0.000000000000000000 ) ) ;
#142 = DIRECTION ( 'NONE',  ( -1.212590130962537138E-16, 1.000000000000000000, -0.000000000000000000 ) ) ;
#143 = MECHANICAL_DESIGN_GEOMETRIC_PRESENTATION_REPRESENTATION (  '', ( #270 ), #302 ) ;
#144 = DIRECTION ( 'NONE',  ( -1.000000000000000000, 0.000000000000000000, 0.000000000000000000 ) ) ;
#145 = EDGE_CURVE ( 'NONE', #196, #279, #27, .T. ) ;
#146 = UNCERTAINTY_MEASURE_WITH_UNIT (LENGTH_MEASURE( 1.000000000000000082E-05 ), #161, 'distance_accuracy_value', 'NONE');
#147 = EDGE_LOOP ( 'NONE', ( #202, #222, #281, #248 ) ) ;
#148 =( NAMED_UNIT ( * ) PLANE_ANGLE_UNIT ( ) SI_UNIT ( $, .RADIAN. ) );
#149 = CLOSED_SHELL ( 'NONE', ( #99, #106, #256, #181 ) ) ;
#150 = CARTESIAN_POINT ( 'NONE',  ( -0.1250000000000001110, 2.500000000000000000, 0.000000000000000000 ) ) ;
#151 = FILL_AREA_STYLE_COLOUR ( '', #185 ) ;
#152 = EDGE_CURVE ( 'NONE', #11, #108, #36, .T. ) ;
#153 = UNCERTAINTY_MEASURE_WITH_UNIT (LENGTH_MEASURE( 1.000000000000000082E-05 ), #56, 'distance_accuracy_value', 'NONE');
#154 = FILL_AREA_STYLE_COLOUR ( '', #136 ) ;
#155 = DIMENSIONAL_EXPONENTS ( 1.000000000000000000, 0.000000000000000000, 0.000000000000000000, 0.000000000000000000, 0.000000000000000000, 0.000000000000000000, 0.000000000000000000 ) ;
#156 = LINE ( 'NONE', #42, #73 ) ;
#157 = UNCERTAINTY_MEASURE_WITH_UNIT (LENGTH_MEASURE( 1.000000000000000082E-05 ), #250, 'distance_accuracy_value', 'NONE');
#158 = ORIENTED_EDGE ( 'NONE', *, *, #41, .F. ) ;
#159 = CARTESIAN_POINT ( 'NONE',  ( 2.219626494852214481E-16, 0.1645448267190428582, 0.000000000000000000 ) ) ;
#160 = APPLICATION_PROTOCOL_DEFINITION ( 'draft international standard', 'automotive_design', 1998, #263 ) ;
#161 =( CONVERSION_BASED_UNIT ( 'INCH', #209 ) LENGTH_UNIT ( ) NAMED_UNIT ( #284 ) );
#162 = DIRECTION ( 'NONE',  ( 0.000000000000000000, 0.8660254037844380415, 0.5000000000000008882 ) ) ;
#163 = AXIS2_PLACEMENT_3D ( 'NONE', #246, #297, #30 ) ;
#164 = DIRECTION ( 'NONE',  ( -1.212590130962537138E-16, 1.000000000000000000, -0.000000000000000000 ) ) ;
#165 = PLANE ( 'NONE',  #225 ) ;
#166 = CARTESIAN_POINT ( 'NONE',  ( 0.000000000000000000, 0.000000000000000000, 0.000000000000000000 ) ) ;
#167 =( GEOMETRIC_REPRESENTATION_CONTEXT ( 3 ) GLOBAL_UNCERTAINTY_ASSIGNED_CONTEXT ( ( #179 ) ) GLOBAL_UNIT_ASSIGNED_CONTEXT ( ( #78, #148, #169 ) ) REPRESENTATION_CONTEXT ( 'NONE', 'WORKASPACE' ) );
#168 = CARTESIAN_POINT ( 'NONE',  ( 2.219626494852213988E-16, 0.1645448267190428582, 0.000000000000000000 ) ) ;
#169 =( NAMED_UNIT ( * ) SI_UNIT ( $, .STERADIAN. ) SOLID_ANGLE_UNIT ( ) );
#170 = DIRECTION ( 'NONE',  ( -1.000000000000000000, 0.000000000000000000, 0.000000000000000000 ) ) ;
#171 = EDGE_CURVE ( 'NONE', #279, #196, #71, .T. ) ;
#172 = DIRECTION ( 'NONE',  ( 0.000000000000000000, 0.000000000000000000, 1.000000000000000000 ) ) ;
#173 = VECTOR ( 'NONE', #162, 39.37007874015748143 ) ;
#174 = VERTEX_POINT ( 'NONE', #95 ) ;
#175 = DIMENSIONAL_EXPONENTS ( 1.000000000000000000, 0.000000000000000000, 0.000000000000000000, 0.000000000000000000, 0.000000000000000000, 0.000000000000000000, 0.000000000000000000 ) ;
#176 = LENGTH_MEASURE_WITH_UNIT ( LENGTH_MEASURE( 0.02539999999999999897 ), #15 );
#177 =( LENGTH_UNIT ( ) NAMED_UNIT ( * ) SI_UNIT ( $, .METRE. ) );
#178 = DIRECTION ( 'NONE',  ( -1.212590130962537138E-16, 1.000000000000000000, -0.000000000000000000 ) ) ;
#179 = UNCERTAINTY_MEASURE_WITH_UNIT (LENGTH_MEASURE( 1.000000000000000082E-05 ), #78, 'distance_accuracy_value', 'NONE');
#180 = PLANE ( 'NONE',  #55 ) ;
#181 = ADVANCED_FACE ( 'NONE', ( #214 ), #295, .T. ) ;
#182 = ORIENTED_EDGE ( 'NONE', *, *, #145, .T. ) ;
#183 =( NAMED_UNIT ( * ) SI_UNIT ( $, .STERADIAN. ) SOLID_ANGLE_UNIT ( ) );
#184 = CARTESIAN_POINT ( 'NONE',  ( 0.000000000000000000, 0.000000000000000000, 0.02999999999999999889 ) ) ;
#185 = COLOUR_RGB ( '',0.7921568627450980005, 0.8196078431372548767, 0.9333333333333333481 ) ;
#186 = SURFACE_STYLE_USAGE ( .BOTH. , #121 ) ;
#187 = DIRECTION ( 'NONE',  ( 0.000000000000000000, 1.000000000000000000, 0.000000000000000000 ) ) ;
#188 = CIRCLE ( 'NONE', #210, 0.02999999999999999889 ) ;
#189 = LENGTH_MEASURE_WITH_UNIT ( LENGTH_MEASURE( 0.02539999999999999897 ), #239 );
#190 = DIRECTION ( 'NONE',  ( 0.000000000000000000, 0.000000000000000000, -1.000000000000000000 ) ) ;
#191 = ORIENTED_EDGE ( 'NONE', *, *, #89, .T. ) ;
#192 = CARTESIAN_POINT ( 'NONE',  ( 0.000000000000000000, 0.1645448267190428582, 0.1249999999999999445 ) ) ;
#193 = CARTESIAN_POINT ( 'NONE',  ( -0.1249999999999995143, 0.1645448267190428582, 0.000000000000000000 ) ) ;
#194 = ORIENTED_EDGE ( 'NONE', *, *, #67, .F. ) ;
#195 =( NAMED_UNIT ( * ) SI_UNIT ( $, .STERADIAN. ) SOLID_ANGLE_UNIT ( ) );
#196 = VERTEX_POINT ( 'NONE', #294 ) ;
#197 = PRODUCT_DEFINITION ( 'UNKNOWN', '', #50, #204 ) ;
#198 = COLOUR_RGB ( '',1.000000000000000000, 0.000000000000000000, 0.000000000000000000 ) ;
#199 = ORIENTED_EDGE ( 'NONE', *, *, #67, .T. ) ;
#200 = SURFACE_STYLE_USAGE ( .BOTH. , #84 ) ;
#201 = EDGE_LOOP ( 'NONE', ( #131, #182 ) ) ;
#202 = ORIENTED_EDGE ( 'NONE', *, *, #89, .F. ) ;
#203 = ADVANCED_FACE ( 'NONE', ( #74 ), #165, .F. ) ;
#204 = PRODUCT_DEFINITION_CONTEXT ( 'detailed design', #263, 'design' ) ;
#205 =( NAMED_UNIT ( * ) SI_UNIT ( $, .STERADIAN. ) SOLID_ANGLE_UNIT ( ) );
#206 = CIRCLE ( 'NONE', #16, 0.1249999999999999584 ) ;
#207 = CARTESIAN_POINT ( 'NONE',  ( 0.000000000000000000, 0.000000000000000000, 0.000000000000000000 ) ) ;
#208 = LENGTH_MEASURE_WITH_UNIT ( LENGTH_MEASURE( 0.02539999999999999897 ), #290 );
#209 = LENGTH_MEASURE_WITH_UNIT ( LENGTH_MEASURE( 0.02539999999999999897 ), #255 );
#210 = AXIS2_PLACEMENT_3D ( 'NONE', #25, #125, #7 ) ;
#211 = DIRECTION ( 'NONE',  ( 0.000000000000000000, 0.000000000000000000, 1.000000000000000000 ) ) ;
#212 = DIRECTION ( 'NONE',  ( 0.000000000000000000, -1.000000000000000000, -0.000000000000000000 ) ) ;
#213 = AXIS2_PLACEMENT_3D ( 'NONE', #242, #164, #3 ) ;
#214 = FACE_OUTER_BOUND ( 'NONE', #111, .T. ) ;
#215 = CYLINDRICAL_SURFACE ( 'NONE', #75, 0.1249999999999999029 ) ;
#216 = DIRECTION ( 'NONE',  ( 0.000000000000000000, -0.000000000000000000, 1.000000000000000000 ) ) ;
#217 = EDGE_CURVE ( 'NONE', #35, #104, #188, .T. ) ;
#218 = ADVANCED_BREP_SHAPE_REPRESENTATION ( '07001', ( #241, #28, #254 ), #43 ) ;
#219 = FACE_OUTER_BOUND ( 'NONE', #85, .T. ) ;
#220 = CYLINDRICAL_SURFACE ( 'NONE', #5, 0.1249999999999999029 ) ;
#221 = SURFACE_SIDE_STYLE ('',( #247 ) ) ;
#222 = ORIENTED_EDGE ( 'NONE', *, *, #152, .T. ) ;
#223 = PLANE ( 'NONE',  #86 ) ;
#224 = VERTEX_POINT ( 'NONE', #192 ) ;
#225 = AXIS2_PLACEMENT_3D ( 'NONE', #168, #266, #141 ) ;
#226 = SURFACE_STYLE_FILL_AREA ( #76 ) ;
#227 = DIRECTION ( 'NONE',  ( 1.000000000000000000, 0.000000000000000000, 0.000000000000000000 ) ) ;
#228 = DIRECTION ( 'NONE',  ( -0.000000000000000000, -1.000000000000000000, -0.000000000000000000 ) ) ;
#229 = AXIS2_PLACEMENT_3D ( 'NONE', #100, #236, #144 ) ;
#230 = STYLED_ITEM ( 'NONE', ( #278 ), #241 ) ;
#231 = DIRECTION ( 'NONE',  ( 0.000000000000000000, 0.000000000000000000, 1.000000000000000000 ) ) ;
#232 = FILL_AREA_STYLE_COLOUR ( '', #92 ) ;
#233 = PRESENTATION_LAYER_ASSIGNMENT (  '', '', ( #244 ) ) ;
#234 = MECHANICAL_DESIGN_GEOMETRIC_PRESENTATION_REPRESENTATION (  '', ( #238 ), #59 ) ;
#235 = LINE ( 'NONE', #253, #257 ) ;
#236 = DIRECTION ( 'NONE',  ( -1.212590130962537138E-16, 1.000000000000000000, -0.000000000000000000 ) ) ;
#237 = FILL_AREA_STYLE ('',( #96 ) ) ;
#238 = STYLED_ITEM ( 'NONE', ( #123 ), #181 ) ;
#239 =( LENGTH_UNIT ( ) NAMED_UNIT ( * ) SI_UNIT ( $, .METRE. ) );
#240 =( GEOMETRIC_REPRESENTATION_CONTEXT ( 3 ) GLOBAL_UNCERTAINTY_ASSIGNED_CONTEXT ( ( #103 ) ) GLOBAL_UNIT_ASSIGNED_CONTEXT ( ( #118, #307, #183 ) ) REPRESENTATION_CONTEXT ( 'NONE', 'WORKASPACE' ) );
#241 = MANIFOLD_SOLID_BREP ( 'Revolve - Cutting Edge', #149 ) ;
#242 = CARTESIAN_POINT ( 'NONE',  ( -6.123233995736766036E-17, 2.500000000000000000, 0.000000000000000000 ) ) ;
#243 = LENGTH_MEASURE_WITH_UNIT ( LENGTH_MEASURE( 0.02539999999999999897 ), #102 );
#244 = STYLED_ITEM ( 'NONE', ( #292 ), #99 ) ;
#245 = ORIENTED_EDGE ( 'NONE', *, *, #264, .F. ) ;
#246 = CARTESIAN_POINT ( 'NONE',  ( 0.000000000000000000, 0.000000000000000000, 0.000000000000000000 ) ) ;
#247 = SURFACE_STYLE_FILL_AREA ( #299 ) ;
#248 = ORIENTED_EDGE ( 'NONE', *, *, #145, .F. ) ;
#249 =( LENGTH_UNIT ( ) NAMED_UNIT ( * ) SI_UNIT ( $, .METRE. ) );
#250 =( CONVERSION_BASED_UNIT ( 'INCH', #176 ) LENGTH_UNIT ( ) NAMED_UNIT ( #252 ) );
#251 = FILL_AREA_STYLE_COLOUR ( '', #198 ) ;
#252 = DIMENSIONAL_EXPONENTS ( 1.000000000000000000, 0.000000000000000000, 0.000000000000000000, 0.000000000000000000, 0.000000000000000000, 0.000000000000000000, 0.000000000000000000 ) ;
#253 = CARTESIAN_POINT ( 'NONE',  ( 0.1249999999999998335, 2.500000000000000000, 1.530808498934190276E-17 ) ) ;
#254 = AXIS2_PLACEMENT_3D ( 'NONE', #207, #231, #227 ) ;
#255 =( LENGTH_UNIT ( ) NAMED_UNIT ( * ) SI_UNIT ( $, .METRE. ) );
#256 = ADVANCED_FACE ( 'NONE', ( #219 ), #274, .T. ) ;
#257 = VECTOR ( 'NONE', #138, 39.37007874015748143 ) ;
#258 =( NAMED_UNIT ( * ) PLANE_ANGLE_UNIT ( ) SI_UNIT ( $, .RADIAN. ) );
#259 = SURFACE_STYLE_FILL_AREA ( #49 ) ;
#260 = EDGE_CURVE ( 'NONE', #104, #35, #91, .T. ) ;
#261 = MECHANICAL_DESIGN_GEOMETRIC_PRESENTATION_REPRESENTATION (  '', ( #230 ), #167 ) ;
#262 = SURFACE_SIDE_STYLE ('',( #4 ) ) ;
#263 = APPLICATION_CONTEXT ( 'automotive_design' ) ;
#264 = EDGE_CURVE ( 'NONE', #224, #174, #29, .T. ) ;
#265 = FACE_OUTER_BOUND ( 'NONE', #147, .T. ) ;
#266 = DIRECTION ( 'NONE',  ( -1.212590130962537138E-16, 1.000000000000000000, 0.000000000000000000 ) ) ;
#267 = COLOUR_RGB ( '',0.7921568627450980005, 0.8196078431372548767, 0.9333333333333333481 ) ;
#268 = CARTESIAN_POINT ( 'NONE',  ( 0.000000000000000000, 0.000000000000000000, 0.000000000000000000 ) ) ;
#269 = PRODUCT_RELATED_PRODUCT_CATEGORY ( 'part', '', ( #115 ) ) ;
#270 = STYLED_ITEM ( 'NONE', ( #33 ), #28 ) ;
#271 = DIRECTION ( 'NONE',  ( -1.212590130962537138E-16, 1.000000000000000000, -0.000000000000000000 ) ) ;
#272 = ORIENTED_EDGE ( 'NONE', *, *, #88, .T. ) ;
#273 = SURFACE_STYLE_USAGE ( .BOTH. , #221 ) ;
#274 = CONICAL_SURFACE ( 'NONE', #14, 0.02999999999999999889, 0.5235987755982999259 ) ;
#275 = ORIENTED_EDGE ( 'NONE', *, *, #53, .F. ) ;
#276 = CARTESIAN_POINT ( 'NONE',  ( 0.000000000000000000, 0.1645448267190428582, 0.000000000000000000 ) ) ;
#277 = ORIENTED_EDGE ( 'NONE', *, *, #171, .F. ) ;
#278 = PRESENTATION_STYLE_ASSIGNMENT (( #200 ) ) ;
#279 = VERTEX_POINT ( 'NONE', #150 ) ;
#280 = DIRECTION ( 'NONE',  ( 1.000000000000000000, 1.212590130962537138E-16, 0.000000000000000000 ) ) ;
#281 = ORIENTED_EDGE ( 'NONE', *, *, #53, .T. ) ;
#282 = ADVANCED_FACE ( 'NONE', ( #10 ), #223, .F. ) ;
#283 =( GEOMETRIC_REPRESENTATION_CONTEXT ( 3 ) GLOBAL_UNCERTAINTY_ASSIGNED_CONTEXT ( ( #298 ) ) GLOBAL_UNIT_ASSIGNED_CONTEXT ( ( #12, #34, #195 ) ) REPRESENTATION_CONTEXT ( 'NONE', 'WORKASPACE' ) );
#284 = DIMENSIONAL_EXPONENTS ( 1.000000000000000000, 0.000000000000000000, 0.000000000000000000, 0.000000000000000000, 0.000000000000000000, 0.000000000000000000, 0.000000000000000000 ) ;
#285 = CLOSED_SHELL ( 'NONE', ( #6, #203, #124, #282 ) ) ;
#286 = ORIENTED_EDGE ( 'NONE', *, *, #260, .T. ) ;
#287 = CARTESIAN_POINT ( 'NONE',  ( 0.000000000000000000, 0.000000000000000000, 0.02999999999999999889 ) ) ;
#288 = CARTESIAN_POINT ( 'NONE',  ( 0.000000000000000000, 0.000000000000000000, 0.000000000000000000 ) ) ;
#289 = PRESENTATION_LAYER_ASSIGNMENT (  '', '', ( #230 ) ) ;
#290 =( LENGTH_UNIT ( ) NAMED_UNIT ( * ) SI_UNIT ( $, .METRE. ) );
#291 =( GEOMETRIC_REPRESENTATION_CONTEXT ( 3 ) GLOBAL_UNCERTAINTY_ASSIGNED_CONTEXT ( ( #146 ) ) GLOBAL_UNIT_ASSIGNED_CONTEXT ( ( #161, #66, #98 ) ) REPRESENTATION_CONTEXT ( 'NONE', 'WORKASPACE' ) );
#292 = PRESENTATION_STYLE_ASSIGNMENT (( #39 ) ) ;
#293 = CARTESIAN_POINT ( 'NONE',  ( 0.000000000000000000, 0.1645448267190428582, 0.000000000000000000 ) ) ;
#294 = CARTESIAN_POINT ( 'NONE',  ( 0.1249999999999999445, 2.500000000000000000, 1.530808498934190893E-17 ) ) ;
#295 = PLANE ( 'NONE',  #101 ) ;
#296 = SURFACE_STYLE_USAGE ( .BOTH. , #262 ) ;
#297 = DIRECTION ( 'NONE',  ( -0.000000000000000000, -1.000000000000000000, -0.000000000000000000 ) ) ;
#298 = UNCERTAINTY_MEASURE_WITH_UNIT (LENGTH_MEASURE( 1.000000000000000082E-05 ), #12, 'distance_accuracy_value', 'NONE');
#299 = FILL_AREA_STYLE ('',( #154 ) ) ;
#300 = FILL_AREA_STYLE ('',( #151 ) ) ;
#301 = CARTESIAN_POINT ( 'NONE',  ( -6.123233995736766036E-17, 2.500000000000000000, 0.000000000000000000 ) ) ;
#302 =( GEOMETRIC_REPRESENTATION_CONTEXT ( 3 ) GLOBAL_UNCERTAINTY_ASSIGNED_CONTEXT ( ( #157 ) ) GLOBAL_UNIT_ASSIGNED_CONTEXT ( ( #250, #62, #31 ) ) REPRESENTATION_CONTEXT ( 'NONE', 'WORKASPACE' ) );
#303 = ORIENTED_EDGE ( 'NONE', *, *, #217, .T. ) ;
#304 = ORIENTED_EDGE ( 'NONE', *, *, #152, .F. ) ;
#305 = STYLED_ITEM ( 'NONE', ( #127 ), #256 ) ;
#306 = LINE ( 'NONE', #21, #19 ) ;
#307 =( NAMED_UNIT ( * ) PLANE_ANGLE_UNIT ( ) SI_UNIT ( $, .RADIAN. ) );
#308 = APPLICATION_PROTOCOL_DEFINITION ( 'draft international standard', 'automotive_design', 1998, #122 ) ;
#309 = DIRECTION ( 'NONE',  ( -1.212590130962537138E-16, 1.000000000000000000, -0.000000000000000000 ) ) ;
ENDSEC;
END-ISO-10303-21;
