ISO-10303-21;
HEADER;
FILE_DESCRIPTION (( 'STEP AP214' ),
    '1' );
FILE_NAME ('Micro_KC-500-750-103.STEP',
    '2021-09-03T19:56:07',
    ( '' ),
    ( '' ),
    'SwSTEP 2.0',
    'SolidWorks 2020',
    '' );
FILE_SCHEMA (( 'AUTOMOTIVE_DESIGN' ));
ENDSEC;

DATA;
#1 = DIRECTION ( 'NONE',  ( 0.0000000000000000000, 0.0000000000000000000, -1.000000000000000000 ) ) ;
#2 = ORIENTED_EDGE ( 'NONE', *, *, #360, .T. ) ;
#3 = ORIENTED_EDGE ( 'NONE', *, *, #49, .F. ) ;
#4 = AXIS2_PLACEMENT_3D ( 'NONE', #127, #242, #8 ) ;
#5 = CARTESIAN_POINT ( 'NONE',  ( 0.0000000000000000000, 0.0000000000000000000, 0.7500000000000001110 ) ) ;
#6 = CARTESIAN_POINT ( 'NONE',  ( 0.0000000000000000000, 0.0000000000000000000, 0.0000000000000000000 ) ) ;
#7 = LINE ( 'NONE', #126, #348 ) ;
#8 = DIRECTION ( 'NONE',  ( 1.000000000000000000, 0.0000000000000000000, 0.0000000000000000000 ) ) ;
#9 = MECHANICAL_DESIGN_GEOMETRIC_PRESENTATION_REPRESENTATION (  '', ( #35 ), #193 ) ;
#10 = CIRCLE ( 'NONE', #229, 0.2500000000000000000 ) ;
#11 = DIRECTION ( 'NONE',  ( -0.0000000000000000000, -0.0000000000000000000, -1.000000000000000000 ) ) ;
#12 = CARTESIAN_POINT ( 'NONE',  ( 0.0000000000000000000, 0.0000000000000000000, 3.000000000000000444 ) ) ;
#13 = EDGE_CURVE ( 'NONE', #15, #148, #376, .T. ) ;
#14 = CYLINDRICAL_SURFACE ( 'NONE', #62, 0.2500000000000000000 ) ;
#15 = VERTEX_POINT ( 'NONE', #347 ) ;
#16 = AXIS2_PLACEMENT_3D ( 'NONE', #218, #19, #340 ) ;
#17 = FACE_OUTER_BOUND ( 'NONE', #257, .T. ) ;
#18 = ADVANCED_FACE ( 'NONE', ( #85 ), #355, .T. ) ;
#19 = DIRECTION ( 'NONE',  ( 0.0000000000000000000, 0.0000000000000000000, -1.000000000000000000 ) ) ;
#20 = CARTESIAN_POINT ( 'NONE',  ( 0.0000000000000000000, 0.0000000000000000000, 3.000000000000000444 ) ) ;
#21 = ORIENTED_EDGE ( 'NONE', *, *, #341, .T. ) ;
#22 = VECTOR ( 'NONE', #241, 39.37007874015748854 ) ;
#23 = SURFACE_STYLE_USAGE ( .BOTH. , #200 ) ;
#24 = VERTEX_POINT ( 'NONE', #299 ) ;
#25 = ADVANCED_FACE ( 'NONE', ( #351 ), #59, .F. ) ;
#26 =( CONVERSION_BASED_UNIT ( 'INCH', #289 ) LENGTH_UNIT ( ) NAMED_UNIT ( #314 ) );
#27 = DIRECTION ( 'NONE',  ( 1.000000000000000000, 0.0000000000000000000, -0.0000000000000000000 ) ) ;
#28 = ORIENTED_EDGE ( 'NONE', *, *, #13, .T. ) ;
#29 = AXIS2_PLACEMENT_3D ( 'NONE', #178, #1, #57 ) ;
#30 = AXIS2_PLACEMENT_3D ( 'NONE', #33, #170, #88 ) ;
#31 = AXIS2_PLACEMENT_3D ( 'NONE', #159, #287, #63 ) ;
#32 = ORIENTED_EDGE ( 'NONE', *, *, #124, .F. ) ;
#33 = CARTESIAN_POINT ( 'NONE',  ( 0.0000000000000000000, 0.0000000000000000000, 0.0000000000000000000 ) ) ;
#34 = FILL_AREA_STYLE ('',( #330 ) ) ;
#35 = STYLED_ITEM ( 'NONE', ( #113 ), #262 ) ;
#36 = AXIS2_PLACEMENT_3D ( 'NONE', #102, #187, #282 ) ;
#37 = ADVANCED_FACE ( 'NONE', ( #270 ), #60, .T. ) ;
#38 = DIRECTION ( 'NONE',  ( 0.0000000000000000000, 0.0000000000000000000, 1.000000000000000000 ) ) ;
#39 = SURFACE_STYLE_USAGE ( .BOTH. , #328 ) ;
#40 = DIRECTION ( 'NONE',  ( -0.0000000000000000000, -0.0000000000000000000, -1.000000000000000000 ) ) ;
#41 = PRESENTATION_LAYER_ASSIGNMENT (  '', '', ( #35 ) ) ;
#42 = AXIS2_PLACEMENT_3D ( 'NONE', #157, #307, #309 ) ;
#43 = DIRECTION ( 'NONE',  ( -0.0000000000000000000, -0.0000000000000000000, -1.000000000000000000 ) ) ;
#44 = CARTESIAN_POINT ( 'NONE',  ( 0.0000000000000000000, 0.0000000000000000000, 0.0000000000000000000 ) ) ;
#45 = ORIENTED_EDGE ( 'NONE', *, *, #51, .T. ) ;
#46 = FACE_OUTER_BOUND ( 'NONE', #90, .T. ) ;
#47 = ORIENTED_EDGE ( 'NONE', *, *, #349, .T. ) ;
#48 = CARTESIAN_POINT ( 'NONE',  ( -0.2350000000000011524, 0.0000000000000000000, 3.000000000000000444 ) ) ;
#49 = EDGE_CURVE ( 'NONE', #55, #297, #185, .T. ) ;
#50 = CIRCLE ( 'NONE', #161, 0.1250000000000000833 ) ;
#51 = EDGE_CURVE ( 'NONE', #24, #238, #214, .T. ) ;
#52 = EDGE_CURVE ( 'NONE', #204, #24, #246, .T. ) ;
#53 =( NAMED_UNIT ( * ) SI_UNIT ( $, .STERADIAN. ) SOLID_ANGLE_UNIT ( ) );
#54 = CARTESIAN_POINT ( 'NONE',  ( 0.0000000000000000000, 0.0000000000000000000, 0.0000000000000000000 ) ) ;
#55 = VERTEX_POINT ( 'NONE', #181 ) ;
#56 = EDGE_CURVE ( 'NONE', #261, #236, #275, .T. ) ;
#57 = DIRECTION ( 'NONE',  ( 1.000000000000000000, 0.0000000000000000000, 0.0000000000000000000 ) ) ;
#58 = MECHANICAL_DESIGN_GEOMETRIC_PRESENTATION_REPRESENTATION (  '', ( #367 ), #329 ) ;
#59 = PLANE ( 'NONE',  #30 ) ;
#60 = CYLINDRICAL_SURFACE ( 'NONE', #295, 0.2500000000000000000 ) ;
#61 = EDGE_LOOP ( 'NONE', ( #308, #114, #28, #379 ) ) ;
#62 = AXIS2_PLACEMENT_3D ( 'NONE', #165, #188, #369 ) ;
#63 = DIRECTION ( 'NONE',  ( -1.000000000000000000, 0.0000000000000000000, 0.0000000000000000000 ) ) ;
#64 = ORIENTED_EDGE ( 'NONE', *, *, #350, .T. ) ;
#65 =( LENGTH_UNIT ( ) NAMED_UNIT ( * ) SI_UNIT ( $, .METRE. ) );
#66 = EDGE_CURVE ( 'NONE', #283, #140, #7, .T. ) ;
#67 = CARTESIAN_POINT ( 'NONE',  ( 0.0000000000000000000, 0.0000000000000000000, 3.000000000000000444 ) ) ;
#68 = CONICAL_SURFACE ( 'NONE', #279, 0.1250000000000000833, 0.7853981633974503884 ) ;
#69 = DIRECTION ( 'NONE',  ( -0.7071067811865490160, 8.659560562354951347E-17, 0.7071067811865460184 ) ) ;
#70 = APPLICATION_CONTEXT ( 'automotive_design' ) ;
#71 = DIRECTION ( 'NONE',  ( 0.0000000000000000000, 0.0000000000000000000, 1.000000000000000000 ) ) ;
#72 = DIRECTION ( 'NONE',  ( 1.000000000000000000, 0.0000000000000000000, 0.0000000000000000000 ) ) ;
#73 = AXIS2_PLACEMENT_3D ( 'NONE', #155, #71, #245 ) ;
#74 = CYLINDRICAL_SURFACE ( 'NONE', #93, 0.2500000000000000000 ) ;
#75 = LINE ( 'NONE', #133, #356 ) ;
#76 = CYLINDRICAL_SURFACE ( 'NONE', #139, 0.1250000000000000555 ) ;
#77 = ORIENTED_EDGE ( 'NONE', *, *, #118, .F. ) ;
#78 = DIRECTION ( 'NONE',  ( -0.0000000000000000000, -0.0000000000000000000, -1.000000000000000000 ) ) ;
#79 = AXIS2_PLACEMENT_3D ( 'NONE', #260, #230, #291 ) ;
#80 = ORIENTED_EDGE ( 'NONE', *, *, #137, .F. ) ;
#81 = DIRECTION ( 'NONE',  ( -0.0000000000000000000, -0.0000000000000000000, -1.000000000000000000 ) ) ;
#82 = FACE_BOUND ( 'NONE', #312, .T. ) ;
#83 = ORIENTED_EDGE ( 'NONE', *, *, #56, .T. ) ;
#84 =( NAMED_UNIT ( * ) SI_UNIT ( $, .STERADIAN. ) SOLID_ANGLE_UNIT ( ) );
#85 = FACE_OUTER_BOUND ( 'NONE', #61, .T. ) ;
#86 = VECTOR ( 'NONE', #109, 39.37007874015748143 ) ;
#87 = DIRECTION ( 'NONE',  ( 1.000000000000000000, 0.0000000000000000000, -0.0000000000000000000 ) ) ;
#88 = DIRECTION ( 'NONE',  ( 1.000000000000000000, 0.0000000000000000000, -0.0000000000000000000 ) ) ;
#89 = FACE_OUTER_BOUND ( 'NONE', #267, .T. ) ;
#90 = EDGE_LOOP ( 'NONE', ( #147, #195, #83, #357 ) ) ;
#91 = EDGE_CURVE ( 'NONE', #140, #148, #240, .T. ) ;
#92 = ORIENTED_EDGE ( 'NONE', *, *, #51, .F. ) ;
#93 = AXIS2_PLACEMENT_3D ( 'NONE', #20, #334, #190 ) ;
#94 = DIRECTION ( 'NONE',  ( -1.000000000000000000, 0.0000000000000000000, 0.0000000000000000000 ) ) ;
#95 = DIRECTION ( 'NONE',  ( 0.0000000000000000000, 0.0000000000000000000, -1.000000000000000000 ) ) ;
#96 = FACE_OUTER_BOUND ( 'NONE', #374, .T. ) ;
#97 = CIRCLE ( 'NONE', #256, 0.2350000000000011524 ) ;
#98 = APPLICATION_PROTOCOL_DEFINITION ( 'draft international standard', 'automotive_design', 1998, #208 ) ;
#99 = DIRECTION ( 'NONE',  ( -1.000000000000000000, 0.0000000000000000000, 0.0000000000000000000 ) ) ;
#100 = EDGE_CURVE ( 'NONE', #236, #288, #115, .T. ) ;
#101 = CARTESIAN_POINT ( 'NONE',  ( 0.1250000000000000555, 1.530808498934192125E-17, 0.0000000000000000000 ) ) ;
#102 = CARTESIAN_POINT ( 'NONE',  ( 0.0000000000000000000, 0.0000000000000000000, 0.1029999999999999943 ) ) ;
#103 = CARTESIAN_POINT ( 'NONE',  ( 0.2500000000000000555, 3.061616997868383018E-17, 0.1029999999999999943 ) ) ;
#104 = ORIENTED_EDGE ( 'NONE', *, *, #66, .T. ) ;
#105 = EDGE_CURVE ( 'NONE', #316, #297, #177, .T. ) ;
#106 = CARTESIAN_POINT ( 'NONE',  ( 0.1250000000000000833, 0.0000000000000000000, 0.7500000000000001110 ) ) ;
#107 = ORIENTED_EDGE ( 'NONE', *, *, #100, .T. ) ;
#108 = FACE_OUTER_BOUND ( 'NONE', #120, .T. ) ;
#109 = DIRECTION ( 'NONE',  ( 0.7071067811865490160, 0.0000000000000000000, 0.7071067811865460184 ) ) ;
#110 = ADVANCED_FACE ( 'NONE', ( #96 ), #132, .T. ) ;
#111 = FILL_AREA_STYLE_COLOUR ( '', #220 ) ;
#112 = ORIENTED_EDGE ( 'NONE', *, *, #100, .F. ) ;
#113 = PRESENTATION_STYLE_ASSIGNMENT (( #23 ) ) ;
#114 = ORIENTED_EDGE ( 'NONE', *, *, #184, .T. ) ;
#115 = CIRCLE ( 'NONE', #371, 0.2500000000000000000 ) ;
#116 = EDGE_CURVE ( 'NONE', #297, #316, #248, .T. ) ;
#117 = VECTOR ( 'NONE', #228, 39.37007874015748143 ) ;
#118 = EDGE_CURVE ( 'NONE', #372, #261, #134, .T. ) ;
#119 = CARTESIAN_POINT ( 'NONE',  ( 0.2500000000000000555, 0.0000000000000000000, 0.1029999999999999943 ) ) ;
#120 = EDGE_LOOP ( 'NONE', ( #250, #2, #277, #92 ) ) ;
#121 = DIRECTION ( 'NONE',  ( -1.000000000000000000, 0.0000000000000000000, 0.0000000000000000000 ) ) ;
#122 = ORIENTED_EDGE ( 'NONE', *, *, #105, .F. ) ;
#123 = ORIENTED_EDGE ( 'NONE', *, *, #124, .T. ) ;
#124 = EDGE_CURVE ( 'NONE', #15, #283, #286, .T. ) ;
#125 = VECTOR ( 'NONE', #43, 39.37007874015748143 ) ;
#126 = CARTESIAN_POINT ( 'NONE',  ( 0.2500000000000000000, 3.061616997868382402E-17, 3.000000000000000444 ) ) ;
#127 = CARTESIAN_POINT ( 'NONE',  ( 0.0000000000000000000, 0.0000000000000000000, 0.8749999999999994449 ) ) ;
#128 = DIRECTION ( 'NONE',  ( -0.0000000000000000000, -0.0000000000000000000, -1.000000000000000000 ) ) ;
#129 = CIRCLE ( 'NONE', #42, 0.1250000000000000833 ) ;
#130 = CARTESIAN_POINT ( 'NONE',  ( 0.0000000000000000000, 0.0000000000000000000, 0.0000000000000000000 ) ) ;
#131 = PRODUCT_DEFINITION_SHAPE ( 'NONE', 'NONE',  #154 ) ;
#132 = CYLINDRICAL_SURFACE ( 'NONE', #317, 0.1250000000000000555 ) ;
#133 = CARTESIAN_POINT ( 'NONE',  ( -0.2500000000000000000, 0.0000000000000000000, 3.000000000000000444 ) ) ;
#134 = CIRCLE ( 'NONE', #377, 0.2350000000000011524 ) ;
#135 = ORIENTED_EDGE ( 'NONE', *, *, #91, .F. ) ;
#136 = CARTESIAN_POINT ( 'NONE',  ( -0.2500000000000000000, 0.0000000000000000000, 2.985000000000001208 ) ) ;
#137 = EDGE_CURVE ( 'NONE', #288, #316, #301, .T. ) ;
#138 = CARTESIAN_POINT ( 'NONE',  ( 0.2350000000000011524, 2.877919977996294002E-17, 3.000000000000000444 ) ) ;
#139 = AXIS2_PLACEMENT_3D ( 'NONE', #44, #81, #249 ) ;
#140 = VERTEX_POINT ( 'NONE', #210 ) ;
#141 = ORIENTED_EDGE ( 'NONE', *, *, #341, .F. ) ;
#142 = DIRECTION ( 'NONE',  ( 0.0000000000000000000, 0.0000000000000000000, 1.000000000000000000 ) ) ;
#143 = ORIENTED_EDGE ( 'NONE', *, *, #118, .T. ) ;
#144 = ORIENTED_EDGE ( 'NONE', *, *, #251, .F. ) ;
#145 = CONICAL_SURFACE ( 'NONE', #31, 0.2350000000000011524, 0.7853981633974380649 ) ;
#146 = PLANE ( 'NONE',  #313 ) ;
#147 = ORIENTED_EDGE ( 'NONE', *, *, #273, .F. ) ;
#148 = VERTEX_POINT ( 'NONE', #305 ) ;
#149 = COLOUR_RGB ( '',0.7921568627450980005, 0.8196078431372548767, 0.9333333333333333481 ) ;
#150 = DIRECTION ( 'NONE',  ( -1.000000000000000000, 0.0000000000000000000, 0.0000000000000000000 ) ) ;
#151 = MANIFOLD_SOLID_BREP ( 'Cut-Revolve1', #233 ) ;
#152 = ADVANCED_FACE ( 'NONE', ( #368 ), #198, .T. ) ;
#153 = PRODUCT ( 'Micro_KC-500-750-103', 'Micro_KC-500-750-103', '', ( #326 ) ) ;
#154 = PRODUCT_DEFINITION ( 'UNKNOWN', '', #266, #192 ) ;
#155 = CARTESIAN_POINT ( 'NONE',  ( 0.0000000000000000000, 0.0000000000000000000, 0.0000000000000000000 ) ) ;
#156 = UNCERTAINTY_MEASURE_WITH_UNIT (LENGTH_MEASURE( 1.000000000000000082E-05 ), #271, 'distance_accuracy_value', 'NONE');
#157 = CARTESIAN_POINT ( 'NONE',  ( 0.0000000000000000000, 0.0000000000000000000, 0.7500000000000001110 ) ) ;
#158 = EDGE_LOOP ( 'NONE', ( #123, #104, #290, #292 ) ) ;
#159 = CARTESIAN_POINT ( 'NONE',  ( 0.0000000000000000000, 0.0000000000000000000, 3.000000000000000444 ) ) ;
#160 = ORIENTED_EDGE ( 'NONE', *, *, #52, .T. ) ;
#161 = AXIS2_PLACEMENT_3D ( 'NONE', #373, #203, #121 ) ;
#162 = AXIS2_PLACEMENT_3D ( 'NONE', #331, #40, #150 ) ;
#163 = ADVANCED_FACE ( 'NONE', ( #164 ), #14, .T. ) ;
#164 = FACE_OUTER_BOUND ( 'NONE', #199, .T. ) ;
#165 = CARTESIAN_POINT ( 'NONE',  ( 0.0000000000000000000, 0.0000000000000000000, 3.000000000000000444 ) ) ;
#166 = ORIENTED_EDGE ( 'NONE', *, *, #116, .T. ) ;
#167 = AXIS2_PLACEMENT_3D ( 'NONE', #333, #11, #182 ) ;
#168 = ORIENTED_EDGE ( 'NONE', *, *, #191, .F. ) ;
#169 = APPLICATION_PROTOCOL_DEFINITION ( 'draft international standard', 'automotive_design', 1998, #70 ) ;
#170 = DIRECTION ( 'NONE',  ( 0.0000000000000000000, 0.0000000000000000000, 1.000000000000000000 ) ) ;
#171 = EDGE_CURVE ( 'NONE', #55, #204, #129, .T. ) ;
#172 = CARTESIAN_POINT ( 'NONE',  ( 0.0000000000000000000, 0.0000000000000000000, 3.000000000000000444 ) ) ;
#173 = ORIENTED_EDGE ( 'NONE', *, *, #137, .T. ) ;
#174 =( CONVERSION_BASED_UNIT ( 'INCH', #227 ) LENGTH_UNIT ( ) NAMED_UNIT ( #226 ) );
#175 =( GEOMETRIC_REPRESENTATION_CONTEXT ( 3 ) GLOBAL_UNCERTAINTY_ASSIGNED_CONTEXT ( ( #255 ) ) GLOBAL_UNIT_ASSIGNED_CONTEXT ( ( #174, #354, #84 ) ) REPRESENTATION_CONTEXT ( 'NONE', 'WORKASPACE' ) );
#176 = EDGE_LOOP ( 'NONE', ( #254, #310, #166, #168 ) ) ;
#177 = CIRCLE ( 'NONE', #167, 0.2500000000000000000 ) ;
#178 = CARTESIAN_POINT ( 'NONE',  ( 0.0000000000000000000, 0.0000000000000000000, 2.985000000000001208 ) ) ;
#179 = DIRECTION ( 'NONE',  ( -0.0000000000000000000, -0.0000000000000000000, -1.000000000000000000 ) ) ;
#180 =( NAMED_UNIT ( * ) SI_UNIT ( $, .STERADIAN. ) SOLID_ANGLE_UNIT ( ) );
#181 = CARTESIAN_POINT ( 'NONE',  ( -0.1250000000000000833, 2.296212748401287726E-17, 0.7500000000000001110 ) ) ;
#182 = DIRECTION ( 'NONE',  ( 1.000000000000000000, 0.0000000000000000000, 0.0000000000000000000 ) ) ;
#183 = DIRECTION ( 'NONE',  ( -0.0000000000000000000, -0.0000000000000000000, -1.000000000000000000 ) ) ;
#184 = EDGE_CURVE ( 'NONE', #283, #15, #211, .T. ) ;
#185 = LINE ( 'NONE', #212, #221 ) ;
#186 = CARTESIAN_POINT ( 'NONE',  ( 0.2500000000000000000, 3.061616997868382402E-17, 3.000000000000000444 ) ) ;
#187 = DIRECTION ( 'NONE',  ( -0.0000000000000000000, -0.0000000000000000000, -1.000000000000000000 ) ) ;
#188 = DIRECTION ( 'NONE',  ( -0.0000000000000000000, -0.0000000000000000000, -1.000000000000000000 ) ) ;
#189 = ORIENTED_EDGE ( 'NONE', *, *, #116, .F. ) ;
#190 = DIRECTION ( 'NONE',  ( -1.000000000000000000, 0.0000000000000000000, 0.0000000000000000000 ) ) ;
#191 = EDGE_CURVE ( 'NONE', #204, #316, #338, .T. ) ;
#192 = PRODUCT_DEFINITION_CONTEXT ( 'detailed design', #208, 'design' ) ;
#193 =( GEOMETRIC_REPRESENTATION_CONTEXT ( 3 ) GLOBAL_UNCERTAINTY_ASSIGNED_CONTEXT ( ( #216 ) ) GLOBAL_UNIT_ASSIGNED_CONTEXT ( ( #26, #304, #180 ) ) REPRESENTATION_CONTEXT ( 'NONE', 'WORKASPACE' ) );
#194 = DIRECTION ( 'NONE',  ( 1.000000000000000000, 0.0000000000000000000, 0.0000000000000000000 ) ) ;
#195 = ORIENTED_EDGE ( 'NONE', *, *, #350, .F. ) ;
#196 = LINE ( 'NONE', #276, #231 ) ;
#197 = ORIENTED_EDGE ( 'NONE', *, *, #184, .F. ) ;
#198 = CONICAL_SURFACE ( 'NONE', #205, 0.1250000000000000833, 0.7853981633974503884 ) ;
#199 = EDGE_LOOP ( 'NONE', ( #107, #173, #189, #320 ) ) ;
#200 = SURFACE_SIDE_STYLE ('',( #375 ) ) ;
#201 = ORIENTED_EDGE ( 'NONE', *, *, #105, .T. ) ;
#202 = ORIENTED_EDGE ( 'NONE', *, *, #191, .T. ) ;
#203 = DIRECTION ( 'NONE',  ( -0.0000000000000000000, -0.0000000000000000000, -1.000000000000000000 ) ) ;
#204 = VERTEX_POINT ( 'NONE', #106 ) ;
#205 = AXIS2_PLACEMENT_3D ( 'NONE', #5, #280, #253 ) ;
#206 = CARTESIAN_POINT ( 'NONE',  ( 0.0000000000000000000, 0.0000000000000000000, 0.1029999999999999943 ) ) ;
#207 = DIRECTION ( 'NONE',  ( -0.0000000000000000000, -0.0000000000000000000, -1.000000000000000000 ) ) ;
#208 = APPLICATION_CONTEXT ( 'automotive_design' ) ;
#209 = ADVANCED_FACE ( 'NONE', ( #17 ), #74, .T. ) ;
#210 = CARTESIAN_POINT ( 'NONE',  ( 0.2500000000000000000, 3.061616997868382402E-17, 0.0000000000000000000 ) ) ;
#211 = CIRCLE ( 'NONE', #36, 0.2500000000000000555 ) ;
#212 = CARTESIAN_POINT ( 'NONE',  ( -0.1250000000000000833, 1.530808498934192433E-17, 0.7500000000000001110 ) ) ;
#213 = CARTESIAN_POINT ( 'NONE',  ( -0.2350000000000011524, 0.0000000000000000000, 3.000000000000000444 ) ) ;
#214 = CIRCLE ( 'NONE', #162, 0.1250000000000000278 ) ;
#215 = CARTESIAN_POINT ( 'NONE',  ( -0.1250000000000000278, 0.0000000000000000000, 0.1030000000000000221 ) ) ;
#216 = UNCERTAINTY_MEASURE_WITH_UNIT (LENGTH_MEASURE( 1.000000000000000082E-05 ), #26, 'distance_accuracy_value', 'NONE');
#217 = DIRECTION ( 'NONE',  ( 1.000000000000000000, 0.0000000000000000000, 0.0000000000000000000 ) ) ;
#218 = CARTESIAN_POINT ( 'NONE',  ( 0.0000000000000000000, 0.0000000000000000000, 3.000000000000000444 ) ) ;
#219 = ADVANCED_FACE ( 'NONE', ( #108 ), #76, .T. ) ;
#220 = COLOUR_RGB ( '',0.7921568627450980005, 0.8196078431372548767, 0.9333333333333333481 ) ;
#221 = VECTOR ( 'NONE', #69, 39.37007874015748143 ) ;
#222 = FACE_OUTER_BOUND ( 'NONE', #353, .T. ) ;
#223 = FILL_AREA_STYLE ('',( #111 ) ) ;
#224 = ORIENTED_EDGE ( 'NONE', *, *, #56, .F. ) ;
#225 = ADVANCED_FACE ( 'NONE', ( #222 ), #306, .T. ) ;
#226 = DIMENSIONAL_EXPONENTS ( 1.000000000000000000, 0.0000000000000000000, 0.0000000000000000000, 0.0000000000000000000, 0.0000000000000000000, 0.0000000000000000000, 0.0000000000000000000 ) ;
#227 = LENGTH_MEASURE_WITH_UNIT ( LENGTH_MEASURE( 0.02539999999999999897 ), #237 );
#228 = DIRECTION ( 'NONE',  ( -0.0000000000000000000, -0.0000000000000000000, -1.000000000000000000 ) ) ;
#229 = AXIS2_PLACEMENT_3D ( 'NONE', #54, #311, #217 ) ;
#230 = DIRECTION ( 'NONE',  ( -0.0000000000000000000, -0.0000000000000000000, -1.000000000000000000 ) ) ;
#231 = VECTOR ( 'NONE', #78, 39.37007874015748143 ) ;
#232 = CARTESIAN_POINT ( 'NONE',  ( -0.2500000000000000000, 0.0000000000000000000, 3.000000000000000444 ) ) ;
#233 = CLOSED_SHELL ( 'NONE', ( #37, #110, #152, #225, #163, #209, #302, #293, #252, #219, #365, #25, #18 ) ) ;
#234 = CARTESIAN_POINT ( 'NONE',  ( 0.0000000000000000000, 0.0000000000000000000, 3.000000000000000444 ) ) ;
#235 = EDGE_CURVE ( 'NONE', #236, #297, #75, .T. ) ;
#236 = VERTEX_POINT ( 'NONE', #136 ) ;
#237 =( LENGTH_UNIT ( ) NAMED_UNIT ( * ) SI_UNIT ( $, .METRE. ) );
#238 = VERTEX_POINT ( 'NONE', #215 ) ;
#239 = EDGE_LOOP ( 'NONE', ( #3, #345, #202, #201 ) ) ;
#240 = CIRCLE ( 'NONE', #73, 0.2500000000000000000 ) ;
#241 = DIRECTION ( 'NONE',  ( -0.7071067811865402453, 0.0000000000000000000, -0.7071067811865546782 ) ) ;
#242 = DIRECTION ( 'NONE',  ( -0.0000000000000000000, -0.0000000000000000000, -1.000000000000000000 ) ) ;
#243 = SURFACE_STYLE_FILL_AREA ( #34 ) ;
#244 = CIRCLE ( 'NONE', #79, 0.1250000000000000278 ) ;
#245 = DIRECTION ( 'NONE',  ( 1.000000000000000000, 0.0000000000000000000, 0.0000000000000000000 ) ) ;
#246 = LINE ( 'NONE', #101, #125 ) ;
#247 = FACE_OUTER_BOUND ( 'NONE', #239, .T. ) ;
#248 = CIRCLE ( 'NONE', #4, 0.2500000000000000000 ) ;
#249 = DIRECTION ( 'NONE',  ( -1.000000000000000000, 0.0000000000000000000, 0.0000000000000000000 ) ) ;
#250 = ORIENTED_EDGE ( 'NONE', *, *, #52, .F. ) ;
#251 = EDGE_CURVE ( 'NONE', #55, #238, #196, .T. ) ;
#252 = ADVANCED_FACE ( 'NONE', ( #247 ), #68, .T. ) ;
#253 = DIRECTION ( 'NONE',  ( 1.000000000000000000, 0.0000000000000000000, 0.0000000000000000000 ) ) ;
#254 = ORIENTED_EDGE ( 'NONE', *, *, #171, .F. ) ;
#255 = UNCERTAINTY_MEASURE_WITH_UNIT (LENGTH_MEASURE( 1.000000000000000082E-05 ), #174, 'distance_accuracy_value', 'NONE');
#256 = AXIS2_PLACEMENT_3D ( 'NONE', #172, #142, #296 ) ;
#257 = EDGE_LOOP ( 'NONE', ( #80, #47, #322, #122 ) ) ;
#258 = EDGE_CURVE ( 'NONE', #148, #140, #10, .T. ) ;
#259 = ORIENTED_EDGE ( 'NONE', *, *, #273, .T. ) ;
#260 = CARTESIAN_POINT ( 'NONE',  ( 0.0000000000000000000, 0.0000000000000000000, 0.1030000000000000221 ) ) ;
#261 = VERTEX_POINT ( 'NONE', #48 ) ;
#262 = ADVANCED_BREP_SHAPE_REPRESENTATION ( 'Micro_KC-500-750-103', ( #151, #294 ), #175 ) ;
#263 = PRODUCT_RELATED_PRODUCT_CATEGORY ( 'part', '', ( #153 ) ) ;
#264 = VECTOR ( 'NONE', #364, 39.37007874015748854 ) ;
#265 = FACE_OUTER_BOUND ( 'NONE', #339, .T. ) ;
#266 = PRODUCT_DEFINITION_FORMATION_WITH_SPECIFIED_SOURCE ( 'ANY', '', #153, .NOT_KNOWN. ) ;
#267 = EDGE_LOOP ( 'NONE', ( #32, #197 ) ) ;
#268 = ORIENTED_EDGE ( 'NONE', *, *, #258, .F. ) ;
#269 = DIRECTION ( 'NONE',  ( 1.000000000000000000, 0.0000000000000000000, 0.0000000000000000000 ) ) ;
#270 = FACE_OUTER_BOUND ( 'NONE', #158, .T. ) ;
#271 =( CONVERSION_BASED_UNIT ( 'INCH', #300 ) LENGTH_UNIT ( ) NAMED_UNIT ( #281 ) );
#272 = DIRECTION ( 'NONE',  ( -0.0000000000000000000, -0.0000000000000000000, -1.000000000000000000 ) ) ;
#273 = EDGE_CURVE ( 'NONE', #372, #288, #284, .T. ) ;
#274 = PRESENTATION_LAYER_ASSIGNMENT (  '', '', ( #367 ) ) ;
#275 = LINE ( 'NONE', #213, #22 ) ;
#276 = CARTESIAN_POINT ( 'NONE',  ( -0.1250000000000000555, 0.0000000000000000000, 0.0000000000000000000 ) ) ;
#277 = ORIENTED_EDGE ( 'NONE', *, *, #251, .T. ) ;
#278 =( NAMED_UNIT ( * ) PLANE_ANGLE_UNIT ( ) SI_UNIT ( $, .RADIAN. ) );
#279 = AXIS2_PLACEMENT_3D ( 'NONE', #315, #366, #194 ) ;
#280 = DIRECTION ( 'NONE',  ( 0.0000000000000000000, 0.0000000000000000000, 1.000000000000000000 ) ) ;
#281 = DIMENSIONAL_EXPONENTS ( 1.000000000000000000, 0.0000000000000000000, 0.0000000000000000000, 0.0000000000000000000, 0.0000000000000000000, 0.0000000000000000000, 0.0000000000000000000 ) ;
#282 = DIRECTION ( 'NONE',  ( -1.000000000000000000, 0.0000000000000000000, 0.0000000000000000000 ) ) ;
#283 = VERTEX_POINT ( 'NONE', #103 ) ;
#284 = LINE ( 'NONE', #138, #264 ) ;
#285 = ORIENTED_EDGE ( 'NONE', *, *, #171, .T. ) ;
#286 = CIRCLE ( 'NONE', #335, 0.2500000000000000555 ) ;
#287 = DIRECTION ( 'NONE',  ( 0.0000000000000000000, 0.0000000000000000000, -1.000000000000000000 ) ) ;
#288 = VERTEX_POINT ( 'NONE', #336 ) ;
#289 = LENGTH_MEASURE_WITH_UNIT ( LENGTH_MEASURE( 0.02539999999999999897 ), #318 );
#290 = ORIENTED_EDGE ( 'NONE', *, *, #91, .T. ) ;
#291 = DIRECTION ( 'NONE',  ( -1.000000000000000000, 0.0000000000000000000, 0.0000000000000000000 ) ) ;
#292 = ORIENTED_EDGE ( 'NONE', *, *, #13, .F. ) ;
#293 = ADVANCED_FACE ( 'NONE', ( #46 ), #145, .T. ) ;
#294 = AXIS2_PLACEMENT_3D ( 'NONE', #6, #38, #269 ) ;
#295 = AXIS2_PLACEMENT_3D ( 'NONE', #12, #363, #99 ) ;
#296 = DIRECTION ( 'NONE',  ( 1.000000000000000000, 0.0000000000000000000, 0.0000000000000000000 ) ) ;
#297 = VERTEX_POINT ( 'NONE', #344 ) ;
#298 = DIRECTION ( 'NONE',  ( 0.0000000000000000000, 0.0000000000000000000, 1.000000000000000000 ) ) ;
#299 = CARTESIAN_POINT ( 'NONE',  ( 0.1250000000000000278, 1.530808498934191817E-17, 0.1030000000000000221 ) ) ;
#300 = LENGTH_MEASURE_WITH_UNIT ( LENGTH_MEASURE( 0.02539999999999999897 ), #65 );
#301 = LINE ( 'NONE', #186, #361 ) ;
#302 = ADVANCED_FACE ( 'NONE', ( #265 ), #146, .T. ) ;
#303 = CARTESIAN_POINT ( 'NONE',  ( 0.0000000000000000000, 0.0000000000000000000, 2.985000000000001208 ) ) ;
#304 =( NAMED_UNIT ( * ) PLANE_ANGLE_UNIT ( ) SI_UNIT ( $, .RADIAN. ) );
#305 = CARTESIAN_POINT ( 'NONE',  ( -0.2500000000000000000, 0.0000000000000000000, 0.0000000000000000000 ) ) ;
#306 = CONICAL_SURFACE ( 'NONE', #16, 0.2350000000000011524, 0.7853981633974380649 ) ;
#307 = DIRECTION ( 'NONE',  ( -0.0000000000000000000, -0.0000000000000000000, -1.000000000000000000 ) ) ;
#308 = ORIENTED_EDGE ( 'NONE', *, *, #66, .F. ) ;
#309 = DIRECTION ( 'NONE',  ( -1.000000000000000000, 0.0000000000000000000, 0.0000000000000000000 ) ) ;
#310 = ORIENTED_EDGE ( 'NONE', *, *, #49, .T. ) ;
#311 = DIRECTION ( 'NONE',  ( 0.0000000000000000000, 0.0000000000000000000, 1.000000000000000000 ) ) ;
#312 = EDGE_LOOP ( 'NONE', ( #21, #45 ) ) ;
#313 = AXIS2_PLACEMENT_3D ( 'NONE', #234, #346, #87 ) ;
#314 = DIMENSIONAL_EXPONENTS ( 1.000000000000000000, 0.0000000000000000000, 0.0000000000000000000, 0.0000000000000000000, 0.0000000000000000000, 0.0000000000000000000, 0.0000000000000000000 ) ;
#315 = CARTESIAN_POINT ( 'NONE',  ( 0.0000000000000000000, 0.0000000000000000000, 0.7500000000000001110 ) ) ;
#316 = VERTEX_POINT ( 'NONE', #378 ) ;
#317 = AXIS2_PLACEMENT_3D ( 'NONE', #130, #207, #94 ) ;
#318 =( LENGTH_UNIT ( ) NAMED_UNIT ( * ) SI_UNIT ( $, .METRE. ) );
#319 = DIRECTION ( 'NONE',  ( -1.000000000000000000, 0.0000000000000000000, 0.0000000000000000000 ) ) ;
#320 = ORIENTED_EDGE ( 'NONE', *, *, #235, .F. ) ;
#321 = PLANE ( 'NONE',  #323 ) ;
#322 = ORIENTED_EDGE ( 'NONE', *, *, #235, .T. ) ;
#323 = AXIS2_PLACEMENT_3D ( 'NONE', #119, #298, #27 ) ;
#324 = AXIS2_PLACEMENT_3D ( 'NONE', #325, #179, #319 ) ;
#325 = CARTESIAN_POINT ( 'NONE',  ( 0.0000000000000000000, 0.0000000000000000000, 3.000000000000000444 ) ) ;
#326 = PRODUCT_CONTEXT ( 'NONE', #70, 'mechanical' ) ;
#327 = PRESENTATION_STYLE_ASSIGNMENT (( #39 ) ) ;
#328 = SURFACE_SIDE_STYLE ('',( #243 ) ) ;
#329 =( GEOMETRIC_REPRESENTATION_CONTEXT ( 3 ) GLOBAL_UNCERTAINTY_ASSIGNED_CONTEXT ( ( #156 ) ) GLOBAL_UNIT_ASSIGNED_CONTEXT ( ( #271, #278, #53 ) ) REPRESENTATION_CONTEXT ( 'NONE', 'WORKASPACE' ) );
#330 = FILL_AREA_STYLE_COLOUR ( '', #149 ) ;
#331 = CARTESIAN_POINT ( 'NONE',  ( 0.0000000000000000000, 0.0000000000000000000, 0.1030000000000000221 ) ) ;
#332 = SHAPE_DEFINITION_REPRESENTATION ( #131, #262 ) ;
#333 = CARTESIAN_POINT ( 'NONE',  ( 0.0000000000000000000, 0.0000000000000000000, 0.8749999999999994449 ) ) ;
#334 = DIRECTION ( 'NONE',  ( -0.0000000000000000000, -0.0000000000000000000, -1.000000000000000000 ) ) ;
#335 = AXIS2_PLACEMENT_3D ( 'NONE', #206, #183, #362 ) ;
#336 = CARTESIAN_POINT ( 'NONE',  ( 0.2500000000000000000, 3.061616997868382402E-17, 2.985000000000001208 ) ) ;
#337 = EDGE_LOOP ( 'NONE', ( #268, #135 ) ) ;
#338 = LINE ( 'NONE', #370, #86 ) ;
#339 = EDGE_LOOP ( 'NONE', ( #64, #143 ) ) ;
#340 = DIRECTION ( 'NONE',  ( -1.000000000000000000, 0.0000000000000000000, 0.0000000000000000000 ) ) ;
#341 = EDGE_CURVE ( 'NONE', #238, #24, #244, .T. ) ;
#342 = CIRCLE ( 'NONE', #29, 0.2500000000000000000 ) ;
#343 = DIRECTION ( 'NONE',  ( -0.0000000000000000000, -0.0000000000000000000, -1.000000000000000000 ) ) ;
#344 = CARTESIAN_POINT ( 'NONE',  ( -0.2500000000000000000, 0.0000000000000000000, 0.8749999999999994449 ) ) ;
#345 = ORIENTED_EDGE ( 'NONE', *, *, #360, .F. ) ;
#346 = DIRECTION ( 'NONE',  ( 0.0000000000000000000, 0.0000000000000000000, 1.000000000000000000 ) ) ;
#347 = CARTESIAN_POINT ( 'NONE',  ( -0.2500000000000000555, 0.0000000000000000000, 0.1029999999999999943 ) ) ;
#348 = VECTOR ( 'NONE', #272, 39.37007874015748143 ) ;
#349 = EDGE_CURVE ( 'NONE', #288, #236, #342, .T. ) ;
#350 = EDGE_CURVE ( 'NONE', #261, #372, #97, .T. ) ;
#351 = FACE_OUTER_BOUND ( 'NONE', #337, .T. ) ;
#352 = CARTESIAN_POINT ( 'NONE',  ( 0.2350000000000011524, 2.969768487932338510E-17, 3.000000000000000444 ) ) ;
#353 = EDGE_LOOP ( 'NONE', ( #77, #259, #112, #224 ) ) ;
#354 =( NAMED_UNIT ( * ) PLANE_ANGLE_UNIT ( ) SI_UNIT ( $, .RADIAN. ) );
#355 = CYLINDRICAL_SURFACE ( 'NONE', #324, 0.2500000000000000000 ) ;
#356 = VECTOR ( 'NONE', #343, 39.37007874015748143 ) ;
#357 = ORIENTED_EDGE ( 'NONE', *, *, #349, .F. ) ;
#358 = DIRECTION ( 'NONE',  ( 1.000000000000000000, 0.0000000000000000000, 0.0000000000000000000 ) ) ;
#359 = DIRECTION ( 'NONE',  ( 0.0000000000000000000, 0.0000000000000000000, 1.000000000000000000 ) ) ;
#360 = EDGE_CURVE ( 'NONE', #204, #55, #50, .T. ) ;
#361 = VECTOR ( 'NONE', #128, 39.37007874015748143 ) ;
#362 = DIRECTION ( 'NONE',  ( -1.000000000000000000, 0.0000000000000000000, 0.0000000000000000000 ) ) ;
#363 = DIRECTION ( 'NONE',  ( -0.0000000000000000000, -0.0000000000000000000, -1.000000000000000000 ) ) ;
#364 = DIRECTION ( 'NONE',  ( 0.7071067811865402453, 8.659560562354845344E-17, -0.7071067811865546782 ) ) ;
#365 = ADVANCED_FACE ( 'NONE', ( #82, #89 ), #321, .T. ) ;
#366 = DIRECTION ( 'NONE',  ( 0.0000000000000000000, 0.0000000000000000000, 1.000000000000000000 ) ) ;
#367 = STYLED_ITEM ( 'NONE', ( #327 ), #151 ) ;
#368 = FACE_OUTER_BOUND ( 'NONE', #176, .T. ) ;
#369 = DIRECTION ( 'NONE',  ( -1.000000000000000000, 0.0000000000000000000, 0.0000000000000000000 ) ) ;
#370 = CARTESIAN_POINT ( 'NONE',  ( 0.1250000000000000833, 0.0000000000000000000, 0.7500000000000001110 ) ) ;
#371 = AXIS2_PLACEMENT_3D ( 'NONE', #303, #95, #358 ) ;
#372 = VERTEX_POINT ( 'NONE', #352 ) ;
#373 = CARTESIAN_POINT ( 'NONE',  ( 0.0000000000000000000, 0.0000000000000000000, 0.7500000000000001110 ) ) ;
#374 = EDGE_LOOP ( 'NONE', ( #285, #160, #141, #144 ) ) ;
#375 = SURFACE_STYLE_FILL_AREA ( #223 ) ;
#376 = LINE ( 'NONE', #232, #117 ) ;
#377 = AXIS2_PLACEMENT_3D ( 'NONE', #67, #359, #72 ) ;
#378 = CARTESIAN_POINT ( 'NONE',  ( 0.2500000000000000000, 3.061616997868382402E-17, 0.8749999999999994449 ) ) ;
#379 = ORIENTED_EDGE ( 'NONE', *, *, #258, .T. ) ;
ENDSEC;
END-ISO-10303-21;
