ISO-10303-21;
HEADER;
FILE_DESCRIPTION (( 'STEP AP214' ),
    '1' );
FILE_NAME ('Micro_RNCM-120-1.STEP',
    '2021-09-03T17:43:12',
    ( '' ),
    ( '' ),
    'SwSTEP 2.0',
    'SolidWorks 2020',
    '' );
FILE_SCHEMA (( 'AUTOMOTIVE_DESIGN' ));
ENDSEC;

DATA;
#1 =( GEOMETRIC_REPRESENTATION_CONTEXT ( 3 ) GLOBAL_UNCERTAINTY_ASSIGNED_CONTEXT ( ( #55 ) ) GLOBAL_UNIT_ASSIGNED_CONTEXT ( ( #27, #240, #86 ) ) REPRESENTATION_CONTEXT ( 'NONE', 'WORKASPACE' ) );
#2 = ADVANCED_FACE ( 'NONE', ( #172 ), #16, .T. ) ;
#3 = FACE_OUTER_BOUND ( 'NONE', #69, .T. ) ;
#4 = DIRECTION ( 'NONE',  ( 0.0000000000000000000, 0.0000000000000000000, 1.000000000000000000 ) ) ;
#5 = PRESENTATION_LAYER_ASSIGNMENT (  '', '', ( #223 ) ) ;
#6 = AXIS2_PLACEMENT_3D ( 'NONE', #214, #64, #197 ) ;
#7 = DIRECTION ( 'NONE',  ( -0.0000000000000000000, -0.0000000000000000000, -1.000000000000000000 ) ) ;
#8 = ORIENTED_EDGE ( 'NONE', *, *, #78, .T. ) ;
#9 = CARTESIAN_POINT ( 'NONE',  ( 0.0000000000000000000, 0.0000000000000000000, 3.267717000000000649 ) ) ;
#10 = PLANE ( 'NONE',  #67 ) ;
#11 =( NAMED_UNIT ( * ) PLANE_ANGLE_UNIT ( ) SI_UNIT ( $, .RADIAN. ) );
#12 = CARTESIAN_POINT ( 'NONE',  ( 0.003936999999999995191, 0.0000000000000000000, 0.0000000000000000000 ) ) ;
#13 = DIRECTION ( 'NONE',  ( 0.0000000000000000000, 0.0000000000000000000, -1.000000000000000000 ) ) ;
#14 = ORIENTED_EDGE ( 'NONE', *, *, #230, .F. ) ;
#15 = SURFACE_STYLE_USAGE ( .BOTH. , #150 ) ;
#16 = CYLINDRICAL_SURFACE ( 'NONE', #200, 0.2362204999999999999 ) ;
#17 = CIRCLE ( 'NONE', #139, 0.2212205000000019295 ) ;
#18 = EDGE_CURVE ( 'NONE', #148, #168, #28, .T. ) ;
#19 = AXIS2_PLACEMENT_3D ( 'NONE', #43, #39, #104 ) ;
#20 = ORIENTED_EDGE ( 'NONE', *, *, #158, .T. ) ;
#21 = DIRECTION ( 'NONE',  ( 0.0000000000000000000, 0.0000000000000000000, 1.000000000000000000 ) ) ;
#22 = AXIS2_PLACEMENT_3D ( 'NONE', #25, #225, #88 ) ;
#23 = DIRECTION ( 'NONE',  ( -0.0000000000000000000, -0.0000000000000000000, -1.000000000000000000 ) ) ;
#24 = CARTESIAN_POINT ( 'NONE',  ( 0.0000000000000000000, 0.0000000000000000000, 3.267717000000000649 ) ) ;
#25 = CARTESIAN_POINT ( 'NONE',  ( 0.0000000000000000000, 0.0000000000000000000, 0.0000000000000000000 ) ) ;
#26 = PRODUCT_DEFINITION_FORMATION_WITH_SPECIFIED_SOURCE ( 'ANY', '', #218, .NOT_KNOWN. ) ;
#27 =( CONVERSION_BASED_UNIT ( 'INCH', #48 ) LENGTH_UNIT ( ) NAMED_UNIT ( #98 ) );
#28 = LINE ( 'NONE', #135, #90 ) ;
#29 = SURFACE_SIDE_STYLE ('',( #227 ) ) ;
#30 =( CONVERSION_BASED_UNIT ( 'INCH', #207 ) LENGTH_UNIT ( ) NAMED_UNIT ( #60 ) );
#31 = LENGTH_MEASURE_WITH_UNIT ( LENGTH_MEASURE( 0.02539999999999999897 ), #114 );
#32 = VECTOR ( 'NONE', #183, 39.37007874015748854 ) ;
#33 = LINE ( 'NONE', #123, #124 ) ;
#34 = ORIENTED_EDGE ( 'NONE', *, *, #100, .F. ) ;
#35 = VERTEX_POINT ( 'NONE', #248 ) ;
#36 = EDGE_CURVE ( 'NONE', #222, #175, #49, .T. ) ;
#37 = PRESENTATION_LAYER_ASSIGNMENT (  '', '', ( #201 ) ) ;
#38 = AXIS2_PLACEMENT_3D ( 'NONE', #217, #61, #182 ) ;
#39 = DIRECTION ( 'NONE',  ( -0.0000000000000000000, -0.0000000000000000000, -1.000000000000000000 ) ) ;
#40 = LINE ( 'NONE', #160, #32 ) ;
#41 = ADVANCED_FACE ( 'NONE', ( #188 ), #191, .T. ) ;
#42 = DIRECTION ( 'NONE',  ( -0.0000000000000000000, -0.0000000000000000000, -1.000000000000000000 ) ) ;
#43 = CARTESIAN_POINT ( 'NONE',  ( 0.0000000000000000000, 0.0000000000000000000, 0.0000000000000000000 ) ) ;
#44 = ORIENTED_EDGE ( 'NONE', *, *, #140, .F. ) ;
#45 = CARTESIAN_POINT ( 'NONE',  ( -0.2212205000000019295, 0.0000000000000000000, 3.267717000000000649 ) ) ;
#46 = PRODUCT_RELATED_PRODUCT_CATEGORY ( 'part', '', ( #218 ) ) ;
#47 = DIRECTION ( 'NONE',  ( -0.7071067811865474617, 0.0000000000000000000, -0.7071067811865474617 ) ) ;
#48 = LENGTH_MEASURE_WITH_UNIT ( LENGTH_MEASURE( 0.02539999999999999897 ), #204 );
#49 = LINE ( 'NONE', #111, #79 ) ;
#50 =( NAMED_UNIT ( * ) SI_UNIT ( $, .STERADIAN. ) SOLID_ANGLE_UNIT ( ) );
#51 = CONICAL_SURFACE ( 'NONE', #22, 0.003936999999999995191, 0.7853981633974502774 ) ;
#52 = FILL_AREA_STYLE_COLOUR ( '', #120 ) ;
#53 = PRESENTATION_STYLE_ASSIGNMENT (( #134 ) ) ;
#54 = ORIENTED_EDGE ( 'NONE', *, *, #211, .F. ) ;
#55 = UNCERTAINTY_MEASURE_WITH_UNIT (LENGTH_MEASURE( 1.000000000000000082E-05 ), #27, 'distance_accuracy_value', 'NONE');
#56 = ORIENTED_EDGE ( 'NONE', *, *, #18, .T. ) ;
#57 = AXIS2_PLACEMENT_3D ( 'NONE', #121, #122, #198 ) ;
#58 = ORIENTED_EDGE ( 'NONE', *, *, #158, .F. ) ;
#59 = AXIS2_PLACEMENT_3D ( 'NONE', #24, #125, #77 ) ;
#60 = DIMENSIONAL_EXPONENTS ( 1.000000000000000000, 0.0000000000000000000, 0.0000000000000000000, 0.0000000000000000000, 0.0000000000000000000, 0.0000000000000000000, 0.0000000000000000000 ) ;
#61 = DIRECTION ( 'NONE',  ( 0.0000000000000000000, 0.0000000000000000000, -1.000000000000000000 ) ) ;
#62 = FACE_OUTER_BOUND ( 'NONE', #221, .T. ) ;
#63 = CYLINDRICAL_SURFACE ( 'NONE', #161, 0.2362204999999999999 ) ;
#64 = DIRECTION ( 'NONE',  ( 0.0000000000000000000, 0.0000000000000000000, 1.000000000000000000 ) ) ;
#65 = ORIENTED_EDGE ( 'NONE', *, *, #18, .F. ) ;
#66 = DIRECTION ( 'NONE',  ( 1.000000000000000000, 0.0000000000000000000, -0.0000000000000000000 ) ) ;
#67 = AXIS2_PLACEMENT_3D ( 'NONE', #166, #236, #66 ) ;
#68 = DIRECTION ( 'NONE',  ( 0.7071067811865489050, 0.0000000000000000000, 0.7071067811865461294 ) ) ;
#69 = EDGE_LOOP ( 'NONE', ( #8, #130 ) ) ;
#70 = ORIENTED_EDGE ( 'NONE', *, *, #153, .F. ) ;
#71 = MANIFOLD_SOLID_BREP ( 'Cut-Revolve1', #180 ) ;
#72 = DIRECTION ( 'NONE',  ( -0.0000000000000000000, -0.0000000000000000000, -1.000000000000000000 ) ) ;
#73 = EDGE_LOOP ( 'NONE', ( #107, #231, #212, #44 ) ) ;
#74 =( NAMED_UNIT ( * ) SI_UNIT ( $, .STERADIAN. ) SOLID_ANGLE_UNIT ( ) );
#75 = EDGE_CURVE ( 'NONE', #126, #168, #33, .T. ) ;
#76 = PRODUCT_DEFINITION_SHAPE ( 'NONE', 'NONE',  #242 ) ;
#77 = DIRECTION ( 'NONE',  ( -1.000000000000000000, 0.0000000000000000000, 0.0000000000000000000 ) ) ;
#78 = EDGE_CURVE ( 'NONE', #192, #35, #17, .T. ) ;
#79 = VECTOR ( 'NONE', #132, 39.37007874015748143 ) ;
#80 = DIRECTION ( 'NONE',  ( -0.0000000000000000000, -0.0000000000000000000, -1.000000000000000000 ) ) ;
#81 = ORIENTED_EDGE ( 'NONE', *, *, #36, .F. ) ;
#82 = CARTESIAN_POINT ( 'NONE',  ( 0.0000000000000000000, 0.0000000000000000000, 3.267717000000000649 ) ) ;
#83 = ORIENTED_EDGE ( 'NONE', *, *, #75, .T. ) ;
#84 = FACE_OUTER_BOUND ( 'NONE', #91, .T. ) ;
#85 = VECTOR ( 'NONE', #47, 39.37007874015748854 ) ;
#86 =( NAMED_UNIT ( * ) SI_UNIT ( $, .STERADIAN. ) SOLID_ANGLE_UNIT ( ) );
#87 = PRODUCT_CONTEXT ( 'NONE', #96, 'mechanical' ) ;
#88 = DIRECTION ( 'NONE',  ( 1.000000000000000000, 0.0000000000000000000, 0.0000000000000000000 ) ) ;
#89 = DIRECTION ( 'NONE',  ( -1.000000000000000000, 0.0000000000000000000, 0.0000000000000000000 ) ) ;
#90 = VECTOR ( 'NONE', #117, 39.37007874015748143 ) ;
#91 = EDGE_LOOP ( 'NONE', ( #238, #113, #58, #54 ) ) ;
#92 = ADVANCED_FACE ( 'NONE', ( #84 ), #234, .T. ) ;
#93 = EDGE_LOOP ( 'NONE', ( #20, #241, #70, #210 ) ) ;
#94 = CARTESIAN_POINT ( 'NONE',  ( 0.0000000000000000000, 0.0000000000000000000, 3.267717000000000649 ) ) ;
#95 = AXIS2_PLACEMENT_3D ( 'NONE', #144, #23, #101 ) ;
#96 = APPLICATION_CONTEXT ( 'automotive_design' ) ;
#97 = ADVANCED_FACE ( 'NONE', ( #235 ), #109, .T. ) ;
#98 = DIMENSIONAL_EXPONENTS ( 1.000000000000000000, 0.0000000000000000000, 0.0000000000000000000, 0.0000000000000000000, 0.0000000000000000000, 0.0000000000000000000, 0.0000000000000000000 ) ;
#99 = CIRCLE ( 'NONE', #57, 0.2362204999999999999 ) ;
#100 = EDGE_CURVE ( 'NONE', #194, #148, #244, .T. ) ;
#101 = DIRECTION ( 'NONE',  ( -1.000000000000000000, 0.0000000000000000000, 0.0000000000000000000 ) ) ;
#102 = DIRECTION ( 'NONE',  ( -1.000000000000000000, 0.0000000000000000000, 0.0000000000000000000 ) ) ;
#103 = AXIS2_PLACEMENT_3D ( 'NONE', #162, #21, #185 ) ;
#104 = DIRECTION ( 'NONE',  ( -1.000000000000000000, 0.0000000000000000000, 0.0000000000000000000 ) ) ;
#105 = ORIENTED_EDGE ( 'NONE', *, *, #190, .T. ) ;
#106 = CARTESIAN_POINT ( 'NONE',  ( 0.2362204999999999999, 2.892866792179872647E-17, 0.2322834999999990879 ) ) ;
#107 = ORIENTED_EDGE ( 'NONE', *, *, #116, .F. ) ;
#108 = CARTESIAN_POINT ( 'NONE',  ( -0.003936999999999995191, 1.470540568331152355E-17, 0.0000000000000000000 ) ) ;
#109 = CONICAL_SURFACE ( 'NONE', #103, 0.003936999999999995191, 0.7853981633974502774 ) ;
#110 = CARTESIAN_POINT ( 'NONE',  ( 0.2362204999999999999, 2.892866792179872647E-17, 3.252717000000002301 ) ) ;
#111 = CARTESIAN_POINT ( 'NONE',  ( 0.2362204999999999999, 2.892866792179872647E-17, 3.267717000000000649 ) ) ;
#112 = CARTESIAN_POINT ( 'NONE',  ( 0.0000000000000000000, 0.0000000000000000000, 0.0000000000000000000 ) ) ;
#113 = ORIENTED_EDGE ( 'NONE', *, *, #116, .T. ) ;
#114 =( LENGTH_UNIT ( ) NAMED_UNIT ( * ) SI_UNIT ( $, .METRE. ) );
#115 = COLOUR_RGB ( '',0.7921568627450980005, 0.8196078431372548767, 0.9333333333333333481 ) ;
#116 = EDGE_CURVE ( 'NONE', #35, #222, #40, .T. ) ;
#117 = DIRECTION ( 'NONE',  ( -0.7071067811865489050, 8.659560562354950115E-17, 0.7071067811865461294 ) ) ;
#118 = AXIS2_PLACEMENT_3D ( 'NONE', #193, #13, #152 ) ;
#119 = CIRCLE ( 'NONE', #6, 0.2212205000000019295 ) ;
#120 = COLOUR_RGB ( '',0.7921568627450980005, 0.8196078431372548767, 0.9333333333333333481 ) ;
#121 = CARTESIAN_POINT ( 'NONE',  ( 0.0000000000000000000, 0.0000000000000000000, 3.252717000000002301 ) ) ;
#122 = DIRECTION ( 'NONE',  ( 0.0000000000000000000, 0.0000000000000000000, -1.000000000000000000 ) ) ;
#123 = CARTESIAN_POINT ( 'NONE',  ( -0.2362204999999999999, 0.0000000000000000000, 3.267717000000000649 ) ) ;
#124 = VECTOR ( 'NONE', #147, 39.37007874015748143 ) ;
#125 = DIRECTION ( 'NONE',  ( 0.0000000000000000000, 0.0000000000000000000, -1.000000000000000000 ) ) ;
#126 = VERTEX_POINT ( 'NONE', #165 ) ;
#127 = EDGE_CURVE ( 'NONE', #175, #168, #151, .T. ) ;
#128 = CARTESIAN_POINT ( 'NONE',  ( 0.003936999999999995191, 0.0000000000000000000, 0.0000000000000000000 ) ) ;
#129 = LINE ( 'NONE', #12, #171 ) ;
#130 = ORIENTED_EDGE ( 'NONE', *, *, #179, .T. ) ;
#131 = LINE ( 'NONE', #169, #85 ) ;
#132 = DIRECTION ( 'NONE',  ( -0.0000000000000000000, -0.0000000000000000000, -1.000000000000000000 ) ) ;
#133 = SURFACE_STYLE_FILL_AREA ( #205 ) ;
#134 = SURFACE_STYLE_USAGE ( .BOTH. , #29 ) ;
#135 = CARTESIAN_POINT ( 'NONE',  ( -0.003936999999999995191, 4.821434448243123477E-19, 0.0000000000000000000 ) ) ;
#136 = AXIS2_PLACEMENT_3D ( 'NONE', #215, #80, #220 ) ;
#137 = CIRCLE ( 'NONE', #38, 0.2362204999999999999 ) ;
#138 = ORIENTED_EDGE ( 'NONE', *, *, #127, .T. ) ;
#139 = AXIS2_PLACEMENT_3D ( 'NONE', #82, #163, #199 ) ;
#140 = EDGE_CURVE ( 'NONE', #222, #126, #99, .T. ) ;
#141 = FACE_OUTER_BOUND ( 'NONE', #93, .T. ) ;
#142 = AXIS2_PLACEMENT_3D ( 'NONE', #112, #157, #246 ) ;
#143 = CARTESIAN_POINT ( 'NONE',  ( -0.2362204999999999999, 0.0000000000000000000, 0.2322834999999990879 ) ) ;
#144 = CARTESIAN_POINT ( 'NONE',  ( 0.0000000000000000000, 0.0000000000000000000, 0.2322834999999990879 ) ) ;
#145 = UNCERTAINTY_MEASURE_WITH_UNIT (LENGTH_MEASURE( 1.000000000000000082E-05 ), #174, 'distance_accuracy_value', 'NONE');
#146 = ADVANCED_FACE ( 'NONE', ( #141 ), #63, .T. ) ;
#147 = DIRECTION ( 'NONE',  ( -0.0000000000000000000, -0.0000000000000000000, -1.000000000000000000 ) ) ;
#148 = VERTEX_POINT ( 'NONE', #108 ) ;
#149 = CARTESIAN_POINT ( 'NONE',  ( 0.0000000000000000000, 0.0000000000000000000, 3.267717000000000649 ) ) ;
#150 = SURFACE_SIDE_STYLE ('',( #133 ) ) ;
#151 = CIRCLE ( 'NONE', #95, 0.2362204999999999999 ) ;
#152 = DIRECTION ( 'NONE',  ( -1.000000000000000000, 0.0000000000000000000, 0.0000000000000000000 ) ) ;
#153 = EDGE_CURVE ( 'NONE', #168, #175, #196, .T. ) ;
#154 = ORIENTED_EDGE ( 'NONE', *, *, #230, .T. ) ;
#155 = APPLICATION_PROTOCOL_DEFINITION ( 'draft international standard', 'automotive_design', 1998, #232 ) ;
#156 = ORIENTED_EDGE ( 'NONE', *, *, #153, .T. ) ;
#157 = DIRECTION ( 'NONE',  ( 0.0000000000000000000, 0.0000000000000000000, 1.000000000000000000 ) ) ;
#158 = EDGE_CURVE ( 'NONE', #126, #222, #137, .T. ) ;
#159 = PRODUCT_DEFINITION_CONTEXT ( 'detailed design', #232, 'design' ) ;
#160 = CARTESIAN_POINT ( 'NONE',  ( 0.2212205000000019295, 2.709169772307794108E-17, 3.267717000000000649 ) ) ;
#161 = AXIS2_PLACEMENT_3D ( 'NONE', #149, #7, #177 ) ;
#162 = CARTESIAN_POINT ( 'NONE',  ( 0.0000000000000000000, 0.0000000000000000000, 0.0000000000000000000 ) ) ;
#163 = DIRECTION ( 'NONE',  ( 0.0000000000000000000, 0.0000000000000000000, 1.000000000000000000 ) ) ;
#164 = EDGE_LOOP ( 'NONE', ( #65, #34, #154, #138 ) ) ;
#165 = CARTESIAN_POINT ( 'NONE',  ( -0.2362204999999999999, 0.0000000000000000000, 3.252717000000002301 ) ) ;
#166 = CARTESIAN_POINT ( 'NONE',  ( 0.0000000000000000000, 0.0000000000000000000, 0.0000000000000000000 ) ) ;
#167 = ADVANCED_FACE ( 'NONE', ( #62 ), #10, .F. ) ;
#168 = VERTEX_POINT ( 'NONE', #143 ) ;
#169 = CARTESIAN_POINT ( 'NONE',  ( -0.2212205000000019295, 0.0000000000000000000, 3.267717000000000649 ) ) ;
#170 = ORIENTED_EDGE ( 'NONE', *, *, #127, .F. ) ;
#171 = VECTOR ( 'NONE', #68, 39.37007874015748143 ) ;
#172 = FACE_OUTER_BOUND ( 'NONE', #226, .T. ) ;
#173 = EDGE_LOOP ( 'NONE', ( #247, #56, #156, #14 ) ) ;
#174 =( CONVERSION_BASED_UNIT ( 'INCH', #31 ) LENGTH_UNIT ( ) NAMED_UNIT ( #213 ) );
#175 = VERTEX_POINT ( 'NONE', #106 ) ;
#176 =( GEOMETRIC_REPRESENTATION_CONTEXT ( 3 ) GLOBAL_UNCERTAINTY_ASSIGNED_CONTEXT ( ( #216 ) ) GLOBAL_UNIT_ASSIGNED_CONTEXT ( ( #30, #189, #74 ) ) REPRESENTATION_CONTEXT ( 'NONE', 'WORKASPACE' ) );
#177 = DIRECTION ( 'NONE',  ( -1.000000000000000000, 0.0000000000000000000, 0.0000000000000000000 ) ) ;
#178 = DIRECTION ( 'NONE',  ( 1.000000000000000000, 0.0000000000000000000, -0.0000000000000000000 ) ) ;
#179 = EDGE_CURVE ( 'NONE', #35, #192, #119, .T. ) ;
#180 = CLOSED_SHELL ( 'NONE', ( #206, #92, #146, #2, #184, #41, #97, #167 ) ) ;
#181 = CIRCLE ( 'NONE', #136, 0.003936999999999995191 ) ;
#182 = DIRECTION ( 'NONE',  ( 1.000000000000000000, 0.0000000000000000000, 0.0000000000000000000 ) ) ;
#183 = DIRECTION ( 'NONE',  ( 0.7071067811865474617, 8.659560562354932858E-17, -0.7071067811865474617 ) ) ;
#184 = ADVANCED_FACE ( 'NONE', ( #3 ), #202, .T. ) ;
#185 = DIRECTION ( 'NONE',  ( 1.000000000000000000, 0.0000000000000000000, 0.0000000000000000000 ) ) ;
#186 = AXIS2_PLACEMENT_3D ( 'NONE', #9, #4, #178 ) ;
#187 = APPLICATION_PROTOCOL_DEFINITION ( 'draft international standard', 'automotive_design', 1998, #96 ) ;
#188 = FACE_OUTER_BOUND ( 'NONE', #73, .T. ) ;
#189 =( NAMED_UNIT ( * ) PLANE_ANGLE_UNIT ( ) SI_UNIT ( $, .RADIAN. ) );
#190 = EDGE_CURVE ( 'NONE', #148, #194, #181, .T. ) ;
#191 = CONICAL_SURFACE ( 'NONE', #118, 0.2212205000000019295, 0.7853981633974482790 ) ;
#192 = VERTEX_POINT ( 'NONE', #45 ) ;
#193 = CARTESIAN_POINT ( 'NONE',  ( 0.0000000000000000000, 0.0000000000000000000, 3.267717000000000649 ) ) ;
#194 = VERTEX_POINT ( 'NONE', #128 ) ;
#195 = ADVANCED_BREP_SHAPE_REPRESENTATION ( 'Micro_RNCM-120-1', ( #71, #142 ), #1 ) ;
#196 = CIRCLE ( 'NONE', #224, 0.2362204999999999999 ) ;
#197 = DIRECTION ( 'NONE',  ( 1.000000000000000000, 0.0000000000000000000, 0.0000000000000000000 ) ) ;
#198 = DIRECTION ( 'NONE',  ( 1.000000000000000000, 0.0000000000000000000, 0.0000000000000000000 ) ) ;
#199 = DIRECTION ( 'NONE',  ( 1.000000000000000000, 0.0000000000000000000, 0.0000000000000000000 ) ) ;
#200 = AXIS2_PLACEMENT_3D ( 'NONE', #94, #72, #89 ) ;
#201 = STYLED_ITEM ( 'NONE', ( #53 ), #195 ) ;
#202 = PLANE ( 'NONE',  #186 ) ;
#203 = FACE_OUTER_BOUND ( 'NONE', #173, .T. ) ;
#204 =( LENGTH_UNIT ( ) NAMED_UNIT ( * ) SI_UNIT ( $, .METRE. ) );
#205 = FILL_AREA_STYLE ('',( #245 ) ) ;
#206 = ADVANCED_FACE ( 'NONE', ( #203 ), #51, .T. ) ;
#207 = LENGTH_MEASURE_WITH_UNIT ( LENGTH_MEASURE( 0.02539999999999999897 ), #243 );
#208 = PRESENTATION_STYLE_ASSIGNMENT (( #15 ) ) ;
#209 = MECHANICAL_DESIGN_GEOMETRIC_PRESENTATION_REPRESENTATION (  '', ( #201 ), #239 ) ;
#210 = ORIENTED_EDGE ( 'NONE', *, *, #75, .F. ) ;
#211 = EDGE_CURVE ( 'NONE', #192, #126, #131, .T. ) ;
#212 = ORIENTED_EDGE ( 'NONE', *, *, #211, .T. ) ;
#213 = DIMENSIONAL_EXPONENTS ( 1.000000000000000000, 0.0000000000000000000, 0.0000000000000000000, 0.0000000000000000000, 0.0000000000000000000, 0.0000000000000000000, 0.0000000000000000000 ) ;
#214 = CARTESIAN_POINT ( 'NONE',  ( 0.0000000000000000000, 0.0000000000000000000, 3.267717000000000649 ) ) ;
#215 = CARTESIAN_POINT ( 'NONE',  ( 0.0000000000000000000, 0.0000000000000000000, 0.0000000000000000000 ) ) ;
#216 = UNCERTAINTY_MEASURE_WITH_UNIT (LENGTH_MEASURE( 1.000000000000000082E-05 ), #30, 'distance_accuracy_value', 'NONE');
#217 = CARTESIAN_POINT ( 'NONE',  ( 0.0000000000000000000, 0.0000000000000000000, 3.252717000000002301 ) ) ;
#218 = PRODUCT ( 'Micro_RNCM-120-1', 'Micro_RNCM-120-1', '', ( #87 ) ) ;
#219 = ORIENTED_EDGE ( 'NONE', *, *, #100, .T. ) ;
#220 = DIRECTION ( 'NONE',  ( -1.000000000000000000, 0.0000000000000000000, 0.0000000000000000000 ) ) ;
#221 = EDGE_LOOP ( 'NONE', ( #219, #105 ) ) ;
#222 = VERTEX_POINT ( 'NONE', #110 ) ;
#223 = STYLED_ITEM ( 'NONE', ( #208 ), #71 ) ;
#224 = AXIS2_PLACEMENT_3D ( 'NONE', #237, #42, #102 ) ;
#225 = DIRECTION ( 'NONE',  ( 0.0000000000000000000, 0.0000000000000000000, 1.000000000000000000 ) ) ;
#226 = EDGE_LOOP ( 'NONE', ( #81, #228, #83, #170 ) ) ;
#227 = SURFACE_STYLE_FILL_AREA ( #249 ) ;
#228 = ORIENTED_EDGE ( 'NONE', *, *, #140, .T. ) ;
#229 = SHAPE_DEFINITION_REPRESENTATION ( #76, #195 ) ;
#230 = EDGE_CURVE ( 'NONE', #194, #175, #129, .T. ) ;
#231 = ORIENTED_EDGE ( 'NONE', *, *, #78, .F. ) ;
#232 = APPLICATION_CONTEXT ( 'automotive_design' ) ;
#233 = MECHANICAL_DESIGN_GEOMETRIC_PRESENTATION_REPRESENTATION (  '', ( #223 ), #176 ) ;
#234 = CONICAL_SURFACE ( 'NONE', #59, 0.2212205000000019295, 0.7853981633974482790 ) ;
#235 = FACE_OUTER_BOUND ( 'NONE', #164, .T. ) ;
#236 = DIRECTION ( 'NONE',  ( 0.0000000000000000000, 0.0000000000000000000, 1.000000000000000000 ) ) ;
#237 = CARTESIAN_POINT ( 'NONE',  ( 0.0000000000000000000, 0.0000000000000000000, 0.2322834999999990879 ) ) ;
#238 = ORIENTED_EDGE ( 'NONE', *, *, #179, .F. ) ;
#239 =( GEOMETRIC_REPRESENTATION_CONTEXT ( 3 ) GLOBAL_UNCERTAINTY_ASSIGNED_CONTEXT ( ( #145 ) ) GLOBAL_UNIT_ASSIGNED_CONTEXT ( ( #174, #11, #50 ) ) REPRESENTATION_CONTEXT ( 'NONE', 'WORKASPACE' ) );
#240 =( NAMED_UNIT ( * ) PLANE_ANGLE_UNIT ( ) SI_UNIT ( $, .RADIAN. ) );
#241 = ORIENTED_EDGE ( 'NONE', *, *, #36, .T. ) ;
#242 = PRODUCT_DEFINITION ( 'UNKNOWN', '', #26, #159 ) ;
#243 =( LENGTH_UNIT ( ) NAMED_UNIT ( * ) SI_UNIT ( $, .METRE. ) );
#244 = CIRCLE ( 'NONE', #19, 0.003936999999999995191 ) ;
#245 = FILL_AREA_STYLE_COLOUR ( '', #115 ) ;
#246 = DIRECTION ( 'NONE',  ( 1.000000000000000000, 0.0000000000000000000, 0.0000000000000000000 ) ) ;
#247 = ORIENTED_EDGE ( 'NONE', *, *, #190, .F. ) ;
#248 = CARTESIAN_POINT ( 'NONE',  ( 0.2212205000000019295, 2.801018282243833685E-17, 3.267717000000000649 ) ) ;
#249 = FILL_AREA_STYLE ('',( #52 ) ) ;
ENDSEC;
END-ISO-10303-21;
