ISO-10303-21;
HEADER;
FILE_DESCRIPTION (( 'STEP AP214' ),
    '1' );
FILE_NAME ('Micro_RTC-125-1.STEP',
    '2021-09-03T18:02:22',
    ( '' ),
    ( '' ),
    'SwSTEP 2.0',
    'SolidWorks 2020',
    '' );
FILE_SCHEMA (( 'AUTOMOTIVE_DESIGN' ));
ENDSEC;

DATA;
#1 = ORIENTED_EDGE ( 'NONE', *, *, #87, .F. ) ;
#2 = EDGE_CURVE ( 'NONE', #147, #213, #131, .T. ) ;
#3 = CARTESIAN_POINT ( 'NONE',  ( -0.06249999999999997918, 0.0000000000000000000, 1.500000000000000222 ) ) ;
#4 = COLOUR_RGB ( '',0.7921568627450980005, 0.8196078431372548767, 0.9333333333333333481 ) ;
#5 = DIRECTION ( 'NONE',  ( 0.2588190451025217387, 0.0000000000000000000, 0.9659258262890679791 ) ) ;
#6 = SURFACE_STYLE_FILL_AREA ( #130 ) ;
#7 = ORIENTED_EDGE ( 'NONE', *, *, #26, .F. ) ;
#8 = PLANE ( 'NONE',  #200 ) ;
#9 =( GEOMETRIC_REPRESENTATION_CONTEXT ( 3 ) GLOBAL_UNCERTAINTY_ASSIGNED_CONTEXT ( ( #142 ) ) GLOBAL_UNIT_ASSIGNED_CONTEXT ( ( #181, #48, #31 ) ) REPRESENTATION_CONTEXT ( 'NONE', 'WORKASPACE' ) );
#10 = EDGE_CURVE ( 'NONE', #111, #125, #187, .T. ) ;
#11 = DIRECTION ( 'NONE',  ( -0.2588190451025217387, 3.169619151431776651E-17, 0.9659258262890679791 ) ) ;
#12 = CARTESIAN_POINT ( 'NONE',  ( 0.0000000000000000000, 0.0000000000000000000, 1.485000000000000764 ) ) ;
#13 = LINE ( 'NONE', #141, #235 ) ;
#14 = ORIENTED_EDGE ( 'NONE', *, *, #2, .T. ) ;
#15 = CIRCLE ( 'NONE', #50, 0.06249999999999997918 ) ;
#16 = SURFACE_SIDE_STYLE ('',( #18 ) ) ;
#17 = UNCERTAINTY_MEASURE_WITH_UNIT (LENGTH_MEASURE( 1.000000000000000082E-05 ), #208, 'distance_accuracy_value', 'NONE');
#18 = SURFACE_STYLE_FILL_AREA ( #110 ) ;
#19 = ORIENTED_EDGE ( 'NONE', *, *, #214, .F. ) ;
#20 = AXIS2_PLACEMENT_3D ( 'NONE', #116, #79, #171 ) ;
#21 = EDGE_CURVE ( 'NONE', #125, #111, #123, .T. ) ;
#22 = CARTESIAN_POINT ( 'NONE',  ( 0.0000000000000000000, 0.0000000000000000000, 1.500000000000000222 ) ) ;
#23 = DIRECTION ( 'NONE',  ( -0.0000000000000000000, -0.0000000000000000000, -1.000000000000000000 ) ) ;
#24 = COLOUR_RGB ( '',0.7921568627450980005, 0.8196078431372548767, 0.9333333333333333481 ) ;
#25 = CARTESIAN_POINT ( 'NONE',  ( 0.0000000000000000000, 0.0000000000000000000, 0.0000000000000000000 ) ) ;
#26 = EDGE_CURVE ( 'NONE', #189, #231, #192, .T. ) ;
#27 = LINE ( 'NONE', #238, #223 ) ;
#28 = DIRECTION ( 'NONE',  ( -0.0000000000000000000, -0.0000000000000000000, -1.000000000000000000 ) ) ;
#29 = PRODUCT_DEFINITION_SHAPE ( 'NONE', 'NONE',  #36 ) ;
#30 = VECTOR ( 'NONE', #60, 39.37007874015748143 ) ;
#31 =( NAMED_UNIT ( * ) SI_UNIT ( $, .STERADIAN. ) SOLID_ANGLE_UNIT ( ) );
#32 = ADVANCED_FACE ( 'NONE', ( #115 ), #156, .T. ) ;
#33 = FACE_OUTER_BOUND ( 'NONE', #186, .T. ) ;
#34 = DIRECTION ( 'NONE',  ( -1.000000000000000000, 0.0000000000000000000, 0.0000000000000000000 ) ) ;
#35 = FACE_OUTER_BOUND ( 'NONE', #71, .T. ) ;
#36 = PRODUCT_DEFINITION ( 'UNKNOWN', '', #68, #168 ) ;
#37 = EDGE_LOOP ( 'NONE', ( #129, #191, #93, #40 ) ) ;
#38 = VECTOR ( 'NONE', #175, 39.37007874015748143 ) ;
#39 = ORIENTED_EDGE ( 'NONE', *, *, #83, .T. ) ;
#40 = ORIENTED_EDGE ( 'NONE', *, *, #44, .F. ) ;
#41 = FACE_OUTER_BOUND ( 'NONE', #37, .T. ) ;
#42 = LENGTH_MEASURE_WITH_UNIT ( LENGTH_MEASURE( 0.02539999999999999897 ), #78 );
#43 = DIRECTION ( 'NONE',  ( -0.0000000000000000000, -0.0000000000000000000, -1.000000000000000000 ) ) ;
#44 = EDGE_CURVE ( 'NONE', #213, #228, #27, .T. ) ;
#45 = CARTESIAN_POINT ( 'NONE',  ( 0.0000000000000000000, 0.0000000000000000000, 0.0000000000000000000 ) ) ;
#46 = DIRECTION ( 'NONE',  ( 0.0000000000000000000, 0.0000000000000000000, 1.000000000000000000 ) ) ;
#47 = ADVANCED_FACE ( 'NONE', ( #117 ), #163, .T. ) ;
#48 =( NAMED_UNIT ( * ) PLANE_ANGLE_UNIT ( ) SI_UNIT ( $, .RADIAN. ) );
#49 = PRESENTATION_LAYER_ASSIGNMENT (  '', '', ( #190 ) ) ;
#50 = AXIS2_PLACEMENT_3D ( 'NONE', #133, #119, #154 ) ;
#51 = CARTESIAN_POINT ( 'NONE',  ( -0.06249999999999997918, 0.0000000000000000000, 1.485000000000000764 ) ) ;
#52 = CARTESIAN_POINT ( 'NONE',  ( -0.04750000000000063893, 0.0000000000000000000, 1.500000000000000222 ) ) ;
#53 = ADVANCED_FACE ( 'NONE', ( #239 ), #8, .T. ) ;
#54 = ORIENTED_EDGE ( 'NONE', *, *, #83, .F. ) ;
#55 = PRESENTATION_LAYER_ASSIGNMENT (  '', '', ( #159 ) ) ;
#56 = ORIENTED_EDGE ( 'NONE', *, *, #127, .F. ) ;
#57 = ORIENTED_EDGE ( 'NONE', *, *, #10, .T. ) ;
#58 = AXIS2_PLACEMENT_3D ( 'NONE', #22, #62, #94 ) ;
#59 = DIRECTION ( 'NONE',  ( 0.0000000000000000000, 0.0000000000000000000, 1.000000000000000000 ) ) ;
#60 = DIRECTION ( 'NONE',  ( -0.0000000000000000000, -0.0000000000000000000, -1.000000000000000000 ) ) ;
#61 = DIRECTION ( 'NONE',  ( -1.000000000000000000, 0.0000000000000000000, 0.0000000000000000000 ) ) ;
#62 = DIRECTION ( 'NONE',  ( 0.0000000000000000000, 0.0000000000000000000, -1.000000000000000000 ) ) ;
#63 = DIRECTION ( 'NONE',  ( 0.0000000000000000000, 0.0000000000000000000, -1.000000000000000000 ) ) ;
#64 = DIRECTION ( 'NONE',  ( -0.0000000000000000000, -0.0000000000000000000, -1.000000000000000000 ) ) ;
#65 = CARTESIAN_POINT ( 'NONE',  ( 0.0000000000000000000, 0.0000000000000000000, 0.0000000000000000000 ) ) ;
#66 = DIRECTION ( 'NONE',  ( -1.000000000000000000, 0.0000000000000000000, 0.0000000000000000000 ) ) ;
#67 = DIRECTION ( 'NONE',  ( 1.000000000000000000, 0.0000000000000000000, 0.0000000000000000000 ) ) ;
#68 = PRODUCT_DEFINITION_FORMATION_WITH_SPECIFIED_SOURCE ( 'ANY', '', #236, .NOT_KNOWN. ) ;
#69 = PRODUCT_RELATED_PRODUCT_CATEGORY ( 'part', '', ( #236 ) ) ;
#70 = SHAPE_DEFINITION_REPRESENTATION ( #29, #180 ) ;
#71 = EDGE_LOOP ( 'NONE', ( #39, #207, #108, #7 ) ) ;
#72 = DIRECTION ( 'NONE',  ( 0.0000000000000000000, 0.0000000000000000000, 1.000000000000000000 ) ) ;
#73 = ORIENTED_EDGE ( 'NONE', *, *, #44, .T. ) ;
#74 = DIRECTION ( 'NONE',  ( 0.0000000000000000000, 0.0000000000000000000, 1.000000000000000000 ) ) ;
#75 =( GEOMETRIC_REPRESENTATION_CONTEXT ( 3 ) GLOBAL_UNCERTAINTY_ASSIGNED_CONTEXT ( ( #17 ) ) GLOBAL_UNIT_ASSIGNED_CONTEXT ( ( #208, #106, #227 ) ) REPRESENTATION_CONTEXT ( 'NONE', 'WORKASPACE' ) );
#76 = CIRCLE ( 'NONE', #139, 0.003999999999999999216 ) ;
#77 = DIRECTION ( 'NONE',  ( -0.0000000000000000000, -0.0000000000000000000, -1.000000000000000000 ) ) ;
#78 =( LENGTH_UNIT ( ) NAMED_UNIT ( * ) SI_UNIT ( $, .METRE. ) );
#79 = DIRECTION ( 'NONE',  ( 0.0000000000000000000, 0.0000000000000000000, 1.000000000000000000 ) ) ;
#80 = ADVANCED_FACE ( 'NONE', ( #41 ), #126, .T. ) ;
#81 = LINE ( 'NONE', #221, #220 ) ;
#82 = PLANE ( 'NONE',  #132 ) ;
#83 = EDGE_CURVE ( 'NONE', #189, #151, #15, .T. ) ;
#84 = DIRECTION ( 'NONE',  ( -0.0000000000000000000, -0.0000000000000000000, -1.000000000000000000 ) ) ;
#85 = CARTESIAN_POINT ( 'NONE',  ( 0.0000000000000000000, 0.0000000000000000000, 0.2183249722427783590 ) ) ;
#86 = DIRECTION ( 'NONE',  ( 0.0000000000000000000, 0.0000000000000000000, 1.000000000000000000 ) ) ;
#87 = EDGE_CURVE ( 'NONE', #213, #147, #76, .T. ) ;
#88 = ORIENTED_EDGE ( 'NONE', *, *, #10, .F. ) ;
#89 = AXIS2_PLACEMENT_3D ( 'NONE', #140, #122, #143 ) ;
#90 = ORIENTED_EDGE ( 'NONE', *, *, #95, .F. ) ;
#91 = CLOSED_SHELL ( 'NONE', ( #80, #204, #174, #32, #53, #47, #230, #247 ) ) ;
#92 = DIMENSIONAL_EXPONENTS ( 1.000000000000000000, 0.0000000000000000000, 0.0000000000000000000, 0.0000000000000000000, 0.0000000000000000000, 0.0000000000000000000, 0.0000000000000000000 ) ;
#93 = ORIENTED_EDGE ( 'NONE', *, *, #114, .T. ) ;
#94 = DIRECTION ( 'NONE',  ( -1.000000000000000000, 0.0000000000000000000, 0.0000000000000000000 ) ) ;
#95 = EDGE_CURVE ( 'NONE', #111, #151, #217, .T. ) ;
#96 = CARTESIAN_POINT ( 'NONE',  ( 0.0000000000000000000, 0.0000000000000000000, 1.500000000000000222 ) ) ;
#97 = AXIS2_PLACEMENT_3D ( 'NONE', #85, #64, #66 ) ;
#98 = CARTESIAN_POINT ( 'NONE',  ( 0.04750000000000063893, 5.817072295950005757E-18, 1.500000000000000222 ) ) ;
#99 = CARTESIAN_POINT ( 'NONE',  ( 0.0000000000000000000, 0.0000000000000000000, 1.500000000000000222 ) ) ;
#100 = DIRECTION ( 'NONE',  ( -1.000000000000000000, 0.0000000000000000000, 0.0000000000000000000 ) ) ;
#101 = APPLICATION_CONTEXT ( 'automotive_design' ) ;
#102 = CARTESIAN_POINT ( 'NONE',  ( 0.003999999999999999216, 0.0000000000000000000, 0.0000000000000000000 ) ) ;
#103 = DIRECTION ( 'NONE',  ( -0.0000000000000000000, -0.0000000000000000000, -1.000000000000000000 ) ) ;
#104 = CARTESIAN_POINT ( 'NONE',  ( 0.0000000000000000000, 0.0000000000000000000, 1.500000000000000222 ) ) ;
#105 = EDGE_LOOP ( 'NONE', ( #197, #14 ) ) ;
#106 =( NAMED_UNIT ( * ) PLANE_ANGLE_UNIT ( ) SI_UNIT ( $, .RADIAN. ) );
#107 = AXIS2_PLACEMENT_3D ( 'NONE', #99, #59, #218 ) ;
#108 = ORIENTED_EDGE ( 'NONE', *, *, #114, .F. ) ;
#109 = ORIENTED_EDGE ( 'NONE', *, *, #21, .T. ) ;
#110 = FILL_AREA_STYLE ('',( #225 ) ) ;
#111 = VERTEX_POINT ( 'NONE', #196 ) ;
#112 =( LENGTH_UNIT ( ) NAMED_UNIT ( * ) SI_UNIT ( $, .METRE. ) );
#113 = EDGE_LOOP ( 'NONE', ( #90, #150, #244, #19 ) ) ;
#114 = EDGE_CURVE ( 'NONE', #231, #228, #172, .T. ) ;
#115 = FACE_OUTER_BOUND ( 'NONE', #245, .T. ) ;
#116 = CARTESIAN_POINT ( 'NONE',  ( 0.0000000000000000000, 0.0000000000000000000, 1.500000000000000222 ) ) ;
#117 = FACE_OUTER_BOUND ( 'NONE', #113, .T. ) ;
#118 = MANIFOLD_SOLID_BREP ( 'Cut-Revolve1', #91 ) ;
#119 = DIRECTION ( 'NONE',  ( 0.0000000000000000000, 0.0000000000000000000, -1.000000000000000000 ) ) ;
#120 = AXIS2_PLACEMENT_3D ( 'NONE', #45, #43, #134 ) ;
#121 = CARTESIAN_POINT ( 'NONE',  ( -0.06249999999999997918, 0.0000000000000000000, 0.2183249722427783590 ) ) ;
#122 = DIRECTION ( 'NONE',  ( 0.0000000000000000000, 0.0000000000000000000, 1.000000000000000000 ) ) ;
#123 = CIRCLE ( 'NONE', #20, 0.04750000000000063893 ) ;
#124 = APPLICATION_CONTEXT ( 'automotive_design' ) ;
#125 = VERTEX_POINT ( 'NONE', #199 ) ;
#126 = CONICAL_SURFACE ( 'NONE', #234, 0.003999999999999999216, 0.2617993877991504625 ) ;
#127 = EDGE_CURVE ( 'NONE', #151, #228, #81, .T. ) ;
#128 = ORIENTED_EDGE ( 'NONE', *, *, #185, .F. ) ;
#129 = ORIENTED_EDGE ( 'NONE', *, *, #2, .F. ) ;
#130 = FILL_AREA_STYLE ('',( #157 ) ) ;
#131 = CIRCLE ( 'NONE', #120, 0.003999999999999999216 ) ;
#132 = AXIS2_PLACEMENT_3D ( 'NONE', #65, #86, #158 ) ;
#133 = CARTESIAN_POINT ( 'NONE',  ( 0.0000000000000000000, 0.0000000000000000000, 1.485000000000000764 ) ) ;
#134 = DIRECTION ( 'NONE',  ( -1.000000000000000000, 0.0000000000000000000, 0.0000000000000000000 ) ) ;
#135 =( CONVERSION_BASED_UNIT ( 'INCH', #42 ) LENGTH_UNIT ( ) NAMED_UNIT ( #146 ) );
#136 = DIRECTION ( 'NONE',  ( 1.000000000000000000, 0.0000000000000000000, -0.0000000000000000000 ) ) ;
#137 = FACE_OUTER_BOUND ( 'NONE', #105, .T. ) ;
#138 = CARTESIAN_POINT ( 'NONE',  ( -0.003999999999999999216, 4.071950607164948101E-18, 0.0000000000000000000 ) ) ;
#139 = AXIS2_PLACEMENT_3D ( 'NONE', #25, #28, #61 ) ;
#140 = CARTESIAN_POINT ( 'NONE',  ( 0.0000000000000000000, 0.0000000000000000000, 0.0000000000000000000 ) ) ;
#141 = CARTESIAN_POINT ( 'NONE',  ( -0.003999999999999999216, 4.898587196589411612E-19, 0.0000000000000000000 ) ) ;
#142 = UNCERTAINTY_MEASURE_WITH_UNIT (LENGTH_MEASURE( 1.000000000000000082E-05 ), #181, 'distance_accuracy_value', 'NONE');
#143 = DIRECTION ( 'NONE',  ( 1.000000000000000000, 0.0000000000000000000, 0.0000000000000000000 ) ) ;
#144 =( GEOMETRIC_REPRESENTATION_CONTEXT ( 3 ) GLOBAL_UNCERTAINTY_ASSIGNED_CONTEXT ( ( #232 ) ) GLOBAL_UNIT_ASSIGNED_CONTEXT ( ( #135, #203, #205 ) ) REPRESENTATION_CONTEXT ( 'NONE', 'WORKASPACE' ) );
#145 = APPLICATION_PROTOCOL_DEFINITION ( 'draft international standard', 'automotive_design', 1998, #124 ) ;
#146 = DIMENSIONAL_EXPONENTS ( 1.000000000000000000, 0.0000000000000000000, 0.0000000000000000000, 0.0000000000000000000, 0.0000000000000000000, 0.0000000000000000000, 0.0000000000000000000 ) ;
#147 = VERTEX_POINT ( 'NONE', #138 ) ;
#148 = ORIENTED_EDGE ( 'NONE', *, *, #185, .T. ) ;
#149 = DIRECTION ( 'NONE',  ( 1.000000000000000000, 0.0000000000000000000, 0.0000000000000000000 ) ) ;
#150 = ORIENTED_EDGE ( 'NONE', *, *, #21, .F. ) ;
#151 = VERTEX_POINT ( 'NONE', #242 ) ;
#152 = VECTOR ( 'NONE', #160, 39.37007874015748143 ) ;
#153 = AXIS2_PLACEMENT_3D ( 'NONE', #237, #77, #100 ) ;
#154 = DIRECTION ( 'NONE',  ( 1.000000000000000000, 0.0000000000000000000, 0.0000000000000000000 ) ) ;
#155 = PRESENTATION_STYLE_ASSIGNMENT (( #170 ) ) ;
#156 = CYLINDRICAL_SURFACE ( 'NONE', #153, 0.06249999999999997918 ) ;
#157 = FILL_AREA_STYLE_COLOUR ( '', #24 ) ;
#158 = DIRECTION ( 'NONE',  ( 1.000000000000000000, 0.0000000000000000000, -0.0000000000000000000 ) ) ;
#159 = STYLED_ITEM ( 'NONE', ( #155 ), #118 ) ;
#160 = DIRECTION ( 'NONE',  ( -0.7071067811865454633, 0.0000000000000000000, -0.7071067811865495711 ) ) ;
#161 = CARTESIAN_POINT ( 'NONE',  ( 0.06249999999999997918, 7.654042494670954463E-18, 0.2183249722427783590 ) ) ;
#162 = CYLINDRICAL_SURFACE ( 'NONE', #215, 0.06249999999999997918 ) ;
#163 = CONICAL_SURFACE ( 'NONE', #58, 0.04750000000000063893, 0.7853981633974453924 ) ;
#164 = AXIS2_PLACEMENT_3D ( 'NONE', #12, #241, #67 ) ;
#165 = ORIENTED_EDGE ( 'NONE', *, *, #26, .T. ) ;
#166 = EDGE_CURVE ( 'NONE', #125, #189, #179, .T. ) ;
#167 = EDGE_LOOP ( 'NONE', ( #109, #57 ) ) ;
#168 = PRODUCT_DEFINITION_CONTEXT ( 'detailed design', #124, 'design' ) ;
#169 = ORIENTED_EDGE ( 'NONE', *, *, #240, .F. ) ;
#170 = SURFACE_STYLE_USAGE ( .BOTH. , #216 ) ;
#171 = DIRECTION ( 'NONE',  ( 1.000000000000000000, 0.0000000000000000000, 0.0000000000000000000 ) ) ;
#172 = CIRCLE ( 'NONE', #211, 0.06249999999999997918 ) ;
#173 = AXIS2_PLACEMENT_3D ( 'NONE', #248, #72, #149 ) ;
#174 = ADVANCED_FACE ( 'NONE', ( #35 ), #162, .T. ) ;
#175 = DIRECTION ( 'NONE',  ( 0.7071067811865454633, 8.659560562354908206E-17, -0.7071067811865495711 ) ) ;
#176 = DIRECTION ( 'NONE',  ( 1.000000000000000000, 0.0000000000000000000, 0.0000000000000000000 ) ) ;
#177 = DIRECTION ( 'NONE',  ( -1.000000000000000000, 0.0000000000000000000, 0.0000000000000000000 ) ) ;
#178 = CIRCLE ( 'NONE', #97, 0.06249999999999997918 ) ;
#179 = LINE ( 'NONE', #52, #152 ) ;
#180 = ADVANCED_BREP_SHAPE_REPRESENTATION ( 'Micro_RTC-125-1', ( #118, #173 ), #9 ) ;
#181 =( CONVERSION_BASED_UNIT ( 'INCH', #206 ) LENGTH_UNIT ( ) NAMED_UNIT ( #246 ) );
#182 = DIRECTION ( 'NONE',  ( -1.000000000000000000, 0.0000000000000000000, 0.0000000000000000000 ) ) ;
#183 = FACE_OUTER_BOUND ( 'NONE', #233, .T. ) ;
#184 = APPLICATION_PROTOCOL_DEFINITION ( 'draft international standard', 'automotive_design', 1998, #101 ) ;
#185 = EDGE_CURVE ( 'NONE', #228, #231, #178, .T. ) ;
#186 = EDGE_LOOP ( 'NONE', ( #88, #226, #54, #194 ) ) ;
#187 = CIRCLE ( 'NONE', #107, 0.04750000000000063893 ) ;
#188 = LENGTH_MEASURE_WITH_UNIT ( LENGTH_MEASURE( 0.02539999999999999897 ), #112 );
#189 = VERTEX_POINT ( 'NONE', #51 ) ;
#190 = STYLED_ITEM ( 'NONE', ( #249 ), #180 ) ;
#191 = ORIENTED_EDGE ( 'NONE', *, *, #240, .T. ) ;
#192 = LINE ( 'NONE', #3, #30 ) ;
#193 = CARTESIAN_POINT ( 'NONE',  ( 0.0000000000000000000, 0.0000000000000000000, 0.2183249722427783590 ) ) ;
#194 = ORIENTED_EDGE ( 'NONE', *, *, #166, .F. ) ;
#195 = MECHANICAL_DESIGN_GEOMETRIC_PRESENTATION_REPRESENTATION (  '', ( #159 ), #144 ) ;
#196 = CARTESIAN_POINT ( 'NONE',  ( 0.04750000000000063893, 6.735557395310480881E-18, 1.500000000000000222 ) ) ;
#197 = ORIENTED_EDGE ( 'NONE', *, *, #87, .T. ) ;
#198 = MECHANICAL_DESIGN_GEOMETRIC_PRESENTATION_REPRESENTATION (  '', ( #190 ), #75 ) ;
#199 = CARTESIAN_POINT ( 'NONE',  ( -0.04750000000000063893, 0.0000000000000000000, 1.500000000000000222 ) ) ;
#200 = AXIS2_PLACEMENT_3D ( 'NONE', #96, #74, #136 ) ;
#201 = AXIS2_PLACEMENT_3D ( 'NONE', #202, #63, #34 ) ;
#202 = CARTESIAN_POINT ( 'NONE',  ( 0.0000000000000000000, 0.0000000000000000000, 1.500000000000000222 ) ) ;
#203 =( NAMED_UNIT ( * ) PLANE_ANGLE_UNIT ( ) SI_UNIT ( $, .RADIAN. ) );
#204 = ADVANCED_FACE ( 'NONE', ( #33 ), #243, .T. ) ;
#205 =( NAMED_UNIT ( * ) SI_UNIT ( $, .STERADIAN. ) SOLID_ANGLE_UNIT ( ) );
#206 = LENGTH_MEASURE_WITH_UNIT ( LENGTH_MEASURE( 0.02539999999999999897 ), #222 );
#207 = ORIENTED_EDGE ( 'NONE', *, *, #127, .T. ) ;
#208 =( CONVERSION_BASED_UNIT ( 'INCH', #188 ) LENGTH_UNIT ( ) NAMED_UNIT ( #92 ) );
#209 = ORIENTED_EDGE ( 'NONE', *, *, #214, .T. ) ;
#210 = CIRCLE ( 'NONE', #164, 0.06249999999999997918 ) ;
#211 = AXIS2_PLACEMENT_3D ( 'NONE', #193, #23, #177 ) ;
#212 = PRODUCT_CONTEXT ( 'NONE', #101, 'mechanical' ) ;
#213 = VERTEX_POINT ( 'NONE', #102 ) ;
#214 = EDGE_CURVE ( 'NONE', #151, #189, #210, .T. ) ;
#215 = AXIS2_PLACEMENT_3D ( 'NONE', #104, #103, #182 ) ;
#216 = SURFACE_SIDE_STYLE ('',( #6 ) ) ;
#217 = LINE ( 'NONE', #98, #38 ) ;
#218 = DIRECTION ( 'NONE',  ( 1.000000000000000000, 0.0000000000000000000, 0.0000000000000000000 ) ) ;
#219 = CARTESIAN_POINT ( 'NONE',  ( 0.0000000000000000000, 0.0000000000000000000, 0.0000000000000000000 ) ) ;
#220 = VECTOR ( 'NONE', #84, 39.37007874015748143 ) ;
#221 = CARTESIAN_POINT ( 'NONE',  ( 0.06249999999999997918, 7.654042494670954463E-18, 1.500000000000000222 ) ) ;
#222 =( LENGTH_UNIT ( ) NAMED_UNIT ( * ) SI_UNIT ( $, .METRE. ) );
#223 = VECTOR ( 'NONE', #5, 39.37007874015748854 ) ;
#224 = CONICAL_SURFACE ( 'NONE', #89, 0.003999999999999999216, 0.2617993877991504625 ) ;
#225 = FILL_AREA_STYLE_COLOUR ( '', #4 ) ;
#226 = ORIENTED_EDGE ( 'NONE', *, *, #95, .T. ) ;
#227 =( NAMED_UNIT ( * ) SI_UNIT ( $, .STERADIAN. ) SOLID_ANGLE_UNIT ( ) );
#228 = VERTEX_POINT ( 'NONE', #161 ) ;
#229 = SURFACE_STYLE_USAGE ( .BOTH. , #16 ) ;
#230 = ADVANCED_FACE ( 'NONE', ( #183 ), #224, .T. ) ;
#231 = VERTEX_POINT ( 'NONE', #121 ) ;
#232 = UNCERTAINTY_MEASURE_WITH_UNIT (LENGTH_MEASURE( 1.000000000000000082E-05 ), #135, 'distance_accuracy_value', 'NONE');
#233 = EDGE_LOOP ( 'NONE', ( #169, #1, #73, #148 ) ) ;
#234 = AXIS2_PLACEMENT_3D ( 'NONE', #219, #46, #176 ) ;
#235 = VECTOR ( 'NONE', #11, 39.37007874015748854 ) ;
#236 = PRODUCT ( 'Micro_RTC-125-1', 'Micro_RTC-125-1', '', ( #212 ) ) ;
#237 = CARTESIAN_POINT ( 'NONE',  ( 0.0000000000000000000, 0.0000000000000000000, 1.500000000000000222 ) ) ;
#238 = CARTESIAN_POINT ( 'NONE',  ( 0.003999999999999999216, 0.0000000000000000000, 0.0000000000000000000 ) ) ;
#239 = FACE_OUTER_BOUND ( 'NONE', #167, .T. ) ;
#240 = EDGE_CURVE ( 'NONE', #147, #231, #13, .T. ) ;
#241 = DIRECTION ( 'NONE',  ( 0.0000000000000000000, 0.0000000000000000000, -1.000000000000000000 ) ) ;
#242 = CARTESIAN_POINT ( 'NONE',  ( 0.06249999999999997918, 7.654042494670954463E-18, 1.485000000000000764 ) ) ;
#243 = CONICAL_SURFACE ( 'NONE', #201, 0.04750000000000063893, 0.7853981633974453924 ) ;
#244 = ORIENTED_EDGE ( 'NONE', *, *, #166, .T. ) ;
#245 = EDGE_LOOP ( 'NONE', ( #56, #209, #165, #128 ) ) ;
#246 = DIMENSIONAL_EXPONENTS ( 1.000000000000000000, 0.0000000000000000000, 0.0000000000000000000, 0.0000000000000000000, 0.0000000000000000000, 0.0000000000000000000, 0.0000000000000000000 ) ;
#247 = ADVANCED_FACE ( 'NONE', ( #137 ), #82, .F. ) ;
#248 = CARTESIAN_POINT ( 'NONE',  ( 0.0000000000000000000, 0.0000000000000000000, 0.0000000000000000000 ) ) ;
#249 = PRESENTATION_STYLE_ASSIGNMENT (( #229 ) ) ;
ENDSEC;
END-ISO-10303-21;
