ISO-10303-21;
HEADER;
FILE_DESCRIPTION (( 'STEP AP214' ),
    '1' );
FILE_NAME ('Micro_AEMM-080-3X.STEP',
    '2022-03-15T14:29:13',
    ( '' ),
    ( '' ),
    'SwSTEP 2.0',
    'SolidWorks 2022',
    '' );
FILE_SCHEMA (( 'AUTOMOTIVE_DESIGN' ));
ENDSEC;

DATA;
#1 = DIRECTION ( 'NONE',  ( 1.000000000000000000, 0.000000000000000000, 0.000000000000000000 ) ) ;
#2 = CARTESIAN_POINT ( 'NONE',  ( 0.1573230194999999942, 1.926651322628716627E-17, 3.791200677927629740E-33 ) ) ;
#3 = VECTOR ( 'NONE', #29, 39.37007874015748854 ) ;
#4 = CARTESIAN_POINT ( 'NONE',  ( 2.359467375330272285E-33, 0.000000000000000000, 1.926651322628716627E-17 ) ) ;
#5 = FACE_OUTER_BOUND ( 'NONE', #105, .T. ) ;
#6 = EDGE_CURVE ( 'NONE', #230, #32, #71, .T. ) ;
#7 = DIRECTION ( 'NONE',  ( -1.000000000000000000, 0.000000000000000000, 1.224646799147353454E-16 ) ) ;
#8 = CARTESIAN_POINT ( 'NONE',  ( 1.060718027907086782E-16, 0.000000000000000000, 0.8661419999999999675 ) ) ;
#9 = DIRECTION ( 'NONE',  ( 1.000000000000000000, 0.000000000000000000, 0.000000000000000000 ) ) ;
#10 = AXIS2_PLACEMENT_3D ( 'NONE', #4, #224, #28 ) ;
#11 = COLOUR_RGB ( '',0.7921568627450980005, 0.8196078431372548767, 0.9333333333333333481 ) ;
#12 = CARTESIAN_POINT ( 'NONE',  ( 0.000000000000000000, 0.000000000000000000, 2.480315000000000047 ) ) ;
#13 = DIRECTION ( 'NONE',  ( -1.000000000000000000, 0.000000000000000000, 1.224646799147353454E-16 ) ) ;
#14 = ORIENTED_EDGE ( 'NONE', *, *, #6, .F. ) ;
#15 = DIRECTION ( 'NONE',  ( -1.224646799147353207E-16, -0.000000000000000000, -1.000000000000000000 ) ) ;
#16 = CLOSED_SHELL ( 'NONE', ( #278, #88, #49, #262, #155, #66, #76, #269, #242, #23 ) ) ;
#17 = ORIENTED_EDGE ( 'NONE', *, *, #99, .T. ) ;
#18 =( LENGTH_UNIT ( ) NAMED_UNIT ( * ) SI_UNIT ( $, .METRE. ) );
#19 = DIRECTION ( 'NONE',  ( 1.000000000000000000, 0.000000000000000000, 0.000000000000000000 ) ) ;
#20 = ORIENTED_EDGE ( 'NONE', *, *, #136, .F. ) ;
#21 = ORIENTED_EDGE ( 'NONE', *, *, #83, .T. ) ;
#22 = ORIENTED_EDGE ( 'NONE', *, *, #289, .T. ) ;
#23 = ADVANCED_FACE ( 'NONE', ( #5 ), #282, .F. ) ;
#24 =( NAMED_UNIT ( * ) PLANE_ANGLE_UNIT ( ) SI_UNIT ( $, .RADIAN. ) );
#25 = VECTOR ( 'NONE', #148, 39.37007874015748143 ) ;
#26 = AXIS2_PLACEMENT_3D ( 'NONE', #12, #165, #217 ) ;
#27 = ORIENTED_EDGE ( 'NONE', *, *, #99, .F. ) ;
#28 = DIRECTION ( 'NONE',  ( -1.000000000000000000, 0.000000000000000000, 1.224646799147353454E-16 ) ) ;
#29 = DIRECTION ( 'NONE',  ( 0.7071067811865627828, 8.659560562355118980E-17, -0.7071067811865321406 ) ) ;
#30 = LINE ( 'NONE', #82, #234 ) ;
#31 = CIRCLE ( 'NONE', #222, 0.1573230194999999942 ) ;
#32 = VERTEX_POINT ( 'NONE', #100 ) ;
#33 = CARTESIAN_POINT ( 'NONE',  ( 0.000000000000000000, 0.000000000000000000, 2.480315000000000047 ) ) ;
#34 = ORIENTED_EDGE ( 'NONE', *, *, #292, .T. ) ;
#35 = DIMENSIONAL_EXPONENTS ( 1.000000000000000000, 0.000000000000000000, 0.000000000000000000, 0.000000000000000000, 0.000000000000000000, 0.000000000000000000, 0.000000000000000000 ) ;
#36 =( CONVERSION_BASED_UNIT ( 'INCH', #229 ) LENGTH_UNIT ( ) NAMED_UNIT ( #130 ) );
#37 = CARTESIAN_POINT ( 'NONE',  ( 0.000000000000000000, 0.000000000000000000, 0.000000000000000000 ) ) ;
#38 = ORIENTED_EDGE ( 'NONE', *, *, #145, .F. ) ;
#39 = FILL_AREA_STYLE_COLOUR ( '', #117 ) ;
#40 = SURFACE_STYLE_USAGE ( .BOTH. , #166 ) ;
#41 = VERTEX_POINT ( 'NONE', #77 ) ;
#42 = FILL_AREA_STYLE_COLOUR ( '', #11 ) ;
#43 = ORIENTED_EDGE ( 'NONE', *, *, #47, .F. ) ;
#44 = DIRECTION ( 'NONE',  ( -1.224646799147353207E-16, -0.000000000000000000, -1.000000000000000000 ) ) ;
#45 = CIRCLE ( 'NONE', #70, 0.1424804999999990940 ) ;
#46 =( LENGTH_UNIT ( ) NAMED_UNIT ( * ) SI_UNIT ( $, .METRE. ) );
#47 = EDGE_CURVE ( 'NONE', #188, #288, #258, .T. ) ;
#48 = UNCERTAINTY_MEASURE_WITH_UNIT (LENGTH_MEASURE( 1.000000000000000082E-05 ), #115, 'distance_accuracy_value', 'NONE');
#49 = ADVANCED_FACE ( 'NONE', ( #68 ), #240, .T. ) ;
#50 = CARTESIAN_POINT ( 'NONE',  ( 0.1424804999999990940, 1.836731392595189962E-17, 2.480315000000000047 ) ) ;
#51 = DIRECTION ( 'NONE',  ( -1.000000000000000000, 0.000000000000000000, 0.000000000000000000 ) ) ;
#52 = CYLINDRICAL_SURFACE ( 'NONE', #151, 0.1573230195000000220 ) ;
#53 = CARTESIAN_POINT ( 'NONE',  ( -0.1424804999999990940, 0.000000000000000000, 2.480315000000000047 ) ) ;
#54 = CYLINDRICAL_SURFACE ( 'NONE', #146, 0.1573230195000000220 ) ;
#55 = CIRCLE ( 'NONE', #133, 0.1574804999999999955 ) ;
#56 = CARTESIAN_POINT ( 'NONE',  ( 0.000000000000000000, 0.000000000000000000, 2.480315000000000047 ) ) ;
#57 = DIRECTION ( 'NONE',  ( 1.000000000000000000, 0.000000000000000000, 0.000000000000000000 ) ) ;
#58 = ORIENTED_EDGE ( 'NONE', *, *, #164, .T. ) ;
#59 = DIRECTION ( 'NONE',  ( -1.000000000000000000, 0.000000000000000000, 1.224646799147353454E-16 ) ) ;
#60 = EDGE_LOOP ( 'NONE', ( #220, #160 ) ) ;
#61 = AXIS2_PLACEMENT_3D ( 'NONE', #129, #108, #205 ) ;
#62 = EDGE_LOOP ( 'NONE', ( #191, #183, #238, #139 ) ) ;
#63 = EDGE_CURVE ( 'NONE', #41, #230, #223, .T. ) ;
#64 = ORIENTED_EDGE ( 'NONE', *, *, #219, .F. ) ;
#65 = ORIENTED_EDGE ( 'NONE', *, *, #169, .T. ) ;
#66 = ADVANCED_FACE ( 'NONE', ( #198 ), #281, .T. ) ;
#67 = AXIS2_PLACEMENT_3D ( 'NONE', #251, #274, #9 ) ;
#68 = FACE_OUTER_BOUND ( 'NONE', #218, .T. ) ;
#69 = AXIS2_PLACEMENT_3D ( 'NONE', #120, #225, #19 ) ;
#70 = AXIS2_PLACEMENT_3D ( 'NONE', #134, #127, #156 ) ;
#71 = LINE ( 'NONE', #202, #167 ) ;
#72 = PRESENTATION_STYLE_ASSIGNMENT (( #96 ) ) ;
#73 = DIRECTION ( 'NONE',  ( 0.000000000000000000, 0.000000000000000000, 1.000000000000000000 ) ) ;
#74 = CARTESIAN_POINT ( 'NONE',  ( 0.1573230195000001330, 0.000000000000000000, 0.8661419999999999675 ) ) ;
#75 = PRODUCT ( 'Micro_AEMM-080-3X', 'Micro_AEMM-080-3X', '', ( #81 ) ) ;
#76 = ADVANCED_FACE ( 'NONE', ( #272 ), #263, .T. ) ;
#77 = CARTESIAN_POINT ( 'NONE',  ( -0.1574804999999999955, 0.000000000000000000, 2.465314999999999923 ) ) ;
#78 = CARTESIAN_POINT ( 'NONE',  ( 0.000000000000000000, 0.000000000000000000, 0.000000000000000000 ) ) ;
#79 = STYLED_ITEM ( 'NONE', ( #163 ), #256 ) ;
#80 = ORIENTED_EDGE ( 'NONE', *, *, #141, .F. ) ;
#81 = PRODUCT_CONTEXT ( 'NONE', #190, 'mechanical' ) ;
#82 = CARTESIAN_POINT ( 'NONE',  ( -0.1573230195000000220, 0.000000000000000000, 1.926651322628716935E-17 ) ) ;
#83 = EDGE_CURVE ( 'NONE', #41, #110, #126, .T. ) ;
#84 = EDGE_LOOP ( 'NONE', ( #295, #58, #259, #43 ) ) ;
#85 = ORIENTED_EDGE ( 'NONE', *, *, #299, .F. ) ;
#86 = CONICAL_SURFACE ( 'NONE', #275, 0.1573230195000000220, 0.1745329251994338360 ) ;
#87 = PRESENTATION_LAYER_ASSIGNMENT (  '', '', ( #181 ) ) ;
#88 = ADVANCED_FACE ( 'NONE', ( #128 ), #86, .T. ) ;
#89 = EDGE_LOOP ( 'NONE', ( #27, #80, #215, #38 ) ) ;
#90 =( NAMED_UNIT ( * ) SI_UNIT ( $, .STERADIAN. ) SOLID_ANGLE_UNIT ( ) );
#91 = DIRECTION ( 'NONE',  ( -1.000000000000000000, 0.000000000000000000, 0.000000000000000000 ) ) ;
#92 = AXIS2_PLACEMENT_3D ( 'NONE', #118, #176, #232 ) ;
#93 = LINE ( 'NONE', #74, #264 ) ;
#94 = UNCERTAINTY_MEASURE_WITH_UNIT (LENGTH_MEASURE( 1.000000000000000082E-05 ), #36, 'distance_accuracy_value', 'NONE');
#95 = SURFACE_STYLE_FILL_AREA ( #296 ) ;
#96 = SURFACE_STYLE_USAGE ( .BOTH. , #171 ) ;
#97 = LENGTH_MEASURE_WITH_UNIT ( LENGTH_MEASURE( 0.02539999999999999897 ), #46 );
#98 = AXIS2_PLACEMENT_3D ( 'NONE', #273, #243, #101 ) ;
#99 = EDGE_CURVE ( 'NONE', #112, #230, #174, .T. ) ;
#100 = CARTESIAN_POINT ( 'NONE',  ( 0.1574805000000000788, 1.928579902531248645E-17, 0.8670351162965940217 ) ) ;
#101 = DIRECTION ( 'NONE',  ( 1.000000000000000000, 0.000000000000000000, 0.000000000000000000 ) ) ;
#102 = AXIS2_PLACEMENT_3D ( 'NONE', #56, #180, #154 ) ;
#103 = DIRECTION ( 'NONE',  ( 0.000000000000000000, 0.000000000000000000, -1.000000000000000000 ) ) ;
#104 = DIRECTION ( 'NONE',  ( -0.000000000000000000, -0.000000000000000000, -1.000000000000000000 ) ) ;
#105 = EDGE_LOOP ( 'NONE', ( #22, #212 ) ) ;
#106 = CARTESIAN_POINT ( 'NONE',  ( -0.1424804999999990940, 0.000000000000000000, 2.480315000000000047 ) ) ;
#107 = CARTESIAN_POINT ( 'NONE',  ( 0.1424804999999990940, 1.744882882659133128E-17, 2.480315000000000047 ) ) ;
#108 = DIRECTION ( 'NONE',  ( 0.000000000000000000, 0.000000000000000000, 1.000000000000000000 ) ) ;
#109 = CIRCLE ( 'NONE', #168, 0.1573230195000000220 ) ;
#110 = VERTEX_POINT ( 'NONE', #266 ) ;
#111 = CARTESIAN_POINT ( 'NONE',  ( 0.1574804999999999955, 1.928579902531247412E-17, 2.465314999999999923 ) ) ;
#112 = VERTEX_POINT ( 'NONE', #50 ) ;
#113 = AXIS2_PLACEMENT_3D ( 'NONE', #241, #121, #91 ) ;
#114 = VERTEX_POINT ( 'NONE', #147 ) ;
#115 =( CONVERSION_BASED_UNIT ( 'INCH', #97 ) LENGTH_UNIT ( ) NAMED_UNIT ( #209 ) );
#116 = AXIS2_PLACEMENT_3D ( 'NONE', #244, #103, #1 ) ;
#117 = COLOUR_RGB ( '',0.7921568627450980005, 0.8196078431372548767, 0.9333333333333333481 ) ;
#118 = CARTESIAN_POINT ( 'NONE',  ( 0.000000000000000000, 0.000000000000000000, 2.480315000000000047 ) ) ;
#119 = PRODUCT_DEFINITION ( 'UNKNOWN', '', #294, #297 ) ;
#120 = CARTESIAN_POINT ( 'NONE',  ( 0.000000000000000000, 0.000000000000000000, 2.465314999999999923 ) ) ;
#121 = DIRECTION ( 'NONE',  ( -1.224646799147353207E-16, -0.000000000000000000, -1.000000000000000000 ) ) ;
#122 = EDGE_CURVE ( 'NONE', #110, #32, #55, .T. ) ;
#123 = CARTESIAN_POINT ( 'NONE',  ( 1.061811779920977108E-16, 0.000000000000000000, 0.8670351162965940217 ) ) ;
#124 = CIRCLE ( 'NONE', #276, 0.1574804999999999955 ) ;
#125 =( LENGTH_UNIT ( ) NAMED_UNIT ( * ) SI_UNIT ( $, .METRE. ) );
#126 = LINE ( 'NONE', #298, #25 ) ;
#127 = DIRECTION ( 'NONE',  ( 0.000000000000000000, 0.000000000000000000, 1.000000000000000000 ) ) ;
#128 = FACE_OUTER_BOUND ( 'NONE', #210, .T. ) ;
#129 = CARTESIAN_POINT ( 'NONE',  ( 0.000000000000000000, 0.000000000000000000, 0.000000000000000000 ) ) ;
#130 = DIMENSIONAL_EXPONENTS ( 1.000000000000000000, 0.000000000000000000, 0.000000000000000000, 0.000000000000000000, 0.000000000000000000, 0.000000000000000000, 0.000000000000000000 ) ;
#131 = SHAPE_DEFINITION_REPRESENTATION ( #153, #256 ) ;
#132 = LINE ( 'NONE', #287, #216 ) ;
#133 = AXIS2_PLACEMENT_3D ( 'NONE', #123, #204, #228 ) ;
#134 = CARTESIAN_POINT ( 'NONE',  ( 0.000000000000000000, 0.000000000000000000, 2.480315000000000047 ) ) ;
#135 = EDGE_LOOP ( 'NONE', ( #280, #285, #170, #270 ) ) ;
#136 = EDGE_CURVE ( 'NONE', #291, #41, #284, .T. ) ;
#137 = EDGE_LOOP ( 'NONE', ( #65, #236, #290, #85 ) ) ;
#138 =( NAMED_UNIT ( * ) PLANE_ANGLE_UNIT ( ) SI_UNIT ( $, .RADIAN. ) );
#139 = ORIENTED_EDGE ( 'NONE', *, *, #83, .F. ) ;
#140 = FILL_AREA_STYLE ('',( #39 ) ) ;
#141 = EDGE_CURVE ( 'NONE', #291, #112, #206, .T. ) ;
#142 = DIRECTION ( 'NONE',  ( -1.000000000000000000, 0.000000000000000000, 0.000000000000000000 ) ) ;
#143 = ORIENTED_EDGE ( 'NONE', *, *, #197, .F. ) ;
#144 = LENGTH_MEASURE_WITH_UNIT ( LENGTH_MEASURE( 0.02539999999999999897 ), #18 );
#145 = EDGE_CURVE ( 'NONE', #230, #41, #293, .T. ) ;
#146 = AXIS2_PLACEMENT_3D ( 'NONE', #78, #152, #13 ) ;
#147 = CARTESIAN_POINT ( 'NONE',  ( 0.1573230195000001330, 0.000000000000000000, 0.8661419999999999675 ) ) ;
#148 = DIRECTION ( 'NONE',  ( -0.000000000000000000, -0.000000000000000000, -1.000000000000000000 ) ) ;
#149 = CARTESIAN_POINT ( 'NONE',  ( -0.1573230194999999942, 0.000000000000000000, 3.853302645257433254E-17 ) ) ;
#150 = DIRECTION ( 'NONE',  ( -0.7071067811865627828, 0.000000000000000000, -0.7071067811865321406 ) ) ;
#151 = AXIS2_PLACEMENT_3D ( 'NONE', #37, #15, #59 ) ;
#152 = DIRECTION ( 'NONE',  ( -1.224646799147353207E-16, -0.000000000000000000, -1.000000000000000000 ) ) ;
#153 = PRODUCT_DEFINITION_SHAPE ( 'NONE', 'NONE',  #119 ) ;
#154 = DIRECTION ( 'NONE',  ( -1.000000000000000000, 0.000000000000000000, 0.000000000000000000 ) ) ;
#155 = ADVANCED_FACE ( 'NONE', ( #211 ), #214, .T. ) ;
#156 = DIRECTION ( 'NONE',  ( 1.000000000000000000, 0.000000000000000000, 0.000000000000000000 ) ) ;
#157 = DIRECTION ( 'NONE',  ( 0.000000000000000000, 0.000000000000000000, -1.000000000000000000 ) ) ;
#158 = CARTESIAN_POINT ( 'NONE',  ( 0.1573230195000000220, 1.926651322628716935E-17, -1.926651322628716935E-17 ) ) ;
#159 = MANIFOLD_SOLID_BREP ( 'Cut-Revolve1', #16 ) ;
#160 = ORIENTED_EDGE ( 'NONE', *, *, #197, .T. ) ;
#161 =( GEOMETRIC_REPRESENTATION_CONTEXT ( 3 ) GLOBAL_UNCERTAINTY_ASSIGNED_CONTEXT ( ( #94 ) ) GLOBAL_UNIT_ASSIGNED_CONTEXT ( ( #36, #233, #213 ) ) REPRESENTATION_CONTEXT ( 'NONE', 'WORKASPACE' ) );
#162 = ORIENTED_EDGE ( 'NONE', *, *, #63, .F. ) ;
#163 = PRESENTATION_STYLE_ASSIGNMENT (( #40 ) ) ;
#164 = EDGE_CURVE ( 'NONE', #114, #249, #207, .T. ) ;
#165 = DIRECTION ( 'NONE',  ( -0.000000000000000000, -0.000000000000000000, -1.000000000000000000 ) ) ;
#166 = SURFACE_SIDE_STYLE ('',( #221 ) ) ;
#167 = VECTOR ( 'NONE', #267, 39.37007874015748143 ) ;
#168 = AXIS2_PLACEMENT_3D ( 'NONE', #193, #44, #142 ) ;
#169 = EDGE_CURVE ( 'NONE', #249, #114, #109, .T. ) ;
#170 = ORIENTED_EDGE ( 'NONE', *, *, #194, .T. ) ;
#171 = SURFACE_SIDE_STYLE ('',( #95 ) ) ;
#172 = UNCERTAINTY_MEASURE_WITH_UNIT (LENGTH_MEASURE( 1.000000000000000082E-05 ), #277, 'distance_accuracy_value', 'NONE');
#173 = AXIS2_PLACEMENT_3D ( 'NONE', #33, #104, #201 ) ;
#174 = LINE ( 'NONE', #107, #3 ) ;
#175 =( GEOMETRIC_REPRESENTATION_CONTEXT ( 3 ) GLOBAL_UNCERTAINTY_ASSIGNED_CONTEXT ( ( #172 ) ) GLOBAL_UNIT_ASSIGNED_CONTEXT ( ( #277, #138, #90 ) ) REPRESENTATION_CONTEXT ( 'NONE', 'WORKASPACE' ) );
#176 = DIRECTION ( 'NONE',  ( 0.000000000000000000, 0.000000000000000000, 1.000000000000000000 ) ) ;
#177 = APPLICATION_CONTEXT ( 'automotive_design' ) ;
#178 = DIRECTION ( 'NONE',  ( 1.224646799147353207E-16, 0.000000000000000000, 1.000000000000000000 ) ) ;
#179 = DIRECTION ( 'NONE',  ( 0.1736481776669313304, 0.000000000000000000, 0.9848077530122077983 ) ) ;
#180 = DIRECTION ( 'NONE',  ( 0.000000000000000000, 0.000000000000000000, -1.000000000000000000 ) ) ;
#181 = STYLED_ITEM ( 'NONE', ( #72 ), #159 ) ;
#182 = FACE_OUTER_BOUND ( 'NONE', #84, .T. ) ;
#183 = ORIENTED_EDGE ( 'NONE', *, *, #6, .T. ) ;
#184 = APPLICATION_PROTOCOL_DEFINITION ( 'draft international standard', 'automotive_design', 1998, #177 ) ;
#185 = FACE_OUTER_BOUND ( 'NONE', #62, .T. ) ;
#186 = EDGE_LOOP ( 'NONE', ( #14, #286, #21, #64 ) ) ;
#187 = FACE_OUTER_BOUND ( 'NONE', #137, .T. ) ;
#188 = VERTEX_POINT ( 'NONE', #2 ) ;
#189 = ORIENTED_EDGE ( 'NONE', *, *, #169, .F. ) ;
#190 = APPLICATION_CONTEXT ( 'automotive_design' ) ;
#191 = ORIENTED_EDGE ( 'NONE', *, *, #63, .T. ) ;
#192 = MECHANICAL_DESIGN_GEOMETRIC_PRESENTATION_REPRESENTATION (  '', ( #181 ), #261 ) ;
#193 = CARTESIAN_POINT ( 'NONE',  ( 1.060718027907086782E-16, 0.000000000000000000, 0.8661419999999999675 ) ) ;
#194 = EDGE_CURVE ( 'NONE', #114, #32, #93, .T. ) ;
#195 =( NAMED_UNIT ( * ) SI_UNIT ( $, .STERADIAN. ) SOLID_ANGLE_UNIT ( ) );
#196 = MECHANICAL_DESIGN_GEOMETRIC_PRESENTATION_REPRESENTATION (  '', ( #79 ), #175 ) ;
#197 = EDGE_CURVE ( 'NONE', #112, #291, #45, .T. ) ;
#198 = FACE_OUTER_BOUND ( 'NONE', #60, .T. ) ;
#199 = CARTESIAN_POINT ( 'NONE',  ( 0.000000000000000000, 0.000000000000000000, 2.480315000000000047 ) ) ;
#200 = DIRECTION ( 'NONE',  ( 1.000000000000000000, 0.000000000000000000, -0.000000000000000000 ) ) ;
#201 = DIRECTION ( 'NONE',  ( -1.000000000000000000, 0.000000000000000000, 0.000000000000000000 ) ) ;
#202 = CARTESIAN_POINT ( 'NONE',  ( 0.1574804999999999955, 1.928579902531247412E-17, 2.480315000000000047 ) ) ;
#203 = DIRECTION ( 'NONE',  ( -1.224646799147353207E-16, -0.000000000000000000, -1.000000000000000000 ) ) ;
#204 = DIRECTION ( 'NONE',  ( -1.224646799147353207E-16, -0.000000000000000000, -1.000000000000000000 ) ) ;
#205 = DIRECTION ( 'NONE',  ( 1.000000000000000000, 0.000000000000000000, 0.000000000000000000 ) ) ;
#206 = CIRCLE ( 'NONE', #98, 0.1424804999999990940 ) ;
#207 = CIRCLE ( 'NONE', #113, 0.1573230195000000220 ) ;
#208 = DIRECTION ( 'NONE',  ( -1.224646799147353207E-16, -0.000000000000000000, -1.000000000000000000 ) ) ;
#209 = DIMENSIONAL_EXPONENTS ( 1.000000000000000000, 0.000000000000000000, 0.000000000000000000, 0.000000000000000000, 0.000000000000000000, 0.000000000000000000, 0.000000000000000000 ) ;
#210 = EDGE_LOOP ( 'NONE', ( #189, #34, #257, #255 ) ) ;
#211 = FACE_OUTER_BOUND ( 'NONE', #186, .T. ) ;
#212 = ORIENTED_EDGE ( 'NONE', *, *, #47, .T. ) ;
#213 =( NAMED_UNIT ( * ) SI_UNIT ( $, .STERADIAN. ) SOLID_ANGLE_UNIT ( ) );
#214 = CYLINDRICAL_SURFACE ( 'NONE', #26, 0.1574804999999999955 ) ;
#215 = ORIENTED_EDGE ( 'NONE', *, *, #136, .T. ) ;
#216 = VECTOR ( 'NONE', #268, 39.37007874015747433 ) ;
#217 = DIRECTION ( 'NONE',  ( -1.000000000000000000, 0.000000000000000000, 0.000000000000000000 ) ) ;
#218 = EDGE_LOOP ( 'NONE', ( #143, #17, #162, #20 ) ) ;
#219 = EDGE_CURVE ( 'NONE', #32, #110, #124, .T. ) ;
#220 = ORIENTED_EDGE ( 'NONE', *, *, #141, .T. ) ;
#221 = SURFACE_STYLE_FILL_AREA ( #140 ) ;
#222 = AXIS2_PLACEMENT_3D ( 'NONE', #250, #231, #7 ) ;
#223 = CIRCLE ( 'NONE', #116, 0.1574804999999999955 ) ;
#224 = DIRECTION ( 'NONE',  ( -1.224646799147353207E-16, -0.000000000000000000, -1.000000000000000000 ) ) ;
#225 = DIRECTION ( 'NONE',  ( 0.000000000000000000, 0.000000000000000000, -1.000000000000000000 ) ) ;
#226 = AXIS2_PLACEMENT_3D ( 'NONE', #247, #73, #200 ) ;
#227 = CONICAL_SURFACE ( 'NONE', #67, 0.1573230195000000220, 0.1745329251994338360 ) ;
#228 = DIRECTION ( 'NONE',  ( 1.000000000000000000, 0.000000000000000000, 0.000000000000000000 ) ) ;
#229 = LENGTH_MEASURE_WITH_UNIT ( LENGTH_MEASURE( 0.02539999999999999897 ), #125 );
#230 = VERTEX_POINT ( 'NONE', #111 ) ;
#231 = DIRECTION ( 'NONE',  ( -1.224646799147353207E-16, -0.000000000000000000, -1.000000000000000000 ) ) ;
#232 = DIRECTION ( 'NONE',  ( 1.000000000000000000, 0.000000000000000000, -0.000000000000000000 ) ) ;
#233 =( NAMED_UNIT ( * ) PLANE_ANGLE_UNIT ( ) SI_UNIT ( $, .RADIAN. ) );
#234 = VECTOR ( 'NONE', #235, 39.37007874015748143 ) ;
#235 = DIRECTION ( 'NONE',  ( -1.224646799147353207E-16, -0.000000000000000000, -1.000000000000000000 ) ) ;
#236 = ORIENTED_EDGE ( 'NONE', *, *, #239, .T. ) ;
#237 = CYLINDRICAL_SURFACE ( 'NONE', #173, 0.1574804999999999955 ) ;
#238 = ORIENTED_EDGE ( 'NONE', *, *, #122, .F. ) ;
#239 = EDGE_CURVE ( 'NONE', #114, #188, #283, .T. ) ;
#240 = CONICAL_SURFACE ( 'NONE', #252, 0.1424804999999990940, 0.7853981633974699283 ) ;
#241 = CARTESIAN_POINT ( 'NONE',  ( 1.060718027907086782E-16, 0.000000000000000000, 0.8661419999999999675 ) ) ;
#242 = ADVANCED_FACE ( 'NONE', ( #182 ), #54, .T. ) ;
#243 = DIRECTION ( 'NONE',  ( 0.000000000000000000, 0.000000000000000000, 1.000000000000000000 ) ) ;
#244 = CARTESIAN_POINT ( 'NONE',  ( 0.000000000000000000, 0.000000000000000000, 2.465314999999999923 ) ) ;
#245 = FACE_OUTER_BOUND ( 'NONE', #135, .T. ) ;
#246 = PRESENTATION_LAYER_ASSIGNMENT (  '', '', ( #79 ) ) ;
#247 = CARTESIAN_POINT ( 'NONE',  ( 0.000000000000000000, 0.000000000000000000, 0.000000000000000000 ) ) ;
#248 = CARTESIAN_POINT ( 'NONE',  ( -0.1573230194999999387, 1.927615612579982019E-17, 0.8661419999999999675 ) ) ;
#249 = VERTEX_POINT ( 'NONE', #248 ) ;
#250 = CARTESIAN_POINT ( 'NONE',  ( 2.359467375330272285E-33, 0.000000000000000000, 1.926651322628716627E-17 ) ) ;
#251 = CARTESIAN_POINT ( 'NONE',  ( 1.060718027907086782E-16, 0.000000000000000000, 0.8661419999999999675 ) ) ;
#252 = AXIS2_PLACEMENT_3D ( 'NONE', #199, #157, #51 ) ;
#253 = VECTOR ( 'NONE', #208, 39.37007874015748143 ) ;
#254 = APPLICATION_PROTOCOL_DEFINITION ( 'draft international standard', 'automotive_design', 1998, #190 ) ;
#255 = ORIENTED_EDGE ( 'NONE', *, *, #194, .F. ) ;
#256 = ADVANCED_BREP_SHAPE_REPRESENTATION ( 'Micro_AEMM-080-3X', ( #159, #61 ), #161 ) ;
#257 = ORIENTED_EDGE ( 'NONE', *, *, #122, .T. ) ;
#258 = CIRCLE ( 'NONE', #10, 0.1573230194999999942 ) ;
#259 = ORIENTED_EDGE ( 'NONE', *, *, #299, .T. ) ;
#260 = VECTOR ( 'NONE', #150, 39.37007874015748854 ) ;
#261 =( GEOMETRIC_REPRESENTATION_CONTEXT ( 3 ) GLOBAL_UNCERTAINTY_ASSIGNED_CONTEXT ( ( #48 ) ) GLOBAL_UNIT_ASSIGNED_CONTEXT ( ( #115, #24, #195 ) ) REPRESENTATION_CONTEXT ( 'NONE', 'WORKASPACE' ) );
#262 = ADVANCED_FACE ( 'NONE', ( #185 ), #237, .T. ) ;
#263 = CONICAL_SURFACE ( 'NONE', #102, 0.1424804999999990940, 0.7853981633974699283 ) ;
#264 = VECTOR ( 'NONE', #179, 39.37007874015748143 ) ;
#265 = PRODUCT_RELATED_PRODUCT_CATEGORY ( 'part', '', ( #75 ) ) ;
#266 = CARTESIAN_POINT ( 'NONE',  ( -0.1574804999999998845, 0.000000000000000000, 0.8670351162965940217 ) ) ;
#267 = DIRECTION ( 'NONE',  ( -0.000000000000000000, -0.000000000000000000, -1.000000000000000000 ) ) ;
#268 = DIRECTION ( 'NONE',  ( -0.1736481776669311639, 2.126576849575782392E-17, 0.9848077530122080203 ) ) ;
#269 = ADVANCED_FACE ( 'NONE', ( #245 ), #227, .T. ) ;
#270 = ORIENTED_EDGE ( 'NONE', *, *, #219, .T. ) ;
#271 = CARTESIAN_POINT ( 'NONE',  ( 1.061811779920977108E-16, 0.000000000000000000, 0.8670351162965940217 ) ) ;
#272 = FACE_OUTER_BOUND ( 'NONE', #89, .T. ) ;
#273 = CARTESIAN_POINT ( 'NONE',  ( 0.000000000000000000, 0.000000000000000000, 2.480315000000000047 ) ) ;
#274 = DIRECTION ( 'NONE',  ( 1.224646799147353207E-16, 0.000000000000000000, 1.000000000000000000 ) ) ;
#275 = AXIS2_PLACEMENT_3D ( 'NONE', #8, #178, #279 ) ;
#276 = AXIS2_PLACEMENT_3D ( 'NONE', #271, #203, #57 ) ;
#277 =( CONVERSION_BASED_UNIT ( 'INCH', #144 ) LENGTH_UNIT ( ) NAMED_UNIT ( #35 ) );
#278 = ADVANCED_FACE ( 'NONE', ( #187 ), #52, .T. ) ;
#279 = DIRECTION ( 'NONE',  ( 1.000000000000000000, 0.000000000000000000, 0.000000000000000000 ) ) ;
#280 = ORIENTED_EDGE ( 'NONE', *, *, #292, .F. ) ;
#281 = PLANE ( 'NONE',  #92 ) ;
#282 = PLANE ( 'NONE',  #226 ) ;
#283 = LINE ( 'NONE', #158, #253 ) ;
#284 = LINE ( 'NONE', #53, #260 ) ;
#285 = ORIENTED_EDGE ( 'NONE', *, *, #164, .F. ) ;
#286 = ORIENTED_EDGE ( 'NONE', *, *, #145, .T. ) ;
#287 = CARTESIAN_POINT ( 'NONE',  ( -0.1573230194999999387, 1.926651322628716935E-17, 0.8661419999999999675 ) ) ;
#288 = VERTEX_POINT ( 'NONE', #149 ) ;
#289 = EDGE_CURVE ( 'NONE', #288, #188, #31, .T. ) ;
#290 = ORIENTED_EDGE ( 'NONE', *, *, #289, .F. ) ;
#291 = VERTEX_POINT ( 'NONE', #106 ) ;
#292 = EDGE_CURVE ( 'NONE', #249, #110, #132, .T. ) ;
#293 = CIRCLE ( 'NONE', #69, 0.1574804999999999955 ) ;
#294 = PRODUCT_DEFINITION_FORMATION_WITH_SPECIFIED_SOURCE ( 'ANY', '', #75, .NOT_KNOWN. ) ;
#295 = ORIENTED_EDGE ( 'NONE', *, *, #239, .F. ) ;
#296 = FILL_AREA_STYLE ('',( #42 ) ) ;
#297 = PRODUCT_DEFINITION_CONTEXT ( 'detailed design', #177, 'design' ) ;
#298 = CARTESIAN_POINT ( 'NONE',  ( -0.1574804999999999955, 0.000000000000000000, 2.480315000000000047 ) ) ;
#299 = EDGE_CURVE ( 'NONE', #249, #288, #30, .T. ) ;
ENDSEC;
END-ISO-10303-21;
