ISO-10303-21;
HEADER;
FILE_DESCRIPTION (( 'STEP AP214' ),
    '1' );
FILE_NAME ('Micro_AECM-1215-4.STEP',
    '2021-09-03T16:59:48',
    ( '' ),
    ( '' ),
    'SwSTEP 2.0',
    'SolidWorks 2020',
    '' );
FILE_SCHEMA (( 'AUTOMOTIVE_DESIGN' ));
ENDSEC;

DATA;
#1 = PRESENTATION_LAYER_ASSIGNMENT (  '', '', ( #58 ) ) ;
#2 = ORIENTED_EDGE ( 'NONE', *, *, #262, .T. ) ;
#3 = DIRECTION ( 'NONE',  ( 0.0000000000000000000, 0.0000000000000000000, 1.000000000000000000 ) ) ;
#4 = CARTESIAN_POINT ( 'NONE',  ( 1.446432783766537492E-16, 0.0000000000000000000, 1.181102000000000096 ) ) ;
#5 = EDGE_CURVE ( 'NONE', #178, #14, #94, .T. ) ;
#6 = EDGE_CURVE ( 'NONE', #174, #127, #246, .T. ) ;
#7 = AXIS2_PLACEMENT_3D ( 'NONE', #67, #176, #224 ) ;
#8 = CIRCLE ( 'NONE', #196, 0.1769292794999999530 ) ;
#9 = DIRECTION ( 'NONE',  ( -0.7071067811865474617, 0.0000000000000000000, -0.7071067811865474617 ) ) ;
#10 = EDGE_LOOP ( 'NONE', ( #99, #296, #256, #2 ) ) ;
#11 = LINE ( 'NONE', #39, #83 ) ;
#12 = EDGE_CURVE ( 'NONE', #137, #127, #48, .T. ) ;
#13 = CARTESIAN_POINT ( 'NONE',  ( 1.446432783766537492E-16, 0.0000000000000000000, 1.181102000000000096 ) ) ;
#14 = VERTEX_POINT ( 'NONE', #295 ) ;
#15 = AXIS2_PLACEMENT_3D ( 'NONE', #208, #268, #318 ) ;
#16 = COLOUR_RGB ( '',0.7921568627450980005, 0.8196078431372548767, 0.9333333333333333481 ) ;
#17 =( NAMED_UNIT ( * ) PLANE_ANGLE_UNIT ( ) SI_UNIT ( $, .RADIAN. ) );
#18 = DIRECTION ( 'NONE',  ( 1.000000000000000000, 0.0000000000000000000, 0.0000000000000000000 ) ) ;
#19 = ADVANCED_FACE ( 'NONE', ( #248 ), #126, .T. ) ;
#20 = DIRECTION ( 'NONE',  ( -1.000000000000000000, 0.0000000000000000000, 0.0000000000000000000 ) ) ;
#21 = DIRECTION ( 'NONE',  ( 1.000000000000000000, 0.0000000000000000000, 0.0000000000000000000 ) ) ;
#22 = VECTOR ( 'NONE', #66, 39.37007874015748143 ) ;
#23 = DIRECTION ( 'NONE',  ( -1.224646799147353454E-16, -0.0000000000000000000, -1.000000000000000000 ) ) ;
#24 = VERTEX_POINT ( 'NONE', #30 ) ;
#25 =( NAMED_UNIT ( * ) SI_UNIT ( $, .STERADIAN. ) SOLID_ANGLE_UNIT ( ) );
#26 = ORIENTED_EDGE ( 'NONE', *, *, #278, .F. ) ;
#27 = AXIS2_PLACEMENT_3D ( 'NONE', #108, #125, #314 ) ;
#28 = FILL_AREA_STYLE_COLOUR ( '', #105 ) ;
#29 = DIMENSIONAL_EXPONENTS ( 1.000000000000000000, 0.0000000000000000000, 0.0000000000000000000, 0.0000000000000000000, 0.0000000000000000000, 0.0000000000000000000, 0.0000000000000000000 ) ;
#30 = CARTESIAN_POINT ( 'NONE',  ( -0.2359842794999999771, 0.0000000000000000000, 0.05905500000000001720 ) ) ;
#31 = VECTOR ( 'NONE', #53, 39.37007874015748143 ) ;
#32 = AXIS2_PLACEMENT_3D ( 'NONE', #297, #165, #162 ) ;
#33 = CARTESIAN_POINT ( 'NONE',  ( -0.1769292794999999530, 2.528366341769458480E-17, 0.0000000000000000000 ) ) ;
#34 = ADVANCED_FACE ( 'NONE', ( #243 ), #226, .T. ) ;
#35 = FACE_OUTER_BOUND ( 'NONE', #75, .T. ) ;
#36 = DIRECTION ( 'NONE',  ( 1.224646799147353207E-16, 1.000000000000000000, -0.0000000000000000000 ) ) ;
#37 = ORIENTED_EDGE ( 'NONE', *, *, #262, .F. ) ;
#38 = CONICAL_SURFACE ( 'NONE', #97, 0.2359842794999999771, 0.1745329251994338082 ) ;
#39 = CARTESIAN_POINT ( 'NONE',  ( 0.2359842795000001159, 0.0000000000000000000, 1.181102000000000096 ) ) ;
#40 = EDGE_CURVE ( 'NONE', #124, #178, #85, .T. ) ;
#41 = DIRECTION ( 'NONE',  ( 1.224646799147353454E-16, 0.0000000000000000000, 1.000000000000000000 ) ) ;
#42 = DIRECTION ( 'NONE',  ( 1.000000000000000000, 0.0000000000000000000, 0.0000000000000000000 ) ) ;
#43 = ORIENTED_EDGE ( 'NONE', *, *, #56, .T. ) ;
#44 = AXIS2_PLACEMENT_3D ( 'NONE', #13, #100, #163 ) ;
#45 = CARTESIAN_POINT ( 'NONE',  ( -0.2212205000000019295, 0.0000000000000000000, 3.267717000000000649 ) ) ;
#46 = ORIENTED_EDGE ( 'NONE', *, *, #5, .T. ) ;
#47 = DIRECTION ( 'NONE',  ( -1.000000000000000000, 0.0000000000000000000, 1.224646799147353454E-16 ) ) ;
#48 = LINE ( 'NONE', #141, #31 ) ;
#49 = FACE_OUTER_BOUND ( 'NONE', #213, .T. ) ;
#50 = CARTESIAN_POINT ( 'NONE',  ( 0.0000000000000000000, 0.0000000000000000000, 0.0000000000000000000 ) ) ;
#51 = VECTOR ( 'NONE', #313, 39.37007874015748854 ) ;
#52 = APPLICATION_PROTOCOL_DEFINITION ( 'draft international standard', 'automotive_design', 1998, #343 ) ;
#53 = DIRECTION ( 'NONE',  ( -1.224646799147353454E-16, -0.0000000000000000000, -1.000000000000000000 ) ) ;
#54 =( NAMED_UNIT ( * ) PLANE_ANGLE_UNIT ( ) SI_UNIT ( $, .RADIAN. ) );
#55 = ORIENTED_EDGE ( 'NONE', *, *, #40, .T. ) ;
#56 = EDGE_CURVE ( 'NONE', #264, #124, #267, .T. ) ;
#57 =( CONVERSION_BASED_UNIT ( 'INCH', #221 ) LENGTH_UNIT ( ) NAMED_UNIT ( #236 ) );
#58 = STYLED_ITEM ( 'NONE', ( #261 ), #271 ) ;
#59 = STYLED_ITEM ( 'NONE', ( #169 ), #130 ) ;
#60 = AXIS2_PLACEMENT_3D ( 'NONE', #316, #275, #322 ) ;
#61 = EDGE_CURVE ( 'NONE', #264, #282, #157, .T. ) ;
#62 = CARTESIAN_POINT ( 'NONE',  ( -0.2359842794999998383, 2.889973925387693713E-17, 1.181102000000000096 ) ) ;
#63 = AXIS2_PLACEMENT_3D ( 'NONE', #211, #79, #312 ) ;
#64 = ADVANCED_FACE ( 'NONE', ( #134 ), #239, .T. ) ;
#65 = DIRECTION ( 'NONE',  ( -0.0000000000000000000, -0.0000000000000000000, -1.000000000000000000 ) ) ;
#66 = DIRECTION ( 'NONE',  ( -0.0000000000000000000, -0.0000000000000000000, -1.000000000000000000 ) ) ;
#67 = CARTESIAN_POINT ( 'NONE',  ( 1.448073410051044337E-16, 0.0000000000000000000, 1.182441673027071261 ) ) ;
#68 = ORIENTED_EDGE ( 'NONE', *, *, #231, .F. ) ;
#69 = FACE_OUTER_BOUND ( 'NONE', #203, .T. ) ;
#70 = ORIENTED_EDGE ( 'NONE', *, *, #225, .T. ) ;
#71 = DIRECTION ( 'NONE',  ( 1.000000000000000000, 0.0000000000000000000, -0.0000000000000000000 ) ) ;
#72 = UNCERTAINTY_MEASURE_WITH_UNIT (LENGTH_MEASURE( 1.000000000000000082E-05 ), #300, 'distance_accuracy_value', 'NONE');
#73 = ORIENTED_EDGE ( 'NONE', *, *, #160, .T. ) ;
#74 = DIRECTION ( 'NONE',  ( -1.000000000000000000, 0.0000000000000000000, 0.0000000000000000000 ) ) ;
#75 = EDGE_LOOP ( 'NONE', ( #230, #167, #342, #242 ) ) ;
#76 = AXIS2_PLACEMENT_3D ( 'NONE', #145, #349, #20 ) ;
#77 = FACE_OUTER_BOUND ( 'NONE', #96, .T. ) ;
#78 =( GEOMETRIC_REPRESENTATION_CONTEXT ( 3 ) GLOBAL_UNCERTAINTY_ASSIGNED_CONTEXT ( ( #72 ) ) GLOBAL_UNIT_ASSIGNED_CONTEXT ( ( #300, #347, #350 ) ) REPRESENTATION_CONTEXT ( 'NONE', 'WORKASPACE' ) );
#79 = DIRECTION ( 'NONE',  ( -0.0000000000000000000, -0.0000000000000000000, -1.000000000000000000 ) ) ;
#80 = ORIENTED_EDGE ( 'NONE', *, *, #222, .T. ) ;
#81 = LINE ( 'NONE', #187, #181 ) ;
#82 = EDGE_LOOP ( 'NONE', ( #155, #337, #179, #270 ) ) ;
#83 = VECTOR ( 'NONE', #95, 39.37007874015748143 ) ;
#84 = ORIENTED_EDGE ( 'NONE', *, *, #61, .T. ) ;
#85 = LINE ( 'NONE', #186, #90 ) ;
#86 = PRODUCT_DEFINITION ( 'UNKNOWN', '', #259, #305 ) ;
#87 = PRODUCT_CONTEXT ( 'NONE', #343, 'mechanical' ) ;
#88 = CARTESIAN_POINT ( 'NONE',  ( 1.446432783766537492E-16, 0.0000000000000000000, 1.181102000000000096 ) ) ;
#89 = CYLINDRICAL_SURFACE ( 'NONE', #207, 0.2362204999999999999 ) ;
#90 = VECTOR ( 'NONE', #310, 39.37007874015748143 ) ;
#91 = DIRECTION ( 'NONE',  ( 1.000000000000000000, 0.0000000000000000000, 0.0000000000000000000 ) ) ;
#92 = PRODUCT_RELATED_PRODUCT_CATEGORY ( 'part', '', ( #114 ) ) ;
#93 = CARTESIAN_POINT ( 'NONE',  ( -0.2362204999999999999, 0.0000000000000000000, 3.252717000000002301 ) ) ;
#94 = CIRCLE ( 'NONE', #161, 0.2362204999999999999 ) ;
#95 = DIRECTION ( 'NONE',  ( 0.1736481776669313026, 0.0000000000000000000, 0.9848077530122077983 ) ) ;
#96 = EDGE_LOOP ( 'NONE', ( #254, #43, #260, #132 ) ) ;
#97 = AXIS2_PLACEMENT_3D ( 'NONE', #88, #41, #328 ) ;
#98 = SURFACE_STYLE_FILL_AREA ( #287 ) ;
#99 = ORIENTED_EDGE ( 'NONE', *, *, #12, .F. ) ;
#100 = DIRECTION ( 'NONE',  ( -1.224646799147353454E-16, -0.0000000000000000000, -1.000000000000000000 ) ) ;
#101 = ORIENTED_EDGE ( 'NONE', *, *, #6, .T. ) ;
#102 = CARTESIAN_POINT ( 'NONE',  ( 0.0000000000000000000, 0.0000000000000000000, 0.0000000000000000000 ) ) ;
#103 = EDGE_LOOP ( 'NONE', ( #164, #68, #218, #46 ) ) ;
#104 = TOROIDAL_SURFACE ( 'NONE', #302, 0.1769292794999999530, 0.05905500000000000332 ) ;
#105 = COLOUR_RGB ( '',0.7921568627450980005, 0.8196078431372548767, 0.9333333333333333481 ) ;
#106 = SURFACE_SIDE_STYLE ('',( #98 ) ) ;
#107 = CARTESIAN_POINT ( 'NONE',  ( 1.448073410051044337E-16, 0.0000000000000000000, 1.182441673027071261 ) ) ;
#108 = CARTESIAN_POINT ( 'NONE',  ( 0.0000000000000000000, 0.0000000000000000000, 3.267717000000000649 ) ) ;
#109 = DIRECTION ( 'NONE',  ( 1.000000000000000000, 0.0000000000000000000, 0.0000000000000000000 ) ) ;
#110 = ORIENTED_EDGE ( 'NONE', *, *, #327, .F. ) ;
#111 = DIMENSIONAL_EXPONENTS ( 1.000000000000000000, 0.0000000000000000000, 0.0000000000000000000, 0.0000000000000000000, 0.0000000000000000000, 0.0000000000000000000, 0.0000000000000000000 ) ;
#112 = AXIS2_PLACEMENT_3D ( 'NONE', #285, #240, #42 ) ;
#113 = EDGE_LOOP ( 'NONE', ( #139, #55, #330, #241 ) ) ;
#114 = PRODUCT ( 'Micro_AECM-1215-4', 'Micro_AECM-1215-4', '', ( #87 ) ) ;
#115 =( GEOMETRIC_REPRESENTATION_CONTEXT ( 3 ) GLOBAL_UNCERTAINTY_ASSIGNED_CONTEXT ( ( #121 ) ) GLOBAL_UNIT_ASSIGNED_CONTEXT ( ( #159, #17, #263 ) ) REPRESENTATION_CONTEXT ( 'NONE', 'WORKASPACE' ) );
#116 = DIRECTION ( 'NONE',  ( 1.224646799147353454E-16, 0.0000000000000000000, 1.000000000000000000 ) ) ;
#117 = DIRECTION ( 'NONE',  ( 0.0000000000000000000, 0.0000000000000000000, 1.000000000000000000 ) ) ;
#118 = CARTESIAN_POINT ( 'NONE',  ( 7.232151672364698504E-18, 0.0000000000000000000, 0.05905500000000001720 ) ) ;
#119 = AXIS2_PLACEMENT_3D ( 'NONE', #4, #116, #91 ) ;
#120 = CARTESIAN_POINT ( 'NONE',  ( 0.2359842794999999771, 2.889973925387693713E-17, 0.05905500000000001720 ) ) ;
#121 = UNCERTAINTY_MEASURE_WITH_UNIT (LENGTH_MEASURE( 1.000000000000000082E-05 ), #159, 'distance_accuracy_value', 'NONE');
#122 = VERTEX_POINT ( 'NONE', #93 ) ;
#123 = DIRECTION ( 'NONE',  ( 0.0000000000000000000, 0.0000000000000000000, 1.000000000000000000 ) ) ;
#124 = VERTEX_POINT ( 'NONE', #253 ) ;
#125 = DIRECTION ( 'NONE',  ( -0.0000000000000000000, -0.0000000000000000000, -1.000000000000000000 ) ) ;
#126 = TOROIDAL_SURFACE ( 'NONE', #15, 0.1769292794999999530, 0.05905500000000000332 ) ;
#127 = VERTEX_POINT ( 'NONE', #120 ) ;
#128 = AXIS2_PLACEMENT_3D ( 'NONE', #148, #36, #329 ) ;
#129 = DIRECTION ( 'NONE',  ( -1.224646799147353454E-16, -0.0000000000000000000, -1.000000000000000000 ) ) ;
#130 = ADVANCED_BREP_SHAPE_REPRESENTATION ( 'Micro_AECM-1215-4', ( #271, #60 ), #135 ) ;
#131 = CARTESIAN_POINT ( 'NONE',  ( 0.0000000000000000000, 0.0000000000000000000, 3.267717000000000649 ) ) ;
#132 = ORIENTED_EDGE ( 'NONE', *, *, #222, .F. ) ;
#133 = CARTESIAN_POINT ( 'NONE',  ( 0.0000000000000000000, 0.0000000000000000000, 3.252717000000002301 ) ) ;
#134 = FACE_OUTER_BOUND ( 'NONE', #10, .T. ) ;
#135 =( GEOMETRIC_REPRESENTATION_CONTEXT ( 3 ) GLOBAL_UNCERTAINTY_ASSIGNED_CONTEXT ( ( #333 ) ) GLOBAL_UNIT_ASSIGNED_CONTEXT ( ( #57, #54, #25 ) ) REPRESENTATION_CONTEXT ( 'NONE', 'WORKASPACE' ) );
#136 = CYLINDRICAL_SURFACE ( 'NONE', #27, 0.2362204999999999999 ) ;
#137 = VERTEX_POINT ( 'NONE', #326 ) ;
#138 = SURFACE_STYLE_USAGE ( .BOTH. , #140 ) ;
#139 = ORIENTED_EDGE ( 'NONE', *, *, #286, .T. ) ;
#140 = SURFACE_SIDE_STYLE ('',( #351 ) ) ;
#141 = CARTESIAN_POINT ( 'NONE',  ( 0.2359842794999999771, 2.889973925387693713E-17, -2.889973925387693713E-17 ) ) ;
#142 = CIRCLE ( 'NONE', #220, 0.2359842794999999771 ) ;
#143 = ADVANCED_FACE ( 'NONE', ( #171 ), #249, .F. ) ;
#144 = APPLICATION_PROTOCOL_DEFINITION ( 'draft international standard', 'automotive_design', 1998, #273 ) ;
#145 = CARTESIAN_POINT ( 'NONE',  ( 0.0000000000000000000, 0.0000000000000000000, 3.267717000000000649 ) ) ;
#146 = CIRCLE ( 'NONE', #332, 0.2362204999999999999 ) ;
#147 = MECHANICAL_DESIGN_GEOMETRIC_PRESENTATION_REPRESENTATION (  '', ( #59 ), #78 ) ;
#148 = CARTESIAN_POINT ( 'NONE',  ( -0.1769292794999999530, 2.166758758151223863E-17, 0.05905500000000000332 ) ) ;
#149 = DIRECTION ( 'NONE',  ( 1.000000000000000000, 0.0000000000000000000, 0.0000000000000000000 ) ) ;
#150 = EDGE_CURVE ( 'NONE', #137, #178, #11, .T. ) ;
#151 = EDGE_CURVE ( 'NONE', #127, #24, #142, .T. ) ;
#152 = EDGE_LOOP ( 'NONE', ( #156, #334, #237, #183 ) ) ;
#153 = DIRECTION ( 'NONE',  ( -0.1736481776669311083, 2.126576849575782084E-17, 0.9848077530122080203 ) ) ;
#154 = CARTESIAN_POINT ( 'NONE',  ( -0.2362204999999999999, 0.0000000000000000000, 3.267717000000000649 ) ) ;
#155 = ORIENTED_EDGE ( 'NONE', *, *, #327, .T. ) ;
#156 = ORIENTED_EDGE ( 'NONE', *, *, #311, .F. ) ;
#157 = CIRCLE ( 'NONE', #32, 0.2212205000000019295 ) ;
#158 = SURFACE_STYLE_USAGE ( .BOTH. , #106 ) ;
#159 =( CONVERSION_BASED_UNIT ( 'INCH', #238 ) LENGTH_UNIT ( ) NAMED_UNIT ( #111 ) );
#160 = EDGE_CURVE ( 'NONE', #201, #14, #232, .T. ) ;
#161 = AXIS2_PLACEMENT_3D ( 'NONE', #107, #290, #109 ) ;
#162 = DIRECTION ( 'NONE',  ( 1.000000000000000000, 0.0000000000000000000, 0.0000000000000000000 ) ) ;
#163 = DIRECTION ( 'NONE',  ( -1.000000000000000000, 0.0000000000000000000, 0.0000000000000000000 ) ) ;
#164 = ORIENTED_EDGE ( 'NONE', *, *, #160, .F. ) ;
#165 = DIRECTION ( 'NONE',  ( 0.0000000000000000000, 0.0000000000000000000, 1.000000000000000000 ) ) ;
#166 = ORIENTED_EDGE ( 'NONE', *, *, #185, .F. ) ;
#167 = ORIENTED_EDGE ( 'NONE', *, *, #319, .T. ) ;
#168 = AXIS2_PLACEMENT_3D ( 'NONE', #283, #173, #149 ) ;
#169 = PRESENTATION_STYLE_ASSIGNMENT (( #138 ) ) ;
#170 = CARTESIAN_POINT ( 'NONE',  ( -0.2359842794999998383, 2.891420358783783796E-17, 1.181102000000000096 ) ) ;
#171 = FACE_OUTER_BOUND ( 'NONE', #345, .T. ) ;
#172 = ADVANCED_FACE ( 'NONE', ( #195 ), #38, .T. ) ;
#173 = DIRECTION ( 'NONE',  ( 0.0000000000000000000, 0.0000000000000000000, 1.000000000000000000 ) ) ;
#174 = VERTEX_POINT ( 'NONE', #198 ) ;
#175 = DIRECTION ( 'NONE',  ( -1.000000000000000000, 0.0000000000000000000, 1.224646799147353454E-16 ) ) ;
#176 = DIRECTION ( 'NONE',  ( -1.224646799147353454E-16, -0.0000000000000000000, -1.000000000000000000 ) ) ;
#177 = EDGE_CURVE ( 'NONE', #122, #14, #199, .T. ) ;
#178 = VERTEX_POINT ( 'NONE', #306 ) ;
#179 = ORIENTED_EDGE ( 'NONE', *, *, #151, .T. ) ;
#180 = DIRECTION ( 'NONE',  ( 0.0000000000000000000, 0.0000000000000000000, 1.000000000000000000 ) ) ;
#181 = VECTOR ( 'NONE', #293, 39.37007874015748143 ) ;
#182 = PRESENTATION_LAYER_ASSIGNMENT (  '', '', ( #59 ) ) ;
#183 = ORIENTED_EDGE ( 'NONE', *, *, #6, .F. ) ;
#184 = DIRECTION ( 'NONE',  ( -1.000000000000000000, 0.0000000000000000000, 0.0000000000000000000 ) ) ;
#185 = EDGE_CURVE ( 'NONE', #191, #24, #274, .T. ) ;
#186 = CARTESIAN_POINT ( 'NONE',  ( 0.2362204999999999999, 2.892866792179872647E-17, 3.267717000000000649 ) ) ;
#187 = CARTESIAN_POINT ( 'NONE',  ( -0.2359842794999999771, 0.0000000000000000000, 2.889973925387693713E-17 ) ) ;
#188 = ORIENTED_EDGE ( 'NONE', *, *, #150, .F. ) ;
#189 = CIRCLE ( 'NONE', #44, 0.2359842794999999771 ) ;
#190 = SHAPE_DEFINITION_REPRESENTATION ( #269, #130 ) ;
#191 = VERTEX_POINT ( 'NONE', #33 ) ;
#192 = CARTESIAN_POINT ( 'NONE',  ( 0.2212205000000019295, 2.709169772307794108E-17, 3.267717000000000649 ) ) ;
#193 =( LENGTH_UNIT ( ) NAMED_UNIT ( * ) SI_UNIT ( $, .METRE. ) );
#194 = EDGE_CURVE ( 'NONE', #282, #264, #216, .T. ) ;
#195 = FACE_OUTER_BOUND ( 'NONE', #103, .T. ) ;
#196 = AXIS2_PLACEMENT_3D ( 'NONE', #234, #335, #18 ) ;
#197 = DIRECTION ( 'NONE',  ( 1.000000000000000000, 0.0000000000000000000, 0.0000000000000000000 ) ) ;
#198 = CARTESIAN_POINT ( 'NONE',  ( 0.1769292794999999530, 0.0000000000000000000, 0.0000000000000000000 ) ) ;
#199 = LINE ( 'NONE', #154, #22 ) ;
#200 = CIRCLE ( 'NONE', #63, 0.1769292794999999530 ) ;
#201 = VERTEX_POINT ( 'NONE', #170 ) ;
#202 =( LENGTH_UNIT ( ) NAMED_UNIT ( * ) SI_UNIT ( $, .METRE. ) );
#203 = EDGE_LOOP ( 'NONE', ( #110, #73, #70, #188 ) ) ;
#204 = FACE_OUTER_BOUND ( 'NONE', #113, .T. ) ;
#205 = ORIENTED_EDGE ( 'NONE', *, *, #278, .T. ) ;
#206 = DIRECTION ( 'NONE',  ( 0.0000000000000000000, 0.0000000000000000000, -1.000000000000000000 ) ) ;
#207 = AXIS2_PLACEMENT_3D ( 'NONE', #303, #65, #74 ) ;
#208 = CARTESIAN_POINT ( 'NONE',  ( 7.232151672364696963E-18, 0.0000000000000000000, 0.05905500000000000332 ) ) ;
#209 = CARTESIAN_POINT ( 'NONE',  ( 0.0000000000000000000, 0.0000000000000000000, 3.267717000000000649 ) ) ;
#210 = CARTESIAN_POINT ( 'NONE',  ( 0.1769292794999999530, 0.0000000000000000000, 0.05905500000000000332 ) ) ;
#211 = CARTESIAN_POINT ( 'NONE',  ( 7.232151672364696963E-18, 0.0000000000000000000, 0.0000000000000000000 ) ) ;
#212 = CLOSED_SHELL ( 'NONE', ( #19, #291, #219, #298, #336, #266, #280, #34, #172, #64, #143, #252 ) ) ;
#213 = EDGE_LOOP ( 'NONE', ( #339, #84 ) ) ;
#214 = LENGTH_MEASURE_WITH_UNIT ( LENGTH_MEASURE( 0.02539999999999999897 ), #245 );
#215 = ORIENTED_EDGE ( 'NONE', *, *, #319, .F. ) ;
#216 = CIRCLE ( 'NONE', #168, 0.2212205000000019295 ) ;
#217 = FILL_AREA_STYLE ('',( #28 ) ) ;
#218 = ORIENTED_EDGE ( 'NONE', *, *, #150, .T. ) ;
#219 = ADVANCED_FACE ( 'NONE', ( #69 ), #325, .T. ) ;
#220 = AXIS2_PLACEMENT_3D ( 'NONE', #301, #123, #304 ) ;
#221 = LENGTH_MEASURE_WITH_UNIT ( LENGTH_MEASURE( 0.02539999999999999897 ), #193 );
#222 = EDGE_CURVE ( 'NONE', #282, #122, #251, .T. ) ;
#223 = DIRECTION ( 'NONE',  ( -1.224646799147353454E-16, -0.0000000000000000000, -1.000000000000000000 ) ) ;
#224 = DIRECTION ( 'NONE',  ( 1.000000000000000000, 0.0000000000000000000, 0.0000000000000000000 ) ) ;
#225 = EDGE_CURVE ( 'NONE', #14, #178, #247, .T. ) ;
#226 = CONICAL_SURFACE ( 'NONE', #76, 0.2212205000000019295, 0.7853981633974482790 ) ;
#227 = CARTESIAN_POINT ( 'NONE',  ( 0.2212205000000019295, 2.801018282243833685E-17, 3.267717000000000649 ) ) ;
#228 = AXIS2_PLACEMENT_3D ( 'NONE', #250, #308, #281 ) ;
#229 = CARTESIAN_POINT ( 'NONE',  ( 7.232151672364696963E-18, 0.0000000000000000000, 0.05905500000000000332 ) ) ;
#230 = ORIENTED_EDGE ( 'NONE', *, *, #40, .F. ) ;
#231 = EDGE_CURVE ( 'NONE', #137, #201, #265, .T. ) ;
#232 = LINE ( 'NONE', #62, #244 ) ;
#233 = CIRCLE ( 'NONE', #299, 0.2359842794999999771 ) ;
#234 = CARTESIAN_POINT ( 'NONE',  ( 7.232151672364696963E-18, 0.0000000000000000000, 0.0000000000000000000 ) ) ;
#235 = FACE_OUTER_BOUND ( 'NONE', #82, .T. ) ;
#236 = DIMENSIONAL_EXPONENTS ( 1.000000000000000000, 0.0000000000000000000, 0.0000000000000000000, 0.0000000000000000000, 0.0000000000000000000, 0.0000000000000000000, 0.0000000000000000000 ) ;
#237 = ORIENTED_EDGE ( 'NONE', *, *, #151, .F. ) ;
#238 = LENGTH_MEASURE_WITH_UNIT ( LENGTH_MEASURE( 0.02539999999999999897 ), #202 );
#239 = CYLINDRICAL_SURFACE ( 'NONE', #276, 0.2359842794999999771 ) ;
#240 = DIRECTION ( 'NONE',  ( 0.0000000000000000000, 0.0000000000000000000, -1.000000000000000000 ) ) ;
#241 = ORIENTED_EDGE ( 'NONE', *, *, #177, .F. ) ;
#242 = ORIENTED_EDGE ( 'NONE', *, *, #5, .F. ) ;
#243 = FACE_OUTER_BOUND ( 'NONE', #320, .T. ) ;
#244 = VECTOR ( 'NONE', #153, 39.37007874015747433 ) ;
#245 =( LENGTH_UNIT ( ) NAMED_UNIT ( * ) SI_UNIT ( $, .METRE. ) );
#246 = CIRCLE ( 'NONE', #331, 0.05905500000000000332 ) ;
#247 = CIRCLE ( 'NONE', #7, 0.2362204999999999999 ) ;
#248 = FACE_OUTER_BOUND ( 'NONE', #152, .T. ) ;
#249 = PLANE ( 'NONE',  #228 ) ;
#250 = CARTESIAN_POINT ( 'NONE',  ( 0.0000000000000000000, 0.0000000000000000000, 0.0000000000000000000 ) ) ;
#251 = LINE ( 'NONE', #279, #341 ) ;
#252 = ADVANCED_FACE ( 'NONE', ( #323 ), #104, .T. ) ;
#253 = CARTESIAN_POINT ( 'NONE',  ( 0.2362204999999999999, 2.892866792179872647E-17, 3.252717000000002301 ) ) ;
#254 = ORIENTED_EDGE ( 'NONE', *, *, #61, .F. ) ;
#255 = CARTESIAN_POINT ( 'NONE',  ( 1.446432783766537492E-16, 0.0000000000000000000, 1.181102000000000096 ) ) ;
#256 = ORIENTED_EDGE ( 'NONE', *, *, #344, .T. ) ;
#257 = FILL_AREA_STYLE_COLOUR ( '', #16 ) ;
#258 = AXIS2_PLACEMENT_3D ( 'NONE', #131, #180, #71 ) ;
#259 = PRODUCT_DEFINITION_FORMATION_WITH_SPECIFIED_SOURCE ( 'ANY', '', #114, .NOT_KNOWN. ) ;
#260 = ORIENTED_EDGE ( 'NONE', *, *, #286, .F. ) ;
#261 = PRESENTATION_STYLE_ASSIGNMENT (( #158 ) ) ;
#262 = EDGE_CURVE ( 'NONE', #24, #127, #233, .T. ) ;
#263 =( NAMED_UNIT ( * ) SI_UNIT ( $, .STERADIAN. ) SOLID_ANGLE_UNIT ( ) );
#264 = VERTEX_POINT ( 'NONE', #227 ) ;
#265 = CIRCLE ( 'NONE', #317, 0.2359842794999999771 ) ;
#266 = ADVANCED_FACE ( 'NONE', ( #35 ), #89, .T. ) ;
#267 = LINE ( 'NONE', #192, #51 ) ;
#268 = DIRECTION ( 'NONE',  ( 0.0000000000000000000, 0.0000000000000000000, 1.000000000000000000 ) ) ;
#269 = PRODUCT_DEFINITION_SHAPE ( 'NONE', 'NONE',  #86 ) ;
#270 = ORIENTED_EDGE ( 'NONE', *, *, #344, .F. ) ;
#271 = MANIFOLD_SOLID_BREP ( 'Fillet1', #212 ) ;
#272 = EDGE_LOOP ( 'NONE', ( #166, #26, #101, #37 ) ) ;
#273 = APPLICATION_CONTEXT ( 'automotive_design' ) ;
#274 = CIRCLE ( 'NONE', #128, 0.05905500000000001720 ) ;
#275 = DIRECTION ( 'NONE',  ( 0.0000000000000000000, 0.0000000000000000000, 1.000000000000000000 ) ) ;
#276 = AXIS2_PLACEMENT_3D ( 'NONE', #50, #23, #175 ) ;
#277 = DIRECTION ( 'NONE',  ( -1.000000000000000000, 0.0000000000000000000, 0.0000000000000000000 ) ) ;
#278 = EDGE_CURVE ( 'NONE', #174, #191, #200, .T. ) ;
#279 = CARTESIAN_POINT ( 'NONE',  ( -0.2212205000000019295, 0.0000000000000000000, 3.267717000000000649 ) ) ;
#280 = ADVANCED_FACE ( 'NONE', ( #49 ), #340, .T. ) ;
#281 = DIRECTION ( 'NONE',  ( 1.000000000000000000, 0.0000000000000000000, -0.0000000000000000000 ) ) ;
#282 = VERTEX_POINT ( 'NONE', #45 ) ;
#283 = CARTESIAN_POINT ( 'NONE',  ( 0.0000000000000000000, 0.0000000000000000000, 3.267717000000000649 ) ) ;
#284 = ORIENTED_EDGE ( 'NONE', *, *, #311, .T. ) ;
#285 = CARTESIAN_POINT ( 'NONE',  ( 0.0000000000000000000, 0.0000000000000000000, 3.252717000000002301 ) ) ;
#286 = EDGE_CURVE ( 'NONE', #122, #124, #307, .T. ) ;
#287 = FILL_AREA_STYLE ('',( #257 ) ) ;
#288 = CONICAL_SURFACE ( 'NONE', #348, 0.2212205000000019295, 0.7853981633974482790 ) ;
#289 = DIRECTION ( 'NONE',  ( 0.0000000000000000000, 0.0000000000000000000, -1.000000000000000000 ) ) ;
#290 = DIRECTION ( 'NONE',  ( -1.224646799147353454E-16, -0.0000000000000000000, -1.000000000000000000 ) ) ;
#291 = ADVANCED_FACE ( 'NONE', ( #235 ), #338, .T. ) ;
#292 = ORIENTED_EDGE ( 'NONE', *, *, #194, .F. ) ;
#293 = DIRECTION ( 'NONE',  ( -1.224646799147353454E-16, -0.0000000000000000000, -1.000000000000000000 ) ) ;
#294 = MECHANICAL_DESIGN_GEOMETRIC_PRESENTATION_REPRESENTATION (  '', ( #58 ), #115 ) ;
#295 = CARTESIAN_POINT ( 'NONE',  ( -0.2362204999999998611, 0.0000000000000000000, 1.182441673027071261 ) ) ;
#296 = ORIENTED_EDGE ( 'NONE', *, *, #231, .T. ) ;
#297 = CARTESIAN_POINT ( 'NONE',  ( 0.0000000000000000000, 0.0000000000000000000, 3.267717000000000649 ) ) ;
#298 = ADVANCED_FACE ( 'NONE', ( #77 ), #288, .T. ) ;
#299 = AXIS2_PLACEMENT_3D ( 'NONE', #118, #3, #324 ) ;
#300 =( CONVERSION_BASED_UNIT ( 'INCH', #214 ) LENGTH_UNIT ( ) NAMED_UNIT ( #29 ) );
#301 = CARTESIAN_POINT ( 'NONE',  ( 7.232151672364698504E-18, 0.0000000000000000000, 0.05905500000000001720 ) ) ;
#302 = AXIS2_PLACEMENT_3D ( 'NONE', #229, #117, #197 ) ;
#303 = CARTESIAN_POINT ( 'NONE',  ( 0.0000000000000000000, 0.0000000000000000000, 3.267717000000000649 ) ) ;
#304 = DIRECTION ( 'NONE',  ( 1.000000000000000000, 0.0000000000000000000, 0.0000000000000000000 ) ) ;
#305 = PRODUCT_DEFINITION_CONTEXT ( 'detailed design', #273, 'design' ) ;
#306 = CARTESIAN_POINT ( 'NONE',  ( 0.2362205000000001665, 2.892866792179874496E-17, 1.182441673027071261 ) ) ;
#307 = CIRCLE ( 'NONE', #112, 0.2362204999999999999 ) ;
#308 = DIRECTION ( 'NONE',  ( 0.0000000000000000000, 0.0000000000000000000, 1.000000000000000000 ) ) ;
#309 = ORIENTED_EDGE ( 'NONE', *, *, #56, .F. ) ;
#310 = DIRECTION ( 'NONE',  ( -0.0000000000000000000, -0.0000000000000000000, -1.000000000000000000 ) ) ;
#311 = EDGE_CURVE ( 'NONE', #191, #174, #8, .T. ) ;
#312 = DIRECTION ( 'NONE',  ( 1.000000000000000000, 0.0000000000000000000, 0.0000000000000000000 ) ) ;
#313 = DIRECTION ( 'NONE',  ( 0.7071067811865474617, 8.659560562354932858E-17, -0.7071067811865474617 ) ) ;
#314 = DIRECTION ( 'NONE',  ( -1.000000000000000000, 0.0000000000000000000, 0.0000000000000000000 ) ) ;
#315 = DIRECTION ( 'NONE',  ( 0.0000000000000000000, 0.0000000000000000000, -1.000000000000000000 ) ) ;
#316 = CARTESIAN_POINT ( 'NONE',  ( 0.0000000000000000000, 0.0000000000000000000, 0.0000000000000000000 ) ) ;
#317 = AXIS2_PLACEMENT_3D ( 'NONE', #255, #223, #277 ) ;
#318 = DIRECTION ( 'NONE',  ( 1.000000000000000000, 0.0000000000000000000, 0.0000000000000000000 ) ) ;
#319 = EDGE_CURVE ( 'NONE', #124, #122, #146, .T. ) ;
#320 = EDGE_LOOP ( 'NONE', ( #309, #292, #80, #215 ) ) ;
#321 = AXIS2_PLACEMENT_3D ( 'NONE', #102, #129, #47 ) ;
#322 = DIRECTION ( 'NONE',  ( 1.000000000000000000, 0.0000000000000000000, 0.0000000000000000000 ) ) ;
#323 = FACE_OUTER_BOUND ( 'NONE', #272, .T. ) ;
#324 = DIRECTION ( 'NONE',  ( 1.000000000000000000, 0.0000000000000000000, 0.0000000000000000000 ) ) ;
#325 = CONICAL_SURFACE ( 'NONE', #119, 0.2359842794999999771, 0.1745329251994338082 ) ;
#326 = CARTESIAN_POINT ( 'NONE',  ( 0.2359842795000001159, 0.0000000000000000000, 1.181102000000000096 ) ) ;
#327 = EDGE_CURVE ( 'NONE', #201, #137, #189, .T. ) ;
#328 = DIRECTION ( 'NONE',  ( 1.000000000000000000, 0.0000000000000000000, 0.0000000000000000000 ) ) ;
#329 = DIRECTION ( 'NONE',  ( -1.000000000000000000, 1.224646799147352468E-16, 0.0000000000000000000 ) ) ;
#330 = ORIENTED_EDGE ( 'NONE', *, *, #225, .F. ) ;
#331 = AXIS2_PLACEMENT_3D ( 'NONE', #210, #346, #315 ) ;
#332 = AXIS2_PLACEMENT_3D ( 'NONE', #133, #206, #21 ) ;
#333 = UNCERTAINTY_MEASURE_WITH_UNIT (LENGTH_MEASURE( 1.000000000000000082E-05 ), #57, 'distance_accuracy_value', 'NONE');
#334 = ORIENTED_EDGE ( 'NONE', *, *, #185, .T. ) ;
#335 = DIRECTION ( 'NONE',  ( -0.0000000000000000000, -0.0000000000000000000, -1.000000000000000000 ) ) ;
#336 = ADVANCED_FACE ( 'NONE', ( #204 ), #136, .T. ) ;
#337 = ORIENTED_EDGE ( 'NONE', *, *, #12, .T. ) ;
#338 = CYLINDRICAL_SURFACE ( 'NONE', #321, 0.2359842794999999771 ) ;
#339 = ORIENTED_EDGE ( 'NONE', *, *, #194, .T. ) ;
#340 = PLANE ( 'NONE',  #258 ) ;
#341 = VECTOR ( 'NONE', #9, 39.37007874015748854 ) ;
#342 = ORIENTED_EDGE ( 'NONE', *, *, #177, .T. ) ;
#343 = APPLICATION_CONTEXT ( 'automotive_design' ) ;
#344 = EDGE_CURVE ( 'NONE', #201, #24, #81, .T. ) ;
#345 = EDGE_LOOP ( 'NONE', ( #205, #284 ) ) ;
#346 = DIRECTION ( 'NONE',  ( 0.0000000000000000000, -1.000000000000000000, 0.0000000000000000000 ) ) ;
#347 =( NAMED_UNIT ( * ) PLANE_ANGLE_UNIT ( ) SI_UNIT ( $, .RADIAN. ) );
#348 = AXIS2_PLACEMENT_3D ( 'NONE', #209, #289, #184 ) ;
#349 = DIRECTION ( 'NONE',  ( 0.0000000000000000000, 0.0000000000000000000, -1.000000000000000000 ) ) ;
#350 =( NAMED_UNIT ( * ) SI_UNIT ( $, .STERADIAN. ) SOLID_ANGLE_UNIT ( ) );
#351 = SURFACE_STYLE_FILL_AREA ( #217 ) ;
ENDSEC;
END-ISO-10303-21;
