ISO-10303-21;
HEADER;
FILE_DESCRIPTION (( 'STEP AP214' ),
    '1' );
FILE_NAME ('59461.STEP',
    '2023-07-24T15:47:43',
    ( '' ),
    ( '' ),
    'SwSTEP 2.0',
    'SolidWorks 2023',
    '' );
FILE_SCHEMA (( 'AUTOMOTIVE_DESIGN' ));
ENDSEC;

DATA;
#1 = SURFACE_SIDE_STYLE ('',( #205 ) ) ;
#2 = COLOUR_RGB ( '',1.000000000000000000, 0.000000000000000000, 0.000000000000000000 ) ;
#3 = DIRECTION ( 'NONE',  ( -0.000000000000000000, -1.000000000000000000, -0.000000000000000000 ) ) ;
#4 = VERTEX_POINT ( 'NONE', #89 ) ;
#5 = AXIS2_PLACEMENT_3D ( 'NONE', #12, #123, #217 ) ;
#6 = SURFACE_SIDE_STYLE ('',( #58 ) ) ;
#7 = AXIS2_PLACEMENT_3D ( 'NONE', #94, #188, #30 ) ;
#8 = CIRCLE ( 'NONE', #70, 4.000000000000000000 ) ;
#9 = DIRECTION ( 'NONE',  ( -0.000000000000000000, -1.000000000000000000, -0.000000000000000000 ) ) ;
#10 = DIRECTION ( 'NONE',  ( 0.000000000000000000, 0.000000000000000000, -1.000000000000000000 ) ) ;
#11 = PRODUCT_DEFINITION_SHAPE ( 'NONE', 'NONE',  #99 ) ;
#12 = CARTESIAN_POINT ( 'NONE',  ( 6.123233995736752477E-17, 63.00000000000000000, 0.000000000000000000 ) ) ;
#13 = ORIENTED_EDGE ( 'NONE', *, *, #88, .F. ) ;
#14 = SURFACE_STYLE_USAGE ( .BOTH. , #1 ) ;
#15 = MECHANICAL_DESIGN_GEOMETRIC_PRESENTATION_REPRESENTATION (  '', ( #213 ), #192 ) ;
#16 = ORIENTED_EDGE ( 'NONE', *, *, #154, .T. ) ;
#17 = CARTESIAN_POINT ( 'NONE',  ( -4.000000000000000000, 11.99999999999999645, 0.000000000000000000 ) ) ;
#18 = PRODUCT_CONTEXT ( 'NONE', #272, 'mechanical' ) ;
#19 = VERTEX_POINT ( 'NONE', #69 ) ;
#20 = SHAPE_DEFINITION_REPRESENTATION ( #11, #288 ) ;
#21 = VERTEX_POINT ( 'NONE', #158 ) ;
#22 = LINE ( 'NONE', #92, #96 ) ;
#23 = SURFACE_STYLE_FILL_AREA ( #117 ) ;
#24 = AXIS2_PLACEMENT_3D ( 'NONE', #156, #153, #37 ) ;
#25 = DIRECTION ( 'NONE',  ( -1.200634116811127771E-18, -1.000000000000000000, 0.000000000000000000 ) ) ;
#26 = DIRECTION ( 'NONE',  ( 1.200634116811127771E-18, 1.000000000000000000, -0.000000000000000000 ) ) ;
#27 = EDGE_CURVE ( 'NONE', #222, #125, #22, .T. ) ;
#28 = DIRECTION ( 'NONE',  ( -0.000000000000000000, -1.000000000000000000, -0.000000000000000000 ) ) ;
#29 = PRODUCT_DEFINITION_FORMATION_WITH_SPECIFIED_SOURCE ( 'ANY', '', #254, .NOT_KNOWN. ) ;
#30 = DIRECTION ( 'NONE',  ( 0.000000000000000000, 0.000000000000000000, -1.000000000000000000 ) ) ;
#31 = UNCERTAINTY_MEASURE_WITH_UNIT (LENGTH_MEASURE( 1.000000000000000082E-05 ), #206, 'distance_accuracy_value', 'NONE');
#32 = CYLINDRICAL_SURFACE ( 'NONE', #177, 4.000000000000000000 ) ;
#33 = EDGE_CURVE ( 'NONE', #60, #222, #48, .T. ) ;
#34 = LINE ( 'NONE', #175, #141 ) ;
#35 = AXIS2_PLACEMENT_3D ( 'NONE', #185, #268, #133 ) ;
#36 = EDGE_LOOP ( 'NONE', ( #46, #64, #160, #150 ) ) ;
#37 = DIRECTION ( 'NONE',  ( 0.000000000000000000, 0.000000000000000000, -1.000000000000000000 ) ) ;
#38 = PRODUCT_RELATED_PRODUCT_CATEGORY ( 'part', '', ( #254 ) ) ;
#39 =( NAMED_UNIT ( * ) SI_UNIT ( $, .STERADIAN. ) SOLID_ANGLE_UNIT ( ) );
#40 = FACE_OUTER_BOUND ( 'NONE', #132, .T. ) ;
#41 = PRESENTATION_LAYER_ASSIGNMENT (  '', '', ( #229 ) ) ;
#42 = FILL_AREA_STYLE_COLOUR ( '', #226 ) ;
#43 = FILL_AREA_STYLE_COLOUR ( '', #2 ) ;
#44 = DIRECTION ( 'NONE',  ( 1.200634116811127771E-18, 1.000000000000000000, -0.000000000000000000 ) ) ;
#45 = ORIENTED_EDGE ( 'NONE', *, *, #170, .F. ) ;
#46 = ORIENTED_EDGE ( 'NONE', *, *, #27, .F. ) ;
#47 = PRESENTATION_LAYER_ASSIGNMENT (  '', '', ( #126 ) ) ;
#48 = CIRCLE ( 'NONE', #269, 4.000000000000000000 ) ;
#49 = PRODUCT_DEFINITION_CONTEXT ( 'detailed design', #66, 'design' ) ;
#50 =( NAMED_UNIT ( * ) SI_UNIT ( $, .STERADIAN. ) SOLID_ANGLE_UNIT ( ) );
#51 = SURFACE_STYLE_USAGE ( .BOTH. , #142 ) ;
#52 = CARTESIAN_POINT ( 'NONE',  ( 4.898587196589412829E-16, 0.000000000000000000, 4.000000000000000000 ) ) ;
#53 =( LENGTH_UNIT ( ) NAMED_UNIT ( * ) SI_UNIT ( .MILLI., .METRE. ) );
#54 = CYLINDRICAL_SURFACE ( 'NONE', #249, 4.000000000000000000 ) ;
#55 = STYLED_ITEM ( 'NONE', ( #186 ), #72 ) ;
#56 = UNCERTAINTY_MEASURE_WITH_UNIT (LENGTH_MEASURE( 1.000000000000000082E-05 ), #220, 'distance_accuracy_value', 'NONE');
#57 = ORIENTED_EDGE ( 'NONE', *, *, #238, .T. ) ;
#58 = SURFACE_STYLE_FILL_AREA ( #253 ) ;
#59 = EDGE_CURVE ( 'NONE', #149, #4, #246, .T. ) ;
#60 = VERTEX_POINT ( 'NONE', #17 ) ;
#61 = AXIS2_PLACEMENT_3D ( 'NONE', #97, #196, #189 ) ;
#62 = SURFACE_SIDE_STYLE ('',( #67 ) ) ;
#63 =( NAMED_UNIT ( * ) SI_UNIT ( $, .STERADIAN. ) SOLID_ANGLE_UNIT ( ) );
#64 = ORIENTED_EDGE ( 'NONE', *, *, #266, .T. ) ;
#65 =( NAMED_UNIT ( * ) PLANE_ANGLE_UNIT ( ) SI_UNIT ( $, .RADIAN. ) );
#66 = APPLICATION_CONTEXT ( 'automotive_design' ) ;
#67 = SURFACE_STYLE_FILL_AREA ( #262 ) ;
#68 = CARTESIAN_POINT ( 'NONE',  ( 0.000000000000000000, 0.000000000000000000, -4.000000000000000000 ) ) ;
#69 = CARTESIAN_POINT ( 'NONE',  ( 4.898587196589412829E-16, 12.00000000000000000, 4.000000000000000000 ) ) ;
#70 = AXIS2_PLACEMENT_3D ( 'NONE', #171, #28, #120 ) ;
#71 =( NAMED_UNIT ( * ) PLANE_ANGLE_UNIT ( ) SI_UNIT ( $, .RADIAN. ) );
#72 = MANIFOLD_SOLID_BREP ( 'Revolve - Cutting Edge', #212 ) ;
#73 = MANIFOLD_SOLID_BREP ( 'Revolve - Tool Body (Straight Shanked)', #176 ) ;
#74 = DIRECTION ( 'NONE',  ( 1.000000000000000000, -1.200634116811127771E-18, 0.000000000000000000 ) ) ;
#75 = PLANE ( 'NONE',  #193 ) ;
#76 = DIRECTION ( 'NONE',  ( -0.000000000000000000, -1.000000000000000000, -0.000000000000000000 ) ) ;
#77 = ADVANCED_FACE ( 'NONE', ( #251 ), #245, .T. ) ;
#78 = MECHANICAL_DESIGN_GEOMETRIC_PRESENTATION_REPRESENTATION (  '', ( #187 ), #260 ) ;
#79 = EDGE_LOOP ( 'NONE', ( #257, #209 ) ) ;
#80 = DIRECTION ( 'NONE',  ( -1.000000000000000000, 0.000000000000000000, 0.000000000000000000 ) ) ;
#81 = FACE_OUTER_BOUND ( 'NONE', #79, .T. ) ;
#82 = ADVANCED_FACE ( 'NONE', ( #93 ), #194, .T. ) ;
#83 = PRESENTATION_STYLE_ASSIGNMENT (( #14 ) ) ;
#84 = PRESENTATION_LAYER_ASSIGNMENT (  '', '', ( #187 ) ) ;
#85 = ORIENTED_EDGE ( 'NONE', *, *, #91, .T. ) ;
#86 = CARTESIAN_POINT ( 'NONE',  ( 0.000000000000000000, 11.99999999999999645, 0.000000000000000000 ) ) ;
#87 = ORIENTED_EDGE ( 'NONE', *, *, #59, .T. ) ;
#88 = EDGE_CURVE ( 'NONE', #4, #90, #284, .T. ) ;
#89 = CARTESIAN_POINT ( 'NONE',  ( 0.000000000000000000, 0.000000000000000000, -4.000000000000000000 ) ) ;
#90 = VERTEX_POINT ( 'NONE', #270 ) ;
#91 = EDGE_CURVE ( 'NONE', #149, #19, #135, .T. ) ;
#92 = CARTESIAN_POINT ( 'NONE',  ( 4.000000000000000000, 63.00000000000000000, 4.898587196589412829E-16 ) ) ;
#93 = FACE_OUTER_BOUND ( 'NONE', #228, .T. ) ;
#94 = CARTESIAN_POINT ( 'NONE',  ( 0.000000000000000000, 12.00000000000000000, 0.000000000000000000 ) ) ;
#95 = PRESENTATION_STYLE_ASSIGNMENT (( #51 ) ) ;
#96 = VECTOR ( 'NONE', #44, 1000.000000000000000 ) ;
#97 = CARTESIAN_POINT ( 'NONE',  ( 0.000000000000000000, 12.00000000000000000, 0.000000000000000000 ) ) ;
#98 = UNCERTAINTY_MEASURE_WITH_UNIT (LENGTH_MEASURE( 1.000000000000000082E-05 ), #53, 'distance_accuracy_value', 'NONE');
#99 = PRODUCT_DEFINITION ( 'UNKNOWN', '', #29, #49 ) ;
#100 = FACE_OUTER_BOUND ( 'NONE', #283, .T. ) ;
#101 = EDGE_LOOP ( 'NONE', ( #224, #174, #87, #243 ) ) ;
#102 = CARTESIAN_POINT ( 'NONE',  ( 6.123233995736752477E-17, 63.00000000000000000, 0.000000000000000000 ) ) ;
#103 = CARTESIAN_POINT ( 'NONE',  ( 2.883044564901673448E-36, 12.00000000000000000, 0.000000000000000000 ) ) ;
#104 = AXIS2_PLACEMENT_3D ( 'NONE', #211, #26, #277 ) ;
#105 = ORIENTED_EDGE ( 'NONE', *, *, #59, .F. ) ;
#106 = DIRECTION ( 'NONE',  ( 1.200634116811127771E-18, 1.000000000000000000, -0.000000000000000000 ) ) ;
#107 = FILL_AREA_STYLE ('',( #43 ) ) ;
#108 = DIRECTION ( 'NONE',  ( 1.200634116811127771E-18, 1.000000000000000000, -0.000000000000000000 ) ) ;
#109 = SURFACE_STYLE_FILL_AREA ( #184 ) ;
#110 = AXIS2_PLACEMENT_3D ( 'NONE', #146, #169, #140 ) ;
#111 = ORIENTED_EDGE ( 'NONE', *, *, #170, .T. ) ;
#112 = MECHANICAL_DESIGN_GEOMETRIC_PRESENTATION_REPRESENTATION (  '', ( #55 ), #121 ) ;
#113 =( NAMED_UNIT ( * ) SI_UNIT ( $, .STERADIAN. ) SOLID_ANGLE_UNIT ( ) );
#114 = FACE_OUTER_BOUND ( 'NONE', #231, .T. ) ;
#115 = SURFACE_SIDE_STYLE ('',( #215 ) ) ;
#116 = DIRECTION ( 'NONE',  ( -0.000000000000000000, -1.000000000000000000, -0.000000000000000000 ) ) ;
#117 = FILL_AREA_STYLE ('',( #179 ) ) ;
#118 = MECHANICAL_DESIGN_GEOMETRIC_PRESENTATION_REPRESENTATION (  '', ( #137 ), #163 ) ;
#119 = AXIS2_PLACEMENT_3D ( 'NONE', #86, #106, #80 ) ;
#120 = DIRECTION ( 'NONE',  ( 0.000000000000000000, 0.000000000000000000, -1.000000000000000000 ) ) ;
#121 =( GEOMETRIC_REPRESENTATION_CONTEXT ( 3 ) GLOBAL_UNCERTAINTY_ASSIGNED_CONTEXT ( ( #147 ) ) GLOBAL_UNIT_ASSIGNED_CONTEXT ( ( #161, #250, #113 ) ) REPRESENTATION_CONTEXT ( 'NONE', 'WORKASPACE' ) );
#122 = FILL_AREA_STYLE ('',( #255 ) ) ;
#123 = DIRECTION ( 'NONE',  ( 1.200634116811127771E-18, 1.000000000000000000, -0.000000000000000000 ) ) ;
#124 = DIRECTION ( 'NONE',  ( 1.200634116811127771E-18, 1.000000000000000000, -0.000000000000000000 ) ) ;
#125 = VERTEX_POINT ( 'NONE', #233 ) ;
#126 = STYLED_ITEM ( 'NONE', ( #259 ), #199 ) ;
#127 = SURFACE_STYLE_USAGE ( .BOTH. , #6 ) ;
#128 = DIRECTION ( 'NONE',  ( 1.200634116811127771E-18, 1.000000000000000000, -0.000000000000000000 ) ) ;
#129 = MECHANICAL_DESIGN_GEOMETRIC_PRESENTATION_REPRESENTATION (  '', ( #229 ), #276 ) ;
#130 = ADVANCED_FACE ( 'NONE', ( #114 ), #75, .F. ) ;
#131 = DIRECTION ( 'NONE',  ( -1.000000000000000000, 0.000000000000000000, 0.000000000000000000 ) ) ;
#132 = EDGE_LOOP ( 'NONE', ( #201, #256 ) ) ;
#133 = DIRECTION ( 'NONE',  ( 1.000000000000000000, 0.000000000000000000, 0.000000000000000000 ) ) ;
#134 = ADVANCED_FACE ( 'NONE', ( #172 ), #54, .T. ) ;
#135 = CIRCLE ( 'NONE', #7, 4.000000000000000000 ) ;
#136 = SURFACE_SIDE_STYLE ('',( #109 ) ) ;
#137 = STYLED_ITEM ( 'NONE', ( #271 ), #134 ) ;
#138 = SURFACE_STYLE_USAGE ( .BOTH. , #115 ) ;
#139 = EDGE_CURVE ( 'NONE', #19, #149, #190, .T. ) ;
#140 = DIRECTION ( 'NONE',  ( 0.000000000000000000, 0.000000000000000000, -1.000000000000000000 ) ) ;
#141 = VECTOR ( 'NONE', #221, 1000.000000000000000 ) ;
#142 = SURFACE_SIDE_STYLE ('',( #23 ) ) ;
#143 = CARTESIAN_POINT ( 'NONE',  ( 0.000000000000000000, 12.00000000000000000, -4.000000000000000000 ) ) ;
#144 =( NAMED_UNIT ( * ) PLANE_ANGLE_UNIT ( ) SI_UNIT ( $, .RADIAN. ) );
#145 = EDGE_CURVE ( 'NONE', #19, #90, #148, .T. ) ;
#146 = CARTESIAN_POINT ( 'NONE',  ( 0.000000000000000000, 0.000000000000000000, 0.000000000000000000 ) ) ;
#147 = UNCERTAINTY_MEASURE_WITH_UNIT (LENGTH_MEASURE( 1.000000000000000082E-05 ), #161, 'distance_accuracy_value', 'NONE');
#148 = LINE ( 'NONE', #52, #202 ) ;
#149 = VERTEX_POINT ( 'NONE', #143 ) ;
#150 = ORIENTED_EDGE ( 'NONE', *, *, #238, .F. ) ;
#151 = DIRECTION ( 'NONE',  ( -1.000000000000000000, 0.000000000000000000, 0.000000000000000000 ) ) ;
#152 = DIRECTION ( 'NONE',  ( 0.000000000000000000, 1.000000000000000000, 0.000000000000000000 ) ) ;
#153 = DIRECTION ( 'NONE',  ( -0.000000000000000000, -1.000000000000000000, -0.000000000000000000 ) ) ;
#154 = EDGE_CURVE ( 'NONE', #90, #4, #8, .T. ) ;
#155 = SURFACE_STYLE_USAGE ( .BOTH. , #62 ) ;
#156 = CARTESIAN_POINT ( 'NONE',  ( 0.000000000000000000, 0.000000000000000000, 0.000000000000000000 ) ) ;
#157 = AXIS2_PLACEMENT_3D ( 'NONE', #103, #128, #200 ) ;
#158 = CARTESIAN_POINT ( 'NONE',  ( -4.000000000000000000, 63.00000000000000000, 0.000000000000000000 ) ) ;
#159 =( NAMED_UNIT ( * ) SI_UNIT ( $, .STERADIAN. ) SOLID_ANGLE_UNIT ( ) );
#160 = ORIENTED_EDGE ( 'NONE', *, *, #210, .T. ) ;
#161 =( LENGTH_UNIT ( ) NAMED_UNIT ( * ) SI_UNIT ( .MILLI., .METRE. ) );
#162 = APPLICATION_PROTOCOL_DEFINITION ( 'draft international standard', 'automotive_design', 1998, #66 ) ;
#163 =( GEOMETRIC_REPRESENTATION_CONTEXT ( 3 ) GLOBAL_UNCERTAINTY_ASSIGNED_CONTEXT ( ( #98 ) ) GLOBAL_UNIT_ASSIGNED_CONTEXT ( ( #53, #144, #166 ) ) REPRESENTATION_CONTEXT ( 'NONE', 'WORKASPACE' ) );
#164 = PRESENTATION_LAYER_ASSIGNMENT (  '', '', ( #213 ) ) ;
#165 = ORIENTED_EDGE ( 'NONE', *, *, #145, .T. ) ;
#166 =( NAMED_UNIT ( * ) SI_UNIT ( $, .STERADIAN. ) SOLID_ANGLE_UNIT ( ) );
#167 = ADVANCED_FACE ( 'NONE', ( #236 ), #32, .T. ) ;
#168 = CARTESIAN_POINT ( 'NONE',  ( 4.000000000000000000, 63.00000000000000000, 0.000000000000000000 ) ) ;
#169 = DIRECTION ( 'NONE',  ( 0.000000000000000000, -1.000000000000000000, -0.000000000000000000 ) ) ;
#170 = EDGE_CURVE ( 'NONE', #21, #125, #214, .T. ) ;
#171 = CARTESIAN_POINT ( 'NONE',  ( 0.000000000000000000, 0.000000000000000000, 0.000000000000000000 ) ) ;
#172 = FACE_OUTER_BOUND ( 'NONE', #101, .T. ) ;
#173 = VECTOR ( 'NONE', #3, 1000.000000000000000 ) ;
#174 = ORIENTED_EDGE ( 'NONE', *, *, #139, .T. ) ;
#175 = CARTESIAN_POINT ( 'NONE',  ( -4.000000000000000000, 63.00000000000000000, 0.000000000000000000 ) ) ;
#176 = CLOSED_SHELL ( 'NONE', ( #82, #234, #167, #130 ) ) ;
#177 = AXIS2_PLACEMENT_3D ( 'NONE', #195, #124, #278 ) ;
#178 =( NAMED_UNIT ( * ) PLANE_ANGLE_UNIT ( ) SI_UNIT ( $, .RADIAN. ) );
#179 = FILL_AREA_STYLE_COLOUR ( '', #273 ) ;
#180 =( LENGTH_UNIT ( ) NAMED_UNIT ( * ) SI_UNIT ( .MILLI., .METRE. ) );
#181 =( NAMED_UNIT ( * ) PLANE_ANGLE_UNIT ( ) SI_UNIT ( $, .RADIAN. ) );
#182 = PLANE ( 'NONE',  #203 ) ;
#183 = FILL_AREA_STYLE_COLOUR ( '', #242 ) ;
#184 = FILL_AREA_STYLE ('',( #183 ) ) ;
#185 = CARTESIAN_POINT ( 'NONE',  ( 0.000000000000000000, 0.000000000000000000, 0.000000000000000000 ) ) ;
#186 = PRESENTATION_STYLE_ASSIGNMENT (( #230 ) ) ;
#187 = STYLED_ITEM ( 'NONE', ( #240 ), #73 ) ;
#188 = DIRECTION ( 'NONE',  ( -0.000000000000000000, -1.000000000000000000, -0.000000000000000000 ) ) ;
#189 = DIRECTION ( 'NONE',  ( 0.000000000000000000, 0.000000000000000000, -1.000000000000000000 ) ) ;
#190 = CIRCLE ( 'NONE', #61, 4.000000000000000000 ) ;
#191 =( LENGTH_UNIT ( ) NAMED_UNIT ( * ) SI_UNIT ( .MILLI., .METRE. ) );
#192 =( GEOMETRIC_REPRESENTATION_CONTEXT ( 3 ) GLOBAL_UNCERTAINTY_ASSIGNED_CONTEXT ( ( #56 ) ) GLOBAL_UNIT_ASSIGNED_CONTEXT ( ( #220, #65, #159 ) ) REPRESENTATION_CONTEXT ( 'NONE', 'WORKASPACE' ) );
#193 = AXIS2_PLACEMENT_3D ( 'NONE', #168, #25, #74 ) ;
#194 = CYLINDRICAL_SURFACE ( 'NONE', #104, 4.000000000000000000 ) ;
#195 = CARTESIAN_POINT ( 'NONE',  ( 6.123233995736752477E-17, 63.00000000000000000, 0.000000000000000000 ) ) ;
#196 = DIRECTION ( 'NONE',  ( -0.000000000000000000, -1.000000000000000000, -0.000000000000000000 ) ) ;
#197 = CYLINDRICAL_SURFACE ( 'NONE', #24, 4.000000000000000000 ) ;
#198 = AXIS2_PLACEMENT_3D ( 'NONE', #102, #225, #151 ) ;
#199 = ADVANCED_FACE ( 'NONE', ( #100 ), #197, .T. ) ;
#200 = DIRECTION ( 'NONE',  ( -1.000000000000000000, 1.200634116811127771E-18, 0.000000000000000000 ) ) ;
#201 = ORIENTED_EDGE ( 'NONE', *, *, #33, .F. ) ;
#202 = VECTOR ( 'NONE', #9, 1000.000000000000000 ) ;
#203 = AXIS2_PLACEMENT_3D ( 'NONE', #244, #152, #261 ) ;
#204 = ORIENTED_EDGE ( 'NONE', *, *, #27, .T. ) ;
#205 = SURFACE_STYLE_FILL_AREA ( #107 ) ;
#206 =( LENGTH_UNIT ( ) NAMED_UNIT ( * ) SI_UNIT ( .MILLI., .METRE. ) );
#207 = AXIS2_PLACEMENT_3D ( 'NONE', #232, #116, #275 ) ;
#208 = CARTESIAN_POINT ( 'NONE',  ( 0.000000000000000000, 11.99999999999999645, 0.000000000000000000 ) ) ;
#209 = ORIENTED_EDGE ( 'NONE', *, *, #139, .F. ) ;
#210 = EDGE_CURVE ( 'NONE', #60, #21, #34, .T. ) ;
#211 = CARTESIAN_POINT ( 'NONE',  ( 6.123233995736752477E-17, 63.00000000000000000, 0.000000000000000000 ) ) ;
#212 = CLOSED_SHELL ( 'NONE', ( #199, #247, #134, #77 ) ) ;
#213 = STYLED_ITEM ( 'NONE', ( #83 ), #247 ) ;
#214 = CIRCLE ( 'NONE', #5, 4.000000000000000000 ) ;
#215 = SURFACE_STYLE_FILL_AREA ( #122 ) ;
#216 = UNCERTAINTY_MEASURE_WITH_UNIT (LENGTH_MEASURE( 1.000000000000000082E-05 ), #191, 'distance_accuracy_value', 'NONE');
#217 = DIRECTION ( 'NONE',  ( -1.000000000000000000, 0.000000000000000000, 0.000000000000000000 ) ) ;
#218 = ORIENTED_EDGE ( 'NONE', *, *, #210, .F. ) ;
#219 = COLOUR_RGB ( '',1.000000000000000000, 0.000000000000000000, 0.000000000000000000 ) ;
#220 =( LENGTH_UNIT ( ) NAMED_UNIT ( * ) SI_UNIT ( .MILLI., .METRE. ) );
#221 = DIRECTION ( 'NONE',  ( 1.200634116811127771E-18, 1.000000000000000000, -0.000000000000000000 ) ) ;
#222 = VERTEX_POINT ( 'NONE', #241 ) ;
#223 =( LENGTH_UNIT ( ) NAMED_UNIT ( * ) SI_UNIT ( .MILLI., .METRE. ) );
#224 = ORIENTED_EDGE ( 'NONE', *, *, #145, .F. ) ;
#225 = DIRECTION ( 'NONE',  ( 1.200634116811127771E-18, 1.000000000000000000, -0.000000000000000000 ) ) ;
#226 = COLOUR_RGB ( '',0.7921568627450980005, 0.8196078431372548767, 0.9333333333333333481 ) ;
#227 = CIRCLE ( 'NONE', #119, 4.000000000000000000 ) ;
#228 = EDGE_LOOP ( 'NONE', ( #267, #204, #45, #218 ) ) ;
#229 = STYLED_ITEM ( 'NONE', ( #95 ), #77 ) ;
#230 = SURFACE_STYLE_USAGE ( .BOTH. , #136 ) ;
#231 = EDGE_LOOP ( 'NONE', ( #111, #57 ) ) ;
#232 = CARTESIAN_POINT ( 'NONE',  ( 0.000000000000000000, 0.000000000000000000, 0.000000000000000000 ) ) ;
#233 = CARTESIAN_POINT ( 'NONE',  ( 4.000000000000000000, 63.00000000000000000, 4.898587196589412829E-16 ) ) ;
#234 = ADVANCED_FACE ( 'NONE', ( #40 ), #258, .F. ) ;
#235 = UNCERTAINTY_MEASURE_WITH_UNIT (LENGTH_MEASURE( 1.000000000000000082E-05 ), #223, 'distance_accuracy_value', 'NONE');
#236 = FACE_OUTER_BOUND ( 'NONE', #36, .T. ) ;
#237 = EDGE_LOOP ( 'NONE', ( #263, #16 ) ) ;
#238 = EDGE_CURVE ( 'NONE', #125, #21, #285, .T. ) ;
#239 = PRESENTATION_LAYER_ASSIGNMENT (  '', '', ( #55 ) ) ;
#240 = PRESENTATION_STYLE_ASSIGNMENT (( #155 ) ) ;
#241 = CARTESIAN_POINT ( 'NONE',  ( 4.000000000000000000, 11.99999999999999645, 4.898587196589412829E-16 ) ) ;
#242 = COLOUR_RGB ( '',0.7921568627450980005, 0.8196078431372548767, 0.9333333333333333481 ) ;
#243 = ORIENTED_EDGE ( 'NONE', *, *, #154, .F. ) ;
#244 = CARTESIAN_POINT ( 'NONE',  ( 0.000000000000000000, 12.00000000000000000, 0.000000000000000000 ) ) ;
#245 = PLANE ( 'NONE',  #110 ) ;
#246 = LINE ( 'NONE', #68, #173 ) ;
#247 = ADVANCED_FACE ( 'NONE', ( #81 ), #182, .T. ) ;
#248 = COLOUR_RGB ( '',1.000000000000000000, 0.000000000000000000, 0.000000000000000000 ) ;
#249 = AXIS2_PLACEMENT_3D ( 'NONE', #279, #76, #10 ) ;
#250 =( NAMED_UNIT ( * ) PLANE_ANGLE_UNIT ( ) SI_UNIT ( $, .RADIAN. ) );
#251 = FACE_OUTER_BOUND ( 'NONE', #237, .T. ) ;
#252 =( NAMED_UNIT ( * ) SI_UNIT ( $, .STERADIAN. ) SOLID_ANGLE_UNIT ( ) );
#253 = FILL_AREA_STYLE ('',( #281 ) ) ;
#254 = PRODUCT ( '59461', '59461', '', ( #18 ) ) ;
#255 = FILL_AREA_STYLE_COLOUR ( '', #248 ) ;
#256 = ORIENTED_EDGE ( 'NONE', *, *, #266, .F. ) ;
#257 = ORIENTED_EDGE ( 'NONE', *, *, #91, .F. ) ;
#258 = PLANE ( 'NONE',  #157 ) ;
#259 = PRESENTATION_STYLE_ASSIGNMENT (( #127 ) ) ;
#260 =( GEOMETRIC_REPRESENTATION_CONTEXT ( 3 ) GLOBAL_UNCERTAINTY_ASSIGNED_CONTEXT ( ( #31 ) ) GLOBAL_UNIT_ASSIGNED_CONTEXT ( ( #206, #181, #252 ) ) REPRESENTATION_CONTEXT ( 'NONE', 'WORKASPACE' ) );
#261 = DIRECTION ( 'NONE',  ( 0.000000000000000000, -0.000000000000000000, 1.000000000000000000 ) ) ;
#262 = FILL_AREA_STYLE ('',( #42 ) ) ;
#263 = ORIENTED_EDGE ( 'NONE', *, *, #88, .T. ) ;
#264 =( GEOMETRIC_REPRESENTATION_CONTEXT ( 3 ) GLOBAL_UNCERTAINTY_ASSIGNED_CONTEXT ( ( #280 ) ) GLOBAL_UNIT_ASSIGNED_CONTEXT ( ( #180, #286, #63 ) ) REPRESENTATION_CONTEXT ( 'NONE', 'WORKASPACE' ) );
#265 = APPLICATION_PROTOCOL_DEFINITION ( 'draft international standard', 'automotive_design', 1998, #272 ) ;
#266 = EDGE_CURVE ( 'NONE', #222, #60, #227, .T. ) ;
#267 = ORIENTED_EDGE ( 'NONE', *, *, #33, .T. ) ;
#268 = DIRECTION ( 'NONE',  ( 0.000000000000000000, 0.000000000000000000, 1.000000000000000000 ) ) ;
#269 = AXIS2_PLACEMENT_3D ( 'NONE', #208, #108, #131 ) ;
#270 = CARTESIAN_POINT ( 'NONE',  ( 4.898587196589412829E-16, 0.000000000000000000, 4.000000000000000000 ) ) ;
#271 = PRESENTATION_STYLE_ASSIGNMENT (( #138 ) ) ;
#272 = APPLICATION_CONTEXT ( 'automotive_design' ) ;
#273 = COLOUR_RGB ( '',1.000000000000000000, 0.000000000000000000, 0.000000000000000000 ) ;
#274 =( GEOMETRIC_REPRESENTATION_CONTEXT ( 3 ) GLOBAL_UNCERTAINTY_ASSIGNED_CONTEXT ( ( #235 ) ) GLOBAL_UNIT_ASSIGNED_CONTEXT ( ( #223, #178, #39 ) ) REPRESENTATION_CONTEXT ( 'NONE', 'WORKASPACE' ) );
#275 = DIRECTION ( 'NONE',  ( 0.000000000000000000, 0.000000000000000000, -1.000000000000000000 ) ) ;
#276 =( GEOMETRIC_REPRESENTATION_CONTEXT ( 3 ) GLOBAL_UNCERTAINTY_ASSIGNED_CONTEXT ( ( #216 ) ) GLOBAL_UNIT_ASSIGNED_CONTEXT ( ( #191, #71, #50 ) ) REPRESENTATION_CONTEXT ( 'NONE', 'WORKASPACE' ) );
#277 = DIRECTION ( 'NONE',  ( -1.000000000000000000, 0.000000000000000000, 0.000000000000000000 ) ) ;
#278 = DIRECTION ( 'NONE',  ( -1.000000000000000000, 0.000000000000000000, 0.000000000000000000 ) ) ;
#279 = CARTESIAN_POINT ( 'NONE',  ( 0.000000000000000000, 0.000000000000000000, 0.000000000000000000 ) ) ;
#280 = UNCERTAINTY_MEASURE_WITH_UNIT (LENGTH_MEASURE( 1.000000000000000082E-05 ), #180, 'distance_accuracy_value', 'NONE');
#281 = FILL_AREA_STYLE_COLOUR ( '', #219 ) ;
#282 = MECHANICAL_DESIGN_GEOMETRIC_PRESENTATION_REPRESENTATION (  '', ( #126 ), #264 ) ;
#283 = EDGE_LOOP ( 'NONE', ( #85, #165, #13, #105 ) ) ;
#284 = CIRCLE ( 'NONE', #207, 4.000000000000000000 ) ;
#285 = CIRCLE ( 'NONE', #198, 4.000000000000000000 ) ;
#286 =( NAMED_UNIT ( * ) PLANE_ANGLE_UNIT ( ) SI_UNIT ( $, .RADIAN. ) );
#287 = PRESENTATION_LAYER_ASSIGNMENT (  '', '', ( #137 ) ) ;
#288 = ADVANCED_BREP_SHAPE_REPRESENTATION ( '59461', ( #72, #73, #35 ), #274 ) ;
ENDSEC;
END-ISO-10303-21;
